  0
SECTION
  2
HEADER
  9
$ACADVER
  1
AC1009
  9
$INSBASE
 10
0.0
 20
0.0
 30
0.0
  9
$EXTMIN
 10
0.0
 20
-2.960436562073669
 30
0.0
  9
$EXTMAX
 10
267.00000000000011
 20
366.99999999999989
 30
0.0
  9
$LIMMIN
 10
0.0
 20
0.0
  9
$LIMMAX
 10
750.0
 20
540.0
  9
$ORTHOMODE
 70
     1
  9
$REGENMODE
 70
     1
  9
$FILLMODE
 70
     1
  9
$QTEXTMODE
 70
     0
  9
$MIRRTEXT
 70
     0
  9
$DRAGMODE
 70
     2
  9
$LTSCALE
 40
10.0
  9
$OSMODE
 70
    37
  9
$ATTMODE
 70
     1
  9
$TEXTSIZE
 40
0.2
  9
$TRACEWID
 40
0.05
  9
$TEXTSTYLE
  7
STANDARD
  9
$CLAYER
  8
0
  9
$CELTYPE
  6
BYLAYER
  9
$CECOLOR
 62
   256
  9
$DIMSCALE
 40
2.0
  9
$DIMASZ
 40
3.0
  9
$DIMEXO
 40
2.0
  9
$DIMDLI
 40
0.38
  9
$DIMRND
 40
0.0
  9
$DIMDLE
 40
0.0
  9
$DIMEXE
 40
2.0
  9
$DIMTP
 40
0.0
  9
$DIMTM
 40
0.0
  9
$DIMTXT
 40
3.2000000000000002
  9
$DIMCEN
 40
0.0
  9
$DIMTSZ
 40
0.0
  9
$DIMTOL
 70
     0
  9
$DIMLIM
 70
     0
  9
$DIMTIH
 70
     0
  9
$DIMTOH
 70
     0
  9
$DIMSE1
 70
     0
  9
$DIMSE2
 70
     0
  9
$DIMTAD
 70
     1
  9
$DIMZIN
 70
     8
  9
$DIMBLK
  1

  9
$DIMASO
 70
     1
  9
$DIMSHO
 70
     0
  9
$DIMPOST
  1

  9
$DIMAPOST
  1

  9
$DIMALT
 70
     0
  9
$DIMALTD
 70
     2
  9
$DIMALTF
 40
25.399999999999999
  9
$DIMLFAC
 40
1.0
  9
$DIMTOFL
 70
     1
  9
$DIMTVP
 40
1.6000000000000001
  9
$DIMTIX
 70
     1
  9
$DIMSOXD
 70
     0
  9
$DIMSAH
 70
     0
  9
$DIMBLK1
  1

  9
$DIMBLK2
  1

  9
$DIMSTYLE
  2
STANDARD
  9
$DIMCLRD
 70
     0
  9
$DIMCLRE
 70
     0
  9
$DIMCLRT
 70
     0
  9
$DIMTFAC
 40
1.0
  9
$DIMGAP
 40
0.09
  9
$LUNITS
 70
     2
  9
$LUPREC
 70
     1
  9
$SKETCHINC
 40
0.1
  9
$FILLETRAD
 40
0.0
  9
$AUNITS
 70
     0
  9
$AUPREC
 70
     1
  9
$MENU
  1
E:\r13\win\SUPPORT\ACAD
  9
$ELEVATION
 40
0.0
  9
$PELEVATION
 40
0.0
  9
$THICKNESS
 40
0.0
  9
$LIMCHECK
 70
     0
  9
$BLIPMODE
 70
     0
  9
$CHAMFERA
 40
0.0
  9
$CHAMFERB
 40
0.0
  9
$SKPOLY
 70
     0
  9
$TDCREATE
 40
2451614.4610555549
  9
$TDUPDATE
 40
2457893.6527625578
  9
$TDINDWG
 40
0.0939058681
  9
$TDUSRTIMER
 40
0.0939058681
  9
$USRTIMER
 70
     1
  9
$ANGBASE
 50
0.0
  9
$ANGDIR
 70
     0
  9
$PDMODE
 70
     0
  9
$PDSIZE
 40
0.0
  9
$PLINEWID
 40
0.0
  9
$COORDS
 70
     1
  9
$SPLFRAME
 70
     0
  9
$SPLINETYPE
 70
     6
  9
$SPLINESEGS
 70
     8
  9
$ATTDIA
 70
     0
  9
$ATTREQ
 70
     1
  9
$HANDLING
 70
     1
  9
$HANDSEED
  5
3F0F
  9
$SURFTAB1
 70
     6
  9
$SURFTAB2
 70
     6
  9
$SURFTYPE
 70
     6
  9
$SURFU
 70
     6
  9
$SURFV
 70
     6
  9
$UCSNAME
  2

  9
$UCSORG
 10
0.0
 20
0.0
 30
0.0
  9
$UCSXDIR
 10
1.0
 20
0.0
 30
0.0
  9
$UCSYDIR
 10
0.0
 20
1.0
 30
0.0
  9
$PUCSNAME
  2

  9
$PUCSORG
 10
0.0
 20
0.0
 30
0.0
  9
$PUCSXDIR
 10
1.0
 20
0.0
 30
0.0
  9
$PUCSYDIR
 10
0.0
 20
1.0
 30
0.0
  9
$USERI1
 70
     0
  9
$USERI2
 70
     1
  9
$USERI3
 70
     1
  9
$USERI4
 70
     0
  9
$USERI5
 70
     0
  9
$USERR1
 40
0.0
  9
$USERR2
 40
0.0
  9
$USERR3
 40
0.0
  9
$USERR4
 40
0.0
  9
$USERR5
 40
0.0
  9
$WORLDVIEW
 70
     1
  9
$SHADEDGE
 70
     3
  9
$SHADEDIF
 70
    70
  9
$TILEMODE
 70
     1
  9
$MAXACTVP
 70
    16
  9
$PLIMCHECK
 70
     0
  9
$PEXTMIN
 10
1.0000000000000000E+020
 20
1.0000000000000000E+020
 30
1.0000000000000000E+020
  9
$PEXTMAX
 10
-1.0000000000000000E+020
 20
-1.0000000000000000E+020
 30
-1.0000000000000000E+020
  9
$PLIMMIN
 10
0.0
 20
0.0
  9
$PLIMMAX
 10
12.0
 20
9.0
  9
$UNITMODE
 70
     0
  9
$VISRETAIN
 70
     0
  9
$PLINEGEN
 70
     0
  9
$PSLTSCALE
 70
     0
  0
ENDSEC
  0
SECTION
  2
TABLES
  0
TABLE
  2
VPORT
 70
     1
  0
VPORT
  2
*ACTIVE
 70
     0
 10
0.0
 20
0.0
 11
1.0
 21
1.0
 12
363.24786324786322
 22
200.0
 13
0.0
 23
0.0
 14
20.0
 24
20.0
 15
20.0
 25
20.0
 16
0.0
 26
0.0
 36
1.0
 17
0.0
 27
0.0
 37
0.0
 40
400.0
 41
1.816239316239316
 42
50.0
 43
0.0
 44
0.0
 50
0.0
 51
0.0
 71
     0
 72
   500
 73
     1
 74
     0
 75
     0
 76
     0
 77
     0
 78
     2
  0
ENDTAB
  0
TABLE
  2
LTYPE
 70
     3
  0
LTYPE
  2
CONTINUOUS
 70
     0
  3
Solid Line
 72
    65
 73
     0
 40
0.0
  0
LTYPE
  2
CENTER
 70
     0
  3
____ _ ____ _ ____ _ ____ _ ____ _ ____ _ ____
 72
    65
 73
     4
 40
2.0
 49
1.25
 49
-0.25
 49
0.25
 49
-0.25
  0
LTYPE
  2
PHANTOM2
 70
     0
  3
___ _ _ ___ _ _ ___ _ _ ___ _ _
 72
    65
 73
     6
 40
1.25
 49
0.625
 49
-0.125
 49
0.125
 49
-0.125
 49
0.125
 49
-0.125
  0
ENDTAB
  0
TABLE
  2
LAYER
 70
     4
  0
LAYER
  2
0
 70
     0
 62
     7
  6
CONTINUOUS
  0
LAYER
  2
1
 70
     0
 62
     1
  6
CENTER
  0
LAYER
  2
3
 70
     0
 62
     3
  6
CONTINUOUS
  0
LAYER
  2
DEFPOINTS
 70
     0
 62
     7
  6
CONTINUOUS
  0
ENDTAB
  0
TABLE
  2
STYLE
 70
     3
  0
STYLE
  2
STANDARD
 70
     0
 40
0.0
 41
1.0
 50
0.0
 71
     0
 42
0.2
  3
TXT
  4
BIGFONT
  0
STYLE
  2
SIM300
 70
     0
 40
0.0
 41
3.0
 50
0.0
 71
     0
 42
1.0
  3
SIMPLEX
  4

  0
STYLE
  2
STANDARD1
 70
     0
 40
0.0
 41
1.0
 50
0.0
 71
     0
 42
3.0
  3
txt
  4

  0
ENDTAB
  0
TABLE
  2
VIEW
 70
     1
  0
VIEW
  2
ALL
 70
     0
 40
540.0
 10
441.98319327731087
 20
270.0
 41
0.0
 11
0.0
 21
0.0
 31
1.0
 12
0.0
 22
0.0
 32
0.0
 42
0.0
 43
0.0
 44
0.0
 50
0.0
 71
     0
  0
ENDTAB
  0
TABLE
  2
UCS
 70
     0
  0
ENDTAB
  0
TABLE
  2
APPID
 70
     6
  0
APPID
  2
ACAD
 70
     0
  0
APPID
  2
ACAD_MLEADERVER
 70
     0
  0
APPID
  2
ACAD_NAV_VCDISPLAY
 70
     0
  0
APPID
  2
ACAD_EXEMPT_FROM_CAD_STANDARDS
 70
     0
  0
APPID
  2
ACAD_DSTYLE_DIMJAG
 70
     0
  0
APPID
  2
ACAD_DSTYLE_DIMTALN
 70
     0
  0
ENDTAB
  0
TABLE
  2
DIMSTYLE
 70
     1
  0
DIMSTYLE
  2
STANDARD
 70
     0
  3

  4

  5

  6

  7

 40
1.0
 41
0.18
 42
0.0625
 43
0.38
 44
0.18
 45
0.0
 46
0.0
 47
0.0
 48
0.0
140
0.18
141
0.09
142
0.0
143
25.399999999999999
144
1.0
145
0.0
146
1.0
147
0.09
 71
     0
 72
     0
 73
     1
 74
     1
 75
     0
 76
     0
 77
     0
 78
     0
170
     0
171
     2
172
     0
173
     0
174
     0
175
     0
176
     0
177
     0
178
     0
  0
ENDTAB
  0
ENDSEC
  0
SECTION
  2
BLOCKS
  0
BLOCK
  8
0
  2
$MODEL_SPACE
 70
     0
 10
0.0
 20
0.0
 30
0.0
  3
$MODEL_SPACE
  1

  0
ENDBLK
  5
E98
  8
0
  0
BLOCK
 67
     1
  8
0
  2
$PAPER_SPACE
 70
     0
 10
0.0
 20
0.0
 30
0.0
  3
$PAPER_SPACE
  1

  0
ENDBLK
  5
E96
 67
     1
  8
0
  0
ENDSEC
  0
SECTION
  2
ENTITIES
  0
TEXT
  5
F8E
  8
0
 62
     3
 10
0.0
 20
0.0
 30
0.0
 40
10.0
  1
LR-127PP-SUS
  7
STANDARD1
  0
LINE
  5
1F98
  8
1
 10
78.0
 20
214.0
 30
0.0
 11
121.0
 21
214.0
 31
0.0
  0
LINE
  5
1F99
  8
1
 10
99.500000000000014
 20
188.0
 30
0.0
 11
99.500000000000014
 21
366.99999999999989
 31
0.0
  0
LINE
  5
1F9A
  8
1
 10
78.0
 20
341.00000000000011
 30
0.0
 11
121.0
 21
341.0
 31
0.0
  0
LINE
  5
1F9C
  8
0
 10
91.189951865362048
 20
215.0
 30
0.0
 11
107.8100481346379
 21
215.0
 31
0.0
  0
LINE
  5
1F9E
  8
0
 10
107.8100481346379
 20
213.0
 30
0.0
 11
91.189951865362048
 21
213.0
 31
0.0
  0
CIRCLE
  5
1FA1
  8
0
 10
99.500000000000171
 20
214.0
 30
0.0
 40
8.369999999999834
  0
LINE
  5
1FA2
  8
0
 10
91.189951865362048
 20
342.0
 30
0.0
 11
107.8100481346379
 21
342.0
 31
0.0
  0
LINE
  5
1FA4
  8
0
 10
107.8100481346379
 20
340.0
 30
0.0
 11
91.189951865362048
 21
340.0
 31
0.0
  0
CIRCLE
  5
1FA7
  8
0
 10
99.500000000000171
 20
341.0
 30
0.0
 40
8.369999999999834
  0
LINE
  5
1FA8
  8
0
 10
80.0
 20
226.0
 30
0.0
 11
80.489000000000033
 21
226.0
 31
0.0
  0
LINE
  5
1FA9
  8
0
 10
80.0
 20
226.0
 30
0.0
 11
80.0
 21
193.0
 31
0.0
  0
LINE
  5
1FAA
  8
0
 10
80.0
 20
362.0
 30
0.0
 11
80.0
 21
329.0
 31
0.0
  0
LINE
  5
1FAB
  8
0
 10
80.488999999999976
 20
329.0
 30
0.0
 11
80.0
 21
329.0
 31
0.0
  0
POLYLINE
  5
1FAC
  8
0
 66
     1
 10
0.0
 20
0.0
 30
0.0
  0
VERTEX
  5
3CA5
  8
0
 10
80.989000000000033
 20
328.5
 30
0.0
  0
VERTEX
  5
3CA6
  8
0
 10
80.987097349045882
 20
328.54357787137383
 30
0.0
  0
VERTEX
  5
3CA7
  8
0
 10
80.981403876506064
 20
328.58682408883351
 30
0.0
  0
VERTEX
  5
3CA8
  8
0
 10
80.971962913144509
 20
328.62940952255121
 30
0.0
  0
VERTEX
  5
3CA9
  8
0
 10
80.958846310392914
 20
328.67101007166292
 30
0.0
  0
VERTEX
  5
3CAA
  8
0
 10
80.942153893518295
 20
328.7113091308704
 30
0.0
  0
VERTEX
  5
3CAB
  8
0
 10
80.922012701892186
 20
328.75
 30
0.0
  0
VERTEX
  5
3CAC
  8
0
 10
80.898576022144496
 20
328.7867882181755
 30
0.0
  0
VERTEX
  5
3CAD
  8
0
 10
80.872022221559504
 20
328.8213938048433
 30
0.0
  0
VERTEX
  5
3CAE
  8
0
 10
80.842553390593253
 20
328.85355339059328
 30
0.0
  0
VERTEX
  5
3CAF
  8
0
 10
80.810393804843272
 20
328.88302222155949
 30
0.0
  0
VERTEX
  5
3CB0
  8
0
 10
80.775788218175535
 20
328.90957602214451
 30
0.0
  0
VERTEX
  5
3CB1
  8
0
 10
80.738999999999976
 20
328.93301270189232
 30
0.0
  0
VERTEX
  5
3CB2
  8
0
 10
80.700309130870323
 20
328.95315389351828
 30
0.0
  0
VERTEX
  5
3CB3
  8
0
 10
80.660010071662825
 20
328.969846310393
 30
0.0
  0
VERTEX
  5
3CB4
  8
0
 10
80.618409522551246
 20
328.9829629131446
 30
0.0
  0
VERTEX
  5
3CB5
  8
0
 10
80.575824088833429
 20
328.9924038765061
 30
0.0
  0
VERTEX
  5
3CB6
  8
0
 10
80.53257787137386
 20
328.99809734904591
 30
0.0
  0
VERTEX
  5
3CB7
  8
0
 10
80.488999999999976
 20
329.0
 30
0.0
  0
SEQEND
  5
3CB8
  8
0
  0
LINE
  5
1FAD
  8
0
 10
80.988999999999976
 20
308.5
 30
0.0
 11
80.989000000000033
 21
328.5
 31
0.0
  0
POLYLINE
  5
1FAE
  8
0
 66
     1
 10
0.0
 20
0.0
 30
0.0
  0
VERTEX
  5
3CB9
  8
0
 10
80.489000000000033
 20
308.0
 30
0.0
  0
VERTEX
  5
3CBA
  8
0
 10
80.53257787137386
 20
308.00190265095421
 30
0.0
  0
VERTEX
  5
3CBB
  8
0
 10
80.575824088833429
 20
308.0075961234939
 30
0.0
  0
VERTEX
  5
3CBC
  8
0
 10
80.618409522551246
 20
308.0170370868554
 30
0.0
  0
VERTEX
  5
3CBD
  8
0
 10
80.660010071662825
 20
308.030153689607
 30
0.0
  0
VERTEX
  5
3CBE
  8
0
 10
80.700309130870323
 20
308.04684610648172
 30
0.0
  0
VERTEX
  5
3CBF
  8
0
 10
80.739000000000033
 20
308.06698729810768
 30
0.0
  0
VERTEX
  5
3CC0
  8
0
 10
80.775788218175535
 20
308.09042397785549
 30
0.0
  0
VERTEX
  5
3CC1
  8
0
 10
80.810393804843272
 20
308.11697777844051
 30
0.0
  0
VERTEX
  5
3CC2
  8
0
 10
80.842553390593253
 20
308.14644660940672
 30
0.0
  0
VERTEX
  5
3CC3
  8
0
 10
80.872022221559504
 20
308.17860619515682
 30
0.0
  0
VERTEX
  5
3CC4
  8
0
 10
80.898576022144539
 20
308.2132117818245
 30
0.0
  0
VERTEX
  5
3CC5
  8
0
 10
80.922012701892186
 20
308.25
 30
0.0
  0
VERTEX
  5
3CC6
  8
0
 10
80.942153893518295
 20
308.28869086912971
 30
0.0
  0
VERTEX
  5
3CC7
  8
0
 10
80.958846310392914
 20
308.32898992833719
 30
0.0
  0
VERTEX
  5
3CC8
  8
0
 10
80.971962913144509
 20
308.37059047744879
 30
0.0
  0
VERTEX
  5
3CC9
  8
0
 10
80.981403876506064
 20
308.41317591116649
 30
0.0
  0
VERTEX
  5
3CCA
  8
0
 10
80.987097349045882
 20
308.45642212862617
 30
0.0
  0
VERTEX
  5
3CCB
  8
0
 10
80.988999999999976
 20
308.5
 30
0.0
  0
SEQEND
  5
3CCC
  8
0
  0
LINE
  5
1FAF
  8
0
 10
80.0
 20
308.0
 30
0.0
 11
80.489000000000033
 21
308.0
 31
0.0
  0
LINE
  5
1FB0
  8
0
 10
80.0
 20
308.0
 30
0.0
 11
80.0
 21
288.0
 31
0.0
  0
LINE
  5
1FB1
  8
0
 10
80.488999999999976
 20
288.0
 30
0.0
 11
80.0
 21
288.0
 31
0.0
  0
POLYLINE
  5
1FB2
  8
0
 66
     1
 10
0.0
 20
0.0
 30
0.0
  0
VERTEX
  5
3CCD
  8
0
 10
80.989000000000033
 20
287.5
 30
0.0
  0
VERTEX
  5
3CCE
  8
0
 10
80.987097349045882
 20
287.54357787137383
 30
0.0
  0
VERTEX
  5
3CCF
  8
0
 10
80.981403876506064
 20
287.58682408883351
 30
0.0
  0
VERTEX
  5
3CD0
  8
0
 10
80.971962913144509
 20
287.62940952255121
 30
0.0
  0
VERTEX
  5
3CD1
  8
0
 10
80.958846310392914
 20
287.67101007166281
 30
0.0
  0
VERTEX
  5
3CD2
  8
0
 10
80.942153893518295
 20
287.7113091308704
 30
0.0
  0
VERTEX
  5
3CD3
  8
0
 10
80.922012701892186
 20
287.75
 30
0.0
  0
VERTEX
  5
3CD4
  8
0
 10
80.898576022144496
 20
287.7867882181755
 30
0.0
  0
VERTEX
  5
3CD5
  8
0
 10
80.872022221559504
 20
287.8213938048433
 30
0.0
  0
VERTEX
  5
3CD6
  8
0
 10
80.842553390593253
 20
287.85355339059328
 30
0.0
  0
VERTEX
  5
3CD7
  8
0
 10
80.810393804843272
 20
287.88302222155949
 30
0.0
  0
VERTEX
  5
3CD8
  8
0
 10
80.775788218175535
 20
287.90957602214451
 30
0.0
  0
VERTEX
  5
3CD9
  8
0
 10
80.738999999999976
 20
287.93301270189232
 30
0.0
  0
VERTEX
  5
3CDA
  8
0
 10
80.700309130870323
 20
287.95315389351828
 30
0.0
  0
VERTEX
  5
3CDB
  8
0
 10
80.660010071662825
 20
287.969846310393
 30
0.0
  0
VERTEX
  5
3CDC
  8
0
 10
80.618409522551246
 20
287.9829629131446
 30
0.0
  0
VERTEX
  5
3CDD
  8
0
 10
80.575824088833429
 20
287.99240387650622
 30
0.0
  0
VERTEX
  5
3CDE
  8
0
 10
80.53257787137386
 20
287.99809734904591
 30
0.0
  0
VERTEX
  5
3CDF
  8
0
 10
80.488999999999976
 20
288.0
 30
0.0
  0
SEQEND
  5
3CE0
  8
0
  0
LINE
  5
1FB3
  8
0
 10
80.989000000000033
 20
267.5
 30
0.0
 11
80.989000000000033
 21
287.5
 31
0.0
  0
POLYLINE
  5
1FB4
  8
0
 66
     1
 10
0.0
 20
0.0
 30
0.0
  0
VERTEX
  5
3CE1
  8
0
 10
80.489000000000033
 20
267.0
 30
0.0
  0
VERTEX
  5
3CE2
  8
0
 10
80.53257787137386
 20
267.00190265095409
 30
0.0
  0
VERTEX
  5
3CE3
  8
0
 10
80.575824088833429
 20
267.00759612349378
 30
0.0
  0
VERTEX
  5
3CE4
  8
0
 10
80.618409522551246
 20
267.01703708685551
 30
0.0
  0
VERTEX
  5
3CE5
  8
0
 10
80.660010071662825
 20
267.030153689607
 30
0.0
  0
VERTEX
  5
3CE6
  8
0
 10
80.700309130870323
 20
267.04684610648172
 30
0.0
  0
VERTEX
  5
3CE7
  8
0
 10
80.739000000000033
 20
267.06698729810768
 30
0.0
  0
VERTEX
  5
3CE8
  8
0
 10
80.775788218175535
 20
267.09042397785549
 30
0.0
  0
VERTEX
  5
3CE9
  8
0
 10
80.810393804843272
 20
267.11697777844051
 30
0.0
  0
VERTEX
  5
3CEA
  8
0
 10
80.842553390593253
 20
267.14644660940678
 30
0.0
  0
VERTEX
  5
3CEB
  8
0
 10
80.872022221559504
 20
267.17860619515682
 30
0.0
  0
VERTEX
  5
3CEC
  8
0
 10
80.898576022144539
 20
267.2132117818245
 30
0.0
  0
VERTEX
  5
3CED
  8
0
 10
80.922012701892186
 20
267.25
 30
0.0
  0
VERTEX
  5
3CEE
  8
0
 10
80.942153893518366
 20
267.28869086912971
 30
0.0
  0
VERTEX
  5
3CEF
  8
0
 10
80.958846310392914
 20
267.32898992833731
 30
0.0
  0
VERTEX
  5
3CF0
  8
0
 10
80.971962913144509
 20
267.37059047744879
 30
0.0
  0
VERTEX
  5
3CF1
  8
0
 10
80.981403876506064
 20
267.41317591116649
 30
0.0
  0
VERTEX
  5
3CF2
  8
0
 10
80.987097349045882
 20
267.45642212862617
 30
0.0
  0
VERTEX
  5
3CF3
  8
0
 10
80.989000000000033
 20
267.5
 30
0.0
  0
SEQEND
  5
3CF4
  8
0
  0
LINE
  5
1FB5
  8
0
 10
80.0
 20
267.0
 30
0.0
 11
80.489000000000033
 21
267.0
 31
0.0
  0
LINE
  5
1FB6
  8
0
 10
80.0
 20
267.0
 30
0.0
 11
80.0
 21
247.0
 31
0.0
  0
LINE
  5
1FB7
  8
0
 10
80.488999999999976
 20
247.0
 30
0.0
 11
80.0
 21
247.0
 31
0.0
  0
POLYLINE
  5
1FB8
  8
0
 66
     1
 10
0.0
 20
0.0
 30
0.0
  0
VERTEX
  5
3CF5
  8
0
 10
80.989000000000033
 20
246.5
 30
0.0
  0
VERTEX
  5
3CF6
  8
0
 10
80.987097349045882
 20
246.5435778713738
 30
0.0
  0
VERTEX
  5
3CF7
  8
0
 10
80.981403876506064
 20
246.58682408883351
 30
0.0
  0
VERTEX
  5
3CF8
  8
0
 10
80.971962913144509
 20
246.62940952255121
 30
0.0
  0
VERTEX
  5
3CF9
  8
0
 10
80.958846310392914
 20
246.67101007166289
 30
0.0
  0
VERTEX
  5
3CFA
  8
0
 10
80.942153893518295
 20
246.7113091308704
 30
0.0
  0
VERTEX
  5
3CFB
  8
0
 10
80.922012701892186
 20
246.75
 30
0.0
  0
VERTEX
  5
3CFC
  8
0
 10
80.898576022144496
 20
246.7867882181755
 30
0.0
  0
VERTEX
  5
3CFD
  8
0
 10
80.872022221559504
 20
246.8213938048433
 30
0.0
  0
VERTEX
  5
3CFE
  8
0
 10
80.842553390593253
 20
246.85355339059331
 30
0.0
  0
VERTEX
  5
3CFF
  8
0
 10
80.810393804843272
 20
246.88302222155949
 30
0.0
  0
VERTEX
  5
3D00
  8
0
 10
80.775788218175535
 20
246.90957602214451
 30
0.0
  0
VERTEX
  5
3D01
  8
0
 10
80.738999999999976
 20
246.9330127018923
 30
0.0
  0
VERTEX
  5
3D02
  8
0
 10
80.700309130870323
 20
246.95315389351831
 30
0.0
  0
VERTEX
  5
3D03
  8
0
 10
80.660010071662825
 20
246.969846310393
 30
0.0
  0
VERTEX
  5
3D04
  8
0
 10
80.618409522551246
 20
246.98296291314449
 30
0.0
  0
VERTEX
  5
3D05
  8
0
 10
80.575824088833429
 20
246.99240387650619
 30
0.0
  0
VERTEX
  5
3D06
  8
0
 10
80.53257787137386
 20
246.99809734904591
 30
0.0
  0
VERTEX
  5
3D07
  8
0
 10
80.488999999999976
 20
247.0
 30
0.0
  0
SEQEND
  5
3D08
  8
0
  0
LINE
  5
1FB9
  8
0
 10
80.989000000000033
 20
226.5
 30
0.0
 11
80.989000000000033
 21
246.5
 31
0.0
  0
POLYLINE
  5
1FBA
  8
0
 66
     1
 10
0.0
 20
0.0
 30
0.0
  0
VERTEX
  5
3D09
  8
0
 10
80.489000000000033
 20
226.0
 30
0.0
  0
VERTEX
  5
3D0A
  8
0
 10
80.53257787137386
 20
226.00190265095409
 30
0.0
  0
VERTEX
  5
3D0B
  8
0
 10
80.575824088833429
 20
226.00759612349381
 30
0.0
  0
VERTEX
  5
3D0C
  8
0
 10
80.618409522551246
 20
226.0170370868554
 30
0.0
  0
VERTEX
  5
3D0D
  8
0
 10
80.660010071662825
 20
226.030153689607
 30
0.0
  0
VERTEX
  5
3D0E
  8
0
 10
80.700309130870323
 20
226.04684610648169
 30
0.0
  0
VERTEX
  5
3D0F
  8
0
 10
80.739000000000033
 20
226.0669872981077
 30
0.0
  0
VERTEX
  5
3D10
  8
0
 10
80.775788218175535
 20
226.09042397785549
 30
0.0
  0
VERTEX
  5
3D11
  8
0
 10
80.810393804843272
 20
226.11697777844051
 30
0.0
  0
VERTEX
  5
3D12
  8
0
 10
80.842553390593253
 20
226.14644660940681
 30
0.0
  0
VERTEX
  5
3D13
  8
0
 10
80.872022221559504
 20
226.1786061951567
 30
0.0
  0
VERTEX
  5
3D14
  8
0
 10
80.898576022144539
 20
226.2132117818245
 30
0.0
  0
VERTEX
  5
3D15
  8
0
 10
80.922012701892186
 20
226.25
 30
0.0
  0
VERTEX
  5
3D16
  8
0
 10
80.942153893518366
 20
226.28869086912971
 30
0.0
  0
VERTEX
  5
3D17
  8
0
 10
80.958846310392971
 20
226.32898992833711
 30
0.0
  0
VERTEX
  5
3D18
  8
0
 10
80.971962913144509
 20
226.37059047744879
 30
0.0
  0
VERTEX
  5
3D19
  8
0
 10
80.981403876506064
 20
226.4131759111666
 30
0.0
  0
VERTEX
  5
3D1A
  8
0
 10
80.987097349045882
 20
226.4564221286262
 30
0.0
  0
VERTEX
  5
3D1B
  8
0
 10
80.989000000000033
 20
226.5
 30
0.0
  0
SEQEND
  5
3D1C
  8
0
  0
LINE
  5
1FBB
  8
0
 10
119.0
 20
329.0
 30
0.0
 11
118.5109999999999
 21
329.0
 31
0.0
  0
LINE
  5
1FBC
  8
0
 10
119.0
 20
362.0
 30
0.0
 11
119.0
 21
329.0
 31
0.0
  0
LINE
  5
1FBD
  8
0
 10
80.0
 20
362.0
 30
0.0
 11
119.0
 21
362.0
 31
0.0
  0
LINE
  5
1FBE
  8
0
 10
80.0
 20
193.0
 30
0.0
 11
119.0
 21
193.0
 31
0.0
  0
LINE
  5
1FBF
  8
0
 10
119.0
 20
226.0
 30
0.0
 11
119.0
 21
193.0
 31
0.0
  0
LINE
  5
1FC0
  8
0
 10
118.511
 20
226.0
 30
0.0
 11
119.0
 21
226.0
 31
0.0
  0
POLYLINE
  5
1FC1
  8
0
 66
     1
 10
0.0
 20
0.0
 30
0.0
  0
VERTEX
  5
3D1D
  8
0
 10
118.0109999999999
 20
226.5
 30
0.0
  0
VERTEX
  5
3D1E
  8
0
 10
118.0129026509541
 20
226.4564221286262
 30
0.0
  0
VERTEX
  5
3D1F
  8
0
 10
118.01859612349389
 20
226.41317591116649
 30
0.0
  0
VERTEX
  5
3D20
  8
0
 10
118.02803708685541
 20
226.37059047744879
 30
0.0
  0
VERTEX
  5
3D21
  8
0
 10
118.0411536896071
 20
226.32898992833711
 30
0.0
  0
VERTEX
  5
3D22
  8
0
 10
118.0578461064817
 20
226.2886908691296
 30
0.0
  0
VERTEX
  5
3D23
  8
0
 10
118.0779872981078
 20
226.25
 30
0.0
  0
VERTEX
  5
3D24
  8
0
 10
118.1014239778555
 20
226.2132117818245
 30
0.0
  0
VERTEX
  5
3D25
  8
0
 10
118.1279777784405
 20
226.1786061951567
 30
0.0
  0
VERTEX
  5
3D26
  8
0
 10
118.1574466094067
 20
226.14644660940669
 30
0.0
  0
VERTEX
  5
3D27
  8
0
 10
118.1896061951567
 20
226.11697777844051
 30
0.0
  0
VERTEX
  5
3D28
  8
0
 10
118.22421178182439
 20
226.09042397785549
 30
0.0
  0
VERTEX
  5
3D29
  8
0
 10
118.261
 20
226.0669872981077
 30
0.0
  0
VERTEX
  5
3D2A
  8
0
 10
118.29969086912971
 20
226.04684610648169
 30
0.0
  0
VERTEX
  5
3D2B
  8
0
 10
118.3399899283372
 20
226.030153689607
 30
0.0
  0
VERTEX
  5
3D2C
  8
0
 10
118.3815904774487
 20
226.0170370868554
 30
0.0
  0
VERTEX
  5
3D2D
  8
0
 10
118.4241759111666
 20
226.00759612349381
 30
0.0
  0
VERTEX
  5
3D2E
  8
0
 10
118.4674221286262
 20
226.00190265095409
 30
0.0
  0
VERTEX
  5
3D2F
  8
0
 10
118.511
 20
226.0
 30
0.0
  0
SEQEND
  5
3D30
  8
0
  0
LINE
  5
1FC2
  8
0
 10
118.0109999999999
 20
246.5
 30
0.0
 11
118.0109999999999
 21
226.5
 31
0.0
  0
POLYLINE
  5
1FC3
  8
0
 66
     1
 10
0.0
 20
0.0
 30
0.0
  0
VERTEX
  5
3D31
  8
0
 10
118.5109999999999
 20
247.0
 30
0.0
  0
VERTEX
  5
3D32
  8
0
 10
118.4674221286261
 20
246.99809734904591
 30
0.0
  0
VERTEX
  5
3D33
  8
0
 10
118.4241759111666
 20
246.99240387650619
 30
0.0
  0
VERTEX
  5
3D34
  8
0
 10
118.3815904774487
 20
246.98296291314449
 30
0.0
  0
VERTEX
  5
3D35
  8
0
 10
118.3399899283371
 20
246.969846310393
 30
0.0
  0
VERTEX
  5
3D36
  8
0
 10
118.29969086912971
 20
246.95315389351831
 30
0.0
  0
VERTEX
  5
3D37
  8
0
 10
118.2609999999999
 20
246.9330127018923
 30
0.0
  0
VERTEX
  5
3D38
  8
0
 10
118.22421178182439
 20
246.90957602214451
 30
0.0
  0
VERTEX
  5
3D39
  8
0
 10
118.1896061951567
 20
246.88302222155949
 30
0.0
  0
VERTEX
  5
3D3A
  8
0
 10
118.1574466094067
 20
246.85355339059331
 30
0.0
  0
VERTEX
  5
3D3B
  8
0
 10
118.1279777784405
 20
246.8213938048433
 30
0.0
  0
VERTEX
  5
3D3C
  8
0
 10
118.1014239778555
 20
246.7867882181755
 30
0.0
  0
VERTEX
  5
3D3D
  8
0
 10
118.0779872981078
 20
246.75
 30
0.0
  0
VERTEX
  5
3D3E
  8
0
 10
118.0578461064817
 20
246.7113091308704
 30
0.0
  0
VERTEX
  5
3D3F
  8
0
 10
118.0411536896071
 20
246.67101007166269
 30
0.0
  0
VERTEX
  5
3D40
  8
0
 10
118.02803708685541
 20
246.62940952255121
 30
0.0
  0
VERTEX
  5
3D41
  8
0
 10
118.01859612349389
 20
246.58682408883351
 30
0.0
  0
VERTEX
  5
3D42
  8
0
 10
118.0129026509541
 20
246.5435778713738
 30
0.0
  0
VERTEX
  5
3D43
  8
0
 10
118.0109999999999
 20
246.5
 30
0.0
  0
SEQEND
  5
3D44
  8
0
  0
LINE
  5
1FC4
  8
0
 10
119.0
 20
247.0
 30
0.0
 11
118.5109999999999
 21
247.0
 31
0.0
  0
LINE
  5
1FC5
  8
0
 10
119.0
 20
267.0
 30
0.0
 11
119.0
 21
247.0
 31
0.0
  0
LINE
  5
1FC6
  8
0
 10
118.511
 20
267.0
 30
0.0
 11
119.0
 21
267.0
 31
0.0
  0
POLYLINE
  5
1FC7
  8
0
 66
     1
 10
0.0
 20
0.0
 30
0.0
  0
VERTEX
  5
3D45
  8
0
 10
118.0109999999999
 20
267.5
 30
0.0
  0
VERTEX
  5
3D46
  8
0
 10
118.0129026509541
 20
267.45642212862617
 30
0.0
  0
VERTEX
  5
3D47
  8
0
 10
118.01859612349389
 20
267.41317591116649
 30
0.0
  0
VERTEX
  5
3D48
  8
0
 10
118.02803708685541
 20
267.37059047744879
 30
0.0
  0
VERTEX
  5
3D49
  8
0
 10
118.0411536896071
 20
267.32898992833731
 30
0.0
  0
VERTEX
  5
3D4A
  8
0
 10
118.0578461064817
 20
267.28869086912971
 30
0.0
  0
VERTEX
  5
3D4B
  8
0
 10
118.0779872981078
 20
267.25
 30
0.0
  0
VERTEX
  5
3D4C
  8
0
 10
118.1014239778555
 20
267.2132117818245
 30
0.0
  0
VERTEX
  5
3D4D
  8
0
 10
118.1279777784405
 20
267.17860619515682
 30
0.0
  0
VERTEX
  5
3D4E
  8
0
 10
118.1574466094067
 20
267.14644660940678
 30
0.0
  0
VERTEX
  5
3D4F
  8
0
 10
118.1896061951567
 20
267.11697777844051
 30
0.0
  0
VERTEX
  5
3D50
  8
0
 10
118.22421178182439
 20
267.09042397785549
 30
0.0
  0
VERTEX
  5
3D51
  8
0
 10
118.2609999999999
 20
267.06698729810768
 30
0.0
  0
VERTEX
  5
3D52
  8
0
 10
118.29969086912971
 20
267.04684610648172
 30
0.0
  0
VERTEX
  5
3D53
  8
0
 10
118.3399899283371
 20
267.030153689607
 30
0.0
  0
VERTEX
  5
3D54
  8
0
 10
118.3815904774487
 20
267.01703708685551
 30
0.0
  0
VERTEX
  5
3D55
  8
0
 10
118.4241759111666
 20
267.0075961234939
 30
0.0
  0
VERTEX
  5
3D56
  8
0
 10
118.4674221286262
 20
267.00190265095421
 30
0.0
  0
VERTEX
  5
3D57
  8
0
 10
118.511
 20
267.0
 30
0.0
  0
SEQEND
  5
3D58
  8
0
  0
LINE
  5
1FC8
  8
0
 10
118.011
 20
287.5
 30
0.0
 11
118.0109999999999
 21
267.5
 31
0.0
  0
POLYLINE
  5
1FC9
  8
0
 66
     1
 10
0.0
 20
0.0
 30
0.0
  0
VERTEX
  5
3D59
  8
0
 10
118.5109999999999
 20
288.0
 30
0.0
  0
VERTEX
  5
3D5A
  8
0
 10
118.4674221286261
 20
287.99809734904591
 30
0.0
  0
VERTEX
  5
3D5B
  8
0
 10
118.4241759111666
 20
287.99240387650622
 30
0.0
  0
VERTEX
  5
3D5C
  8
0
 10
118.3815904774487
 20
287.9829629131446
 30
0.0
  0
VERTEX
  5
3D5D
  8
0
 10
118.3399899283371
 20
287.969846310393
 30
0.0
  0
VERTEX
  5
3D5E
  8
0
 10
118.29969086912971
 20
287.95315389351828
 30
0.0
  0
VERTEX
  5
3D5F
  8
0
 10
118.2609999999999
 20
287.93301270189232
 30
0.0
  0
VERTEX
  5
3D60
  8
0
 10
118.22421178182439
 20
287.90957602214451
 30
0.0
  0
VERTEX
  5
3D61
  8
0
 10
118.1896061951567
 20
287.88302222155949
 30
0.0
  0
VERTEX
  5
3D62
  8
0
 10
118.1574466094067
 20
287.85355339059328
 30
0.0
  0
VERTEX
  5
3D63
  8
0
 10
118.1279777784405
 20
287.8213938048433
 30
0.0
  0
VERTEX
  5
3D64
  8
0
 10
118.1014239778555
 20
287.7867882181755
 30
0.0
  0
VERTEX
  5
3D65
  8
0
 10
118.0779872981078
 20
287.75
 30
0.0
  0
VERTEX
  5
3D66
  8
0
 10
118.0578461064817
 20
287.7113091308704
 30
0.0
  0
VERTEX
  5
3D67
  8
0
 10
118.0411536896071
 20
287.67101007166281
 30
0.0
  0
VERTEX
  5
3D68
  8
0
 10
118.02803708685541
 20
287.62940952255121
 30
0.0
  0
VERTEX
  5
3D69
  8
0
 10
118.01859612349389
 20
287.58682408883351
 30
0.0
  0
VERTEX
  5
3D6A
  8
0
 10
118.0129026509541
 20
287.54357787137383
 30
0.0
  0
VERTEX
  5
3D6B
  8
0
 10
118.0109999999999
 20
287.5
 30
0.0
  0
SEQEND
  5
3D6C
  8
0
  0
LINE
  5
1FCA
  8
0
 10
119.0
 20
288.0
 30
0.0
 11
118.5109999999999
 21
288.0
 31
0.0
  0
LINE
  5
1FCB
  8
0
 10
119.0
 20
308.0
 30
0.0
 11
119.0
 21
288.0
 31
0.0
  0
LINE
  5
1FCC
  8
0
 10
118.511
 20
308.0
 30
0.0
 11
119.0
 21
308.0
 31
0.0
  0
POLYLINE
  5
1FCD
  8
0
 66
     1
 10
0.0
 20
0.0
 30
0.0
  0
VERTEX
  5
3D6D
  8
0
 10
118.0109999999999
 20
308.5
 30
0.0
  0
VERTEX
  5
3D6E
  8
0
 10
118.0129026509541
 20
308.45642212862617
 30
0.0
  0
VERTEX
  5
3D6F
  8
0
 10
118.01859612349389
 20
308.41317591116649
 30
0.0
  0
VERTEX
  5
3D70
  8
0
 10
118.02803708685541
 20
308.37059047744879
 30
0.0
  0
VERTEX
  5
3D71
  8
0
 10
118.0411536896071
 20
308.32898992833708
 30
0.0
  0
VERTEX
  5
3D72
  8
0
 10
118.0578461064817
 20
308.2886908691296
 30
0.0
  0
VERTEX
  5
3D73
  8
0
 10
118.0779872981078
 20
308.25
 30
0.0
  0
VERTEX
  5
3D74
  8
0
 10
118.1014239778555
 20
308.2132117818245
 30
0.0
  0
VERTEX
  5
3D75
  8
0
 10
118.1279777784405
 20
308.1786061951567
 30
0.0
  0
VERTEX
  5
3D76
  8
0
 10
118.1574466094067
 20
308.14644660940672
 30
0.0
  0
VERTEX
  5
3D77
  8
0
 10
118.1896061951567
 20
308.11697777844051
 30
0.0
  0
VERTEX
  5
3D78
  8
0
 10
118.22421178182439
 20
308.09042397785549
 30
0.0
  0
VERTEX
  5
3D79
  8
0
 10
118.2609999999999
 20
308.06698729810768
 30
0.0
  0
VERTEX
  5
3D7A
  8
0
 10
118.29969086912971
 20
308.04684610648172
 30
0.0
  0
VERTEX
  5
3D7B
  8
0
 10
118.3399899283371
 20
308.030153689607
 30
0.0
  0
VERTEX
  5
3D7C
  8
0
 10
118.3815904774487
 20
308.0170370868554
 30
0.0
  0
VERTEX
  5
3D7D
  8
0
 10
118.4241759111666
 20
308.0075961234939
 30
0.0
  0
VERTEX
  5
3D7E
  8
0
 10
118.4674221286262
 20
308.00190265095409
 30
0.0
  0
VERTEX
  5
3D7F
  8
0
 10
118.511
 20
308.0
 30
0.0
  0
SEQEND
  5
3D80
  8
0
  0
LINE
  5
1FCE
  8
0
 10
118.0109999999999
 20
328.5
 30
0.0
 11
118.0109999999999
 21
308.5
 31
0.0
  0
POLYLINE
  5
1FCF
  8
0
 66
     1
 10
0.0
 20
0.0
 30
0.0
  0
VERTEX
  5
3D81
  8
0
 10
118.5109999999999
 20
329.0
 30
0.0
  0
VERTEX
  5
3D82
  8
0
 10
118.4674221286261
 20
328.99809734904591
 30
0.0
  0
VERTEX
  5
3D83
  8
0
 10
118.4241759111666
 20
328.9924038765061
 30
0.0
  0
VERTEX
  5
3D84
  8
0
 10
118.3815904774487
 20
328.9829629131446
 30
0.0
  0
VERTEX
  5
3D85
  8
0
 10
118.3399899283371
 20
328.969846310393
 30
0.0
  0
VERTEX
  5
3D86
  8
0
 10
118.29969086912971
 20
328.95315389351828
 30
0.0
  0
VERTEX
  5
3D87
  8
0
 10
118.2609999999999
 20
328.93301270189232
 30
0.0
  0
VERTEX
  5
3D88
  8
0
 10
118.22421178182439
 20
328.90957602214451
 30
0.0
  0
VERTEX
  5
3D89
  8
0
 10
118.1896061951567
 20
328.88302222155949
 30
0.0
  0
VERTEX
  5
3D8A
  8
0
 10
118.1574466094067
 20
328.85355339059328
 30
0.0
  0
VERTEX
  5
3D8B
  8
0
 10
118.1279777784405
 20
328.8213938048433
 30
0.0
  0
VERTEX
  5
3D8C
  8
0
 10
118.1014239778555
 20
328.7867882181755
 30
0.0
  0
VERTEX
  5
3D8D
  8
0
 10
118.0779872981078
 20
328.75
 30
0.0
  0
VERTEX
  5
3D8E
  8
0
 10
118.0578461064817
 20
328.7113091308704
 30
0.0
  0
VERTEX
  5
3D8F
  8
0
 10
118.0411536896071
 20
328.67101007166292
 30
0.0
  0
VERTEX
  5
3D90
  8
0
 10
118.02803708685541
 20
328.62940952255121
 30
0.0
  0
VERTEX
  5
3D91
  8
0
 10
118.01859612349389
 20
328.58682408883351
 30
0.0
  0
VERTEX
  5
3D92
  8
0
 10
118.0129026509541
 20
328.54357787137383
 30
0.0
  0
VERTEX
  5
3D93
  8
0
 10
118.0109999999999
 20
328.5
 30
0.0
  0
SEQEND
  5
3D94
  8
0
  0
LINE
  5
1FD0
  8
0
 10
114.54884248049569
 20
357.5266253213756
 30
0.0
 11
118.5238095238095
 21
362.0
 31
0.0
  0
LINE
  5
1FD1
  8
0
 10
80.476190476190496
 20
362.0
 30
0.0
 11
84.451157519504306
 21
357.5266253213756
 31
0.0
  0
LINE
  5
1FD2
  8
0
 10
84.451157519504306
 20
197.4733746786244
 30
0.0
 11
80.476190476190496
 21
193.0
 31
0.0
  0
LINE
  5
1FD3
  8
0
 10
118.5238095238095
 20
193.0
 30
0.0
 11
114.54884248049569
 21
197.4733746786244
 31
0.0
  0
LINE
  5
1FD4
  8
0
 10
114.5282013153067
 20
357.50476185873902
 30
0.0
 11
84.471798684693226
 21
357.50476185873902
 31
0.0
  0
LINE
  5
1FD5
  8
0
 10
114.54884248049569
 20
197.47337467862431
 30
0.0
 11
114.5282013153067
 21
197.49523814126101
 31
0.0
  0
LINE
  5
1FD6
  8
0
 10
114.54884248049569
 20
357.5266253213756
 30
0.0
 11
114.54884248049569
 21
197.4733746786244
 31
0.0
  0
LINE
  5
1FD7
  8
0
 10
114.5282013153067
 20
357.50476185873902
 30
0.0
 11
114.54884248049569
 21
357.5266253213756
 31
0.0
  0
ARC
  5
1FD9
  8
0
 10
93.0
 20
232.0
 30
0.0
 40
2.9999999999999911
 50
180.0
 51
270.0
  0
LINE
  5
1FDA
  8
0
 10
90.0
 20
322.0
 30
0.0
 11
90.0
 21
232.0
 31
0.0
  0
ARC
  5
1FDB
  8
0
 10
93.0
 20
322.0
 30
0.0
 40
2.9999999999999858
 50
90.0
 51
180.0
  0
LINE
  5
1FDC
  8
0
 10
106.0
 20
325.0
 30
0.0
 11
93.0
 21
325.0
 31
0.0
  0
ARC
  5
1FDD
  8
0
 10
106.0
 20
322.0
 30
0.0
 40
2.9999999999999818
 50
0.0
 51
90.0
  0
LINE
  5
1FDE
  8
0
 10
109.0
 20
232.0
 30
0.0
 11
109.0
 21
322.0
 31
0.0
  0
ARC
  5
1FDF
  8
0
 10
106.0
 20
232.0
 30
0.0
 40
2.9999999999999858
 50
270.0
 51
0.0
  0
LINE
  5
1FE0
  8
0
 10
93.0
 20
229.0
 30
0.0
 11
106.0
 21
229.0
 31
0.0
  0
CIRCLE
  5
1FE1
  8
0
 10
99.500000000000014
 20
214.0
 30
0.0
 40
8.7499999999999947
  0
CIRCLE
  5
1FE2
  8
0
 10
99.500000000000014
 20
341.0
 30
0.0
 40
8.7499999999999947
  0
LINE
  5
1FE5
  8
0
 10
84.471798684693226
 20
197.49523814126101
 30
0.0
 11
84.451157519504306
 21
197.47337467862431
 31
0.0
  0
LINE
  5
1FE8
  8
0
 10
84.451157519504306
 20
357.5266253213756
 30
0.0
 11
84.471798684693226
 21
357.50476185873902
 31
0.0
  0
LINE
  5
1FE9
  8
0
 10
84.451157519504306
 20
357.5266253213756
 30
0.0
 11
84.451157519504306
 21
197.4733746786244
 31
0.0
  0
LINE
  5
1FEA
  8
0
 10
114.5282013153068
 20
197.49523814126101
 30
0.0
 11
84.471798684693184
 21
197.49523814126101
 31
0.0
  0
LINE
  5
1FFD
  8
3
 10
94.573499999999953
 20
80.0
 30
0.0
 11
94.573499999999953
 21
84.237537816861277
 31
0.0
  0
LINE
  5
1FFE
  8
3
 10
104.4264999999999
 20
80.0
 30
0.0
 11
104.4264999999999
 21
84.237537816861277
 31
0.0
  0
LINE
  5
200D
  8
1
 10
99.500000000000057
 20
128.0
 30
0.0
 11
99.500000000000014
 21
75.0
 31
0.0
  0
LINE
  5
200E
  8
0
 10
109.0
 20
94.237537816861163
 30
0.0
 11
105.30358149530601
 21
94.23753781686105
 31
0.0
  0
LINE
  5
200F
  8
0
 10
90.0
 20
94.237537816861163
 30
0.0
 11
88.530344885397085
 21
93.389032040829193
 31
0.0
  0
LINE
  5
2010
  8
0
 10
109.0
 20
84.237537816861277
 30
0.0
 11
110.4696551146028
 21
85.08604359289302
 31
0.0
  0
LINE
  5
2011
  8
0
 10
109.0
 20
84.237537816861277
 30
0.0
 11
90.0
 21
84.237537816861277
 31
0.0
  0
LINE
  5
2012
  8
0
 10
110.4696551146028
 20
93.389032040829193
 30
0.0
 11
109.0
 21
94.237537816861163
 31
0.0
  0
LINE
  5
2013
  8
0
 10
88.530344885397085
 20
85.08604359289302
 30
0.0
 11
90.0
 21
84.237537816861277
 31
0.0
  0
LINE
  5
2014
  8
0
 10
93.499999999999986
 20
84.237537816861277
 30
0.0
 11
93.499999999999986
 21
81.073499999999953
 31
0.0
  0
LINE
  5
2015
  8
0
 10
105.5
 20
81.073499999999953
 30
0.0
 11
105.5
 21
84.237537816861277
 31
0.0
  0
LINE
  5
2016
  8
0
 10
93.499999999999986
 20
102.0
 30
0.0
 11
93.500000000000057
 21
97.01138421093583
 31
0.0
  0
LINE
  5
2017
  8
0
 10
105.5
 20
94.237537816861163
 30
0.0
 11
105.5
 21
94.355681223770716
 31
0.0
  0
LINE
  5
2018
  8
0
 10
104.4264999999999
 20
80.0
 30
0.0
 11
94.573499999999953
 21
80.0
 31
0.0
  0
LINE
  5
2019
  8
0
 10
105.5
 20
81.073499999999953
 30
0.0
 11
93.499999999999986
 21
81.073499999999953
 31
0.0
  0
LINE
  5
201A
  8
0
 10
104.4264999999999
 20
80.0
 30
0.0
 11
105.5
 21
81.073499999999953
 31
0.0
  0
LINE
  5
201B
  8
0
 10
93.499999999999986
 20
81.073499999999953
 30
0.0
 11
94.573499999999953
 21
80.0
 31
0.0
  0
POLYLINE
  5
201C
  8
0
 66
     1
 10
0.0
 20
0.0
 30
0.0
  0
VERTEX
  5
3D95
  8
0
 10
91.272758664047856
 20
94.237537816861163
 30
0.0
  0
VERTEX
  5
3D96
  8
0
 10
91.077734936357217
 20
94.232916797804236
 30
0.0
  0
VERTEX
  5
3D97
  8
0
 10
90.437641242567111
 20
94.153137090571022
 30
0.0
  0
VERTEX
  5
3D98
  8
0
 10
89.802030650487836
 20
93.980641952300516
 30
0.0
  0
VERTEX
  5
3D99
  8
0
 10
89.162113847631716
 20
93.720422678068303
 30
0.0
  0
VERTEX
  5
3D9A
  8
0
 10
88.530344885397085
 20
93.389032040829193
 30
0.0
  0
SEQEND
  5
3D9B
  8
0
  0
LINE
  5
201D
  8
0
 10
88.530344885397085
 20
85.08604359289302
 30
0.0
 11
88.530344885397085
 21
93.389032040829193
 31
0.0
  0
POLYLINE
  5
201E
  8
0
 66
     1
 10
0.0
 20
0.0
 30
0.0
  0
VERTEX
  5
3D9C
  8
0
 10
88.530344885397085
 20
85.08604359289302
 30
0.0
  0
VERTEX
  5
3D9D
  8
0
 10
89.197625356646597
 20
84.738131796188995
 30
0.0
  0
VERTEX
  5
3D9E
  8
0
 10
89.873930896981733
 20
84.470427650490606
 30
0.0
  0
VERTEX
  5
3D9F
  8
0
 10
90.571056634352374
 20
84.297495117643166
 30
0.0
  0
VERTEX
  5
3DA0
  8
0
 10
91.272758664047856
 20
84.237537816861277
 30
0.0
  0
SEQEND
  5
3DA1
  8
0
  0
POLYLINE
  5
201F
  8
0
 66
     1
 10
0.0
 20
0.0
 30
0.0
  0
VERTEX
  5
3DA2
  8
0
 10
91.272758664047856
 20
84.237537816861277
 30
0.0
  0
VERTEX
  5
3DA3
  8
0
 10
91.46778239173841
 20
84.242158835918175
 30
0.0
  0
VERTEX
  5
3DA4
  8
0
 10
92.107876085528574
 20
84.321938543151418
 30
0.0
  0
VERTEX
  5
3DA5
  8
0
 10
92.743486677607791
 20
84.494433681421924
 30
0.0
  0
VERTEX
  5
3DA6
  8
0
 10
93.383403480463926
 20
84.754652955654123
 30
0.0
  0
VERTEX
  5
3DA7
  8
0
 10
94.015172442698542
 20
85.08604359289302
 30
0.0
  0
SEQEND
  5
3DA8
  8
0
  0
POLYLINE
  5
2020
  8
0
 66
     1
 10
0.0
 20
0.0
 30
0.0
  0
VERTEX
  5
3DA9
  8
0
 10
110.4696551146028
 20
93.389032040829193
 30
0.0
  0
VERTEX
  5
3DAA
  8
0
 10
109.8023746433534
 20
93.736943837533445
 30
0.0
  0
VERTEX
  5
3DAB
  8
0
 10
109.1260691030182
 20
94.004647983231607
 30
0.0
  0
VERTEX
  5
3DAC
  8
0
 10
108.4289433656475
 20
94.177580516079274
 30
0.0
  0
VERTEX
  5
3DAD
  8
0
 10
107.7272413359521
 20
94.237537816861163
 30
0.0
  0
SEQEND
  5
3DAE
  8
0
  0
POLYLINE
  5
2021
  8
0
 66
     1
 10
0.0
 20
0.0
 30
0.0
  0
VERTEX
  5
3DAF
  8
0
 10
107.7272413359521
 20
94.237537816861163
 30
0.0
  0
VERTEX
  5
3DB0
  8
0
 10
107.5322176082615
 20
94.232916797804236
 30
0.0
  0
VERTEX
  5
3DB1
  8
0
 10
106.8921239144714
 20
94.153137090571022
 30
0.0
  0
VERTEX
  5
3DB2
  8
0
 10
106.25651332239219
 20
93.980641952300516
 30
0.0
  0
VERTEX
  5
3DB3
  8
0
 10
105.616596519536
 20
93.720422678068303
 30
0.0
  0
VERTEX
  5
3DB4
  8
0
 10
104.9848275573014
 20
93.389032040829193
 30
0.0
  0
SEQEND
  5
3DB5
  8
0
  0
POLYLINE
  5
2022
  8
0
 66
     1
 10
0.0
 20
0.0
 30
0.0
  0
VERTEX
  5
3DB6
  8
0
 10
104.9848275573014
 20
85.08604359289302
 30
0.0
  0
VERTEX
  5
3DB7
  8
0
 10
105.6521080285509
 20
84.738131796188995
 30
0.0
  0
VERTEX
  5
3DB8
  8
0
 10
106.32841356888601
 20
84.470427650490606
 30
0.0
  0
VERTEX
  5
3DB9
  8
0
 10
107.0255393062567
 20
84.297495117643166
 30
0.0
  0
VERTEX
  5
3DBA
  8
0
 10
107.7272413359521
 20
84.237537816861277
 30
0.0
  0
SEQEND
  5
3DBB
  8
0
  0
POLYLINE
  5
2023
  8
0
 66
     1
 10
0.0
 20
0.0
 30
0.0
  0
VERTEX
  5
3DBC
  8
0
 10
107.7272413359521
 20
84.237537816861277
 30
0.0
  0
VERTEX
  5
3DBD
  8
0
 10
107.9222650636427
 20
84.242158835918175
 30
0.0
  0
VERTEX
  5
3DBE
  8
0
 10
108.5623587574329
 20
84.321938543151418
 30
0.0
  0
VERTEX
  5
3DBF
  8
0
 10
109.19796934951211
 20
84.494433681421924
 30
0.0
  0
VERTEX
  5
3DC0
  8
0
 10
109.8378861523683
 20
84.754652955654123
 30
0.0
  0
VERTEX
  5
3DC1
  8
0
 10
110.4696551146028
 20
85.08604359289302
 30
0.0
  0
SEQEND
  5
3DC2
  8
0
  0
LINE
  5
2024
  8
0
 10
110.4696551146028
 20
85.08604359289302
 30
0.0
 11
110.4696551146028
 21
93.389032040829193
 31
0.0
  0
POLYLINE
  5
2025
  8
0
 66
     1
 10
0.0
 20
0.0
 30
0.0
  0
VERTEX
  5
3DC3
  8
0
 10
94.015172442698542
 20
93.389032040829193
 30
0.0
  0
VERTEX
  5
3DC4
  8
0
 10
93.34789197144903
 20
93.736943837533445
 30
0.0
  0
VERTEX
  5
3DC5
  8
0
 10
92.671586431113951
 20
94.004647983231607
 30
0.0
  0
VERTEX
  5
3DC6
  8
0
 10
91.974460693743254
 20
94.177580516079274
 30
0.0
  0
VERTEX
  5
3DC7
  8
0
 10
91.272758664047856
 20
94.237537816861163
 30
0.0
  0
SEQEND
  5
3DC8
  8
0
  0
POLYLINE
  5
2026
  8
0
 66
     1
 10
0.0
 20
0.0
 30
0.0
  0
VERTEX
  5
3DC9
  8
0
 10
104.9848275573014
 20
93.389032040829193
 30
0.0
  0
VERTEX
  5
3DCA
  8
0
 10
103.77866398589219
 20
93.706914005557223
 30
0.0
  0
VERTEX
  5
3DCB
  8
0
 10
102.7287686152211
 20
93.929359672271289
 30
0.0
  0
VERTEX
  5
3DCC
  8
0
 10
101.6687788220372
 20
94.096425405916875
 30
0.0
  0
VERTEX
  5
3DCD
  8
0
 10
100.5866049146433
 20
94.201606254467265
 30
0.0
  0
VERTEX
  5
3DCE
  8
0
 10
99.500000000000014
 20
94.237537816861163
 30
0.0
  0
SEQEND
  5
3DCF
  8
0
  0
POLYLINE
  5
2027
  8
0
 66
     1
 10
0.0
 20
0.0
 30
0.0
  0
VERTEX
  5
3DD0
  8
0
 10
99.500000000000014
 20
94.237537816861163
 30
0.0
  0
VERTEX
  5
3DD1
  8
0
 10
98.153116077479012
 20
94.182687396134611
 30
0.0
  0
VERTEX
  5
3DD2
  8
0
 10
97.110297344814114
 20
94.066580802135491
 30
0.0
  0
VERTEX
  5
3DD3
  8
0
 10
96.075536296953672
 20
93.892072309673608
 30
0.0
  0
VERTEX
  5
3DD4
  8
0
 10
95.039893349581575
 20
93.663142851158099
 30
0.0
  0
VERTEX
  5
3DD5
  8
0
 10
94.015172442698542
 20
93.389032040829193
 30
0.0
  0
SEQEND
  5
3DD6
  8
0
  0
LINE
  5
2028
  8
0
 10
94.015172442698542
 20
85.08604359289302
 30
0.0
 11
94.015172442698542
 21
93.389032040829193
 31
0.0
  0
POLYLINE
  5
2029
  8
0
 66
     1
 10
0.0
 20
0.0
 30
0.0
  0
VERTEX
  5
3DD7
  8
0
 10
94.015172442698542
 20
85.08604359289302
 30
0.0
  0
VERTEX
  5
3DD8
  8
0
 10
95.029564290754024
 20
84.814469232223914
 30
0.0
  0
VERTEX
  5
3DD9
  8
0
 10
96.05466605852321
 20
84.587100429585917
 30
0.0
  0
VERTEX
  5
3DDA
  8
0
 10
97.099769611555985
 20
84.409983762382353
 30
0.0
  0
VERTEX
  5
3DDB
  8
0
 10
98.153116077479012
 20
84.292388237587829
 30
0.0
  0
VERTEX
  5
3DDC
  8
0
 10
99.500000000000014
 20
84.237537816861277
 30
0.0
  0
SEQEND
  5
3DDD
  8
0
  0
POLYLINE
  5
202A
  8
0
 66
     1
 10
0.0
 20
0.0
 30
0.0
  0
VERTEX
  5
3DDE
  8
0
 10
99.500000000000014
 20
84.237537816861277
 30
0.0
  0
VERTEX
  5
3DDF
  8
0
 10
100.5717958698433
 20
84.272495822401652
 30
0.0
  0
VERTEX
  5
3DE0
  8
0
 10
101.6393319929461
 20
84.374890778896983
 30
0.0
  0
VERTEX
  5
3DE1
  8
0
 10
102.71417116871829
 20
84.543013178621777
 30
0.0
  0
VERTEX
  5
3DE2
  8
0
 10
103.77866398589219
 20
84.768161628165217
 30
0.0
  0
VERTEX
  5
3DE3
  8
0
 10
104.9848275573014
 20
85.08604359289302
 30
0.0
  0
SEQEND
  5
3DE4
  8
0
  0
LINE
  5
202B
  8
0
 10
104.9848275573014
 20
85.08604359289302
 30
0.0
 11
104.9848275573014
 21
93.389032040829193
 31
0.0
  0
POLYLINE
  5
202E
  8
0
 66
     1
 10
0.0
 20
0.0
 30
0.0
  0
VERTEX
  5
3DE5
  8
0
 10
84.471798684693184
 20
120.7764571353075
 30
0.0
  0
VERTEX
  5
3DE6
  8
0
 10
84.550498301202637
 20
121.02606042997689
 30
0.0
  0
VERTEX
  5
3DE7
  8
0
 10
84.650652802450395
 20
121.2678547852221
 30
0.0
  0
VERTEX
  5
3DE8
  8
0
 10
84.771499952207023
 20
121.4999999999999
 30
0.0
  0
VERTEX
  5
3DE9
  8
0
 10
84.912120030693345
 20
121.7207293090531
 30
0.0
  0
VERTEX
  5
3DEA
  8
0
 10
85.071442834203424
 20
121.92836282905949
 30
0.0
  0
VERTEX
  5
3DEB
  8
0
 10
85.248255820000736
 20
122.1213203435596
 30
0.0
  0
VERTEX
  5
3DEC
  8
0
 10
85.441213334500731
 20
122.2981333293569
 30
0.0
  0
VERTEX
  5
3DED
  8
0
 10
85.648846854507212
 20
122.45745613286689
 30
0.0
  0
VERTEX
  5
3DEE
  8
0
 10
85.869576163560339
 20
122.5980762113532
 30
0.0
  0
VERTEX
  5
3DEF
  8
0
 10
86.101721378338254
 20
122.7189233611099
 30
0.0
  0
VERTEX
  5
3DF0
  8
0
 10
86.343515733583331
 20
122.8190778623577
 30
0.0
  0
VERTEX
  5
3DF1
  8
0
 10
86.593119028252787
 20
122.8977774788671
 30
0.0
  0
VERTEX
  5
3DF2
  8
0
 10
86.848631630559566
 20
122.9544232590366
 30
0.0
  0
VERTEX
  5
3DF3
  8
0
 10
87.108108935317375
 20
122.9885840942752
 30
0.0
  0
VERTEX
  5
3DF4
  8
0
 10
87.369576163560339
 20
123.0
 30
0.0
  0
SEQEND
  5
3DF5
  8
0
  0
POLYLINE
  5
202F
  8
0
 66
     1
 10
0.0
 20
0.0
 30
0.0
  0
VERTEX
  5
3DF6
  8
0
 10
111.6304238364396
 20
123.0
 30
0.0
  0
VERTEX
  5
3DF7
  8
0
 10
111.8918910646826
 20
122.9885840942752
 30
0.0
  0
VERTEX
  5
3DF8
  8
0
 10
112.15136836944031
 20
122.9544232590366
 30
0.0
  0
VERTEX
  5
3DF9
  8
0
 10
112.4068809717471
 20
122.8977774788671
 30
0.0
  0
VERTEX
  5
3DFA
  8
0
 10
112.6564842664165
 20
122.8190778623577
 30
0.0
  0
VERTEX
  5
3DFB
  8
0
 10
112.8982786216617
 20
122.71892336111
 30
0.0
  0
VERTEX
  5
3DFC
  8
0
 10
113.1304238364396
 20
122.5980762113532
 30
0.0
  0
VERTEX
  5
3DFD
  8
0
 10
113.3511531454927
 20
122.45745613286689
 30
0.0
  0
VERTEX
  5
3DFE
  8
0
 10
113.5587866654992
 20
122.2981333293569
 30
0.0
  0
VERTEX
  5
3DFF
  8
0
 10
113.75174417999921
 20
122.1213203435596
 30
0.0
  0
VERTEX
  5
3E00
  8
0
 10
113.92855716579651
 20
121.92836282905959
 30
0.0
  0
VERTEX
  5
3E01
  8
0
 10
114.0878799693065
 20
121.7207293090531
 30
0.0
  0
VERTEX
  5
3E02
  8
0
 10
114.22850004779281
 20
121.5
 30
0.0
  0
VERTEX
  5
3E03
  8
0
 10
114.34934719754951
 20
121.2678547852221
 30
0.0
  0
VERTEX
  5
3E04
  8
0
 10
114.44950169879731
 20
121.02606042997709
 30
0.0
  0
VERTEX
  5
3E05
  8
0
 10
114.5282013153067
 20
120.7764571353075
 30
0.0
  0
SEQEND
  5
3E06
  8
0
  0
LINE
  5
2030
  8
0
 10
111.6304238364396
 20
123.0
 30
0.0
 11
87.369576163560396
 21
123.0
 31
0.0
  0
LINE
  5
2031
  8
0
 10
119.0
 20
102.0
 30
0.0
 11
114.5282013153067
 21
120.7764571353076
 31
0.0
  0
LINE
  5
2033
  8
0
 10
119.0
 20
102.0
 30
0.0
 11
80.0
 21
102.0
 31
0.0
  0
LINE
  5
2034
  8
0
 10
80.0
 20
102.0
 30
0.0
 11
84.471798684693226
 21
120.7764571353076
 31
0.0
  0
LINE
  5
2060
  8
1
 10
214.0
 20
214.0
 30
0.0
 11
267.00000000000011
 21
214.0
 31
0.0
  0
LINE
  5
2061
  8
1
 10
214.00000000000011
 20
341.0
 30
0.0
 11
267.00000000000011
 21
341.0
 31
0.0
  0
LINE
  5
2062
  8
0
 10
262.00000000000011
 20
218.9265
 30
0.0
 11
260.92649999999998
 21
220.0
 31
0.0
  0
LINE
  5
2063
  8
0
 10
260.92649999999998
 20
208.0
 30
0.0
 11
262.00000000000011
 21
209.0735
 31
0.0
  0
LINE
  5
2064
  8
0
 10
262.00000000000011
 20
218.9265
 30
0.0
 11
262.00000000000011
 21
209.0735
 31
0.0
  0
LINE
  5
2065
  8
0
 10
257.76246218313878
 20
208.0
 30
0.0
 11
260.92649999999998
 21
208.0
 31
0.0
  0
LINE
  5
2066
  8
0
 10
260.92649999999998
 20
220.0
 30
0.0
 11
257.76246218313878
 21
220.0
 31
0.0
  0
LINE
  5
2067
  8
0
 10
260.92649999999998
 20
220.0
 30
0.0
 11
260.92649999999998
 21
208.0
 31
0.0
  0
LINE
  5
2068
  8
0
 10
240.00000000000011
 20
208.0
 30
0.0
 11
244.98861578906431
 21
208.0
 31
0.0
  0
LINE
  5
2069
  8
0
 10
245.70628364644611
 20
220.0
 30
0.0
 11
240.00000000000011
 21
220.0
 31
0.0
  0
LINE
  5
206A
  8
0
 10
257.76246218313878
 20
223.5
 30
0.0
 11
257.76246218313878
 21
204.5
 31
0.0
  0
LINE
  5
206B
  8
0
 10
257.76246218313878
 20
204.5
 30
0.0
 11
247.76246218313881
 21
204.5
 31
0.0
  0
LINE
  5
206C
  8
0
 10
247.76246218313881
 20
223.5
 30
0.0
 11
247.76246218313881
 21
219.80358149530619
 31
0.0
  0
LINE
  5
206D
  8
0
 10
247.76246218313881
 20
223.5
 30
0.0
 11
257.76246218313878
 21
223.5
 31
0.0
  0
POLYLINE
  5
206E
  8
0
 66
     1
 10
0.0
 20
0.0
 30
0.0
  0
VERTEX
  5
3E07
  8
0
 10
248.61096795917081
 20
223.5
 30
0.0
  0
VERTEX
  5
3E08
  8
0
 10
248.26358051342399
 20
222.34631525043471
 30
0.0
  0
VERTEX
  5
3E09
  8
0
 10
247.99535201676841
 20
221.1728407635967
 30
0.0
  0
VERTEX
  5
3E0A
  8
0
 10
247.8223798011033
 20
219.9694047244154
 30
0.0
  0
VERTEX
  5
3E0B
  8
0
 10
247.8103220161714
 20
219.72401246064689
 30
0.0
  0
SEQEND
  5
3E0C
  8
0
  0
POLYLINE
  5
206F
  8
0
 66
     1
 10
0.0
 20
0.0
 30
0.0
  0
VERTEX
  5
3E0D
  8
0
 10
256.91395640710709
 20
214.0
 30
0.0
  0
VERTEX
  5
3E0E
  8
0
 10
257.26134385285383
 20
215.1536847495654
 30
0.0
  0
VERTEX
  5
3E0F
  8
0
 10
257.52957234950952
 20
216.32715923640339
 30
0.0
  0
VERTEX
  5
3E10
  8
0
 10
257.70254456517438
 20
217.5305952755846
 30
0.0
  0
VERTEX
  5
3E11
  8
0
 10
257.76246218313878
 20
218.75
 30
0.0
  0
SEQEND
  5
3E12
  8
0
  0
POLYLINE
  5
2070
  8
0
 66
     1
 10
0.0
 20
0.0
 30
0.0
  0
VERTEX
  5
3E13
  8
0
 10
257.76246218313878
 20
218.75
 30
0.0
  0
VERTEX
  5
3E14
  8
0
 10
257.75784116408192
 20
219.08779100504159
 30
0.0
  0
VERTEX
  5
3E15
  8
0
 10
257.67867422326282
 20
220.1935467608775
 30
0.0
  0
VERTEX
  5
3E16
  8
0
 10
257.50556631857819
 20
221.2973756436007
 30
0.0
  0
VERTEX
  5
3E17
  8
0
 10
257.24583148666591
 20
222.40402211768671
 30
0.0
  0
VERTEX
  5
3E18
  8
0
 10
256.91395640710709
 20
223.5
 30
0.0
  0
SEQEND
  5
3E19
  8
0
  0
POLYLINE
  5
2071
  8
0
 66
     1
 10
0.0
 20
0.0
 30
0.0
  0
VERTEX
  5
3E1A
  8
0
 10
247.76246218313881
 20
209.25
 30
0.0
  0
VERTEX
  5
3E1B
  8
0
 10
247.76708320219589
 20
208.91220899495841
 30
0.0
  0
VERTEX
  5
3E1C
  8
0
 10
247.846250143015
 20
207.80645323912239
 30
0.0
  0
VERTEX
  5
3E1D
  8
0
 10
248.0193580476996
 20
206.70262435639941
 30
0.0
  0
VERTEX
  5
3E1E
  8
0
 10
248.27909287961191
 20
205.59597788231341
 30
0.0
  0
VERTEX
  5
3E1F
  8
0
 10
248.61096795917081
 20
204.5
 30
0.0
  0
SEQEND
  5
3E20
  8
0
  0
POLYLINE
  5
2072
  8
0
 66
     1
 10
0.0
 20
0.0
 30
0.0
  0
VERTEX
  5
3E21
  8
0
 10
256.91395640710709
 20
204.5
 30
0.0
  0
VERTEX
  5
3E22
  8
0
 10
257.26134385285383
 20
205.65368474956529
 30
0.0
  0
VERTEX
  5
3E23
  8
0
 10
257.52957234950952
 20
206.82715923640339
 30
0.0
  0
VERTEX
  5
3E24
  8
0
 10
257.70254456517438
 20
208.0305952755846
 30
0.0
  0
VERTEX
  5
3E25
  8
0
 10
257.76246218313878
 20
209.25
 30
0.0
  0
SEQEND
  5
3E26
  8
0
  0
POLYLINE
  5
2073
  8
0
 66
     1
 10
0.0
 20
0.0
 30
0.0
  0
VERTEX
  5
3E27
  8
0
 10
257.76246218313878
 20
209.25
 30
0.0
  0
VERTEX
  5
3E28
  8
0
 10
257.75784116408192
 20
209.58779100504159
 30
0.0
  0
VERTEX
  5
3E29
  8
0
 10
257.67867422326282
 20
210.69354676087761
 30
0.0
  0
VERTEX
  5
3E2A
  8
0
 10
257.50556631857819
 20
211.7973756436007
 30
0.0
  0
VERTEX
  5
3E2B
  8
0
 10
257.24583148666591
 20
212.90402211768671
 30
0.0
  0
VERTEX
  5
3E2C
  8
0
 10
256.91395640710709
 20
214.0
 30
0.0
  0
SEQEND
  5
3E2D
  8
0
  0
LINE
  5
2074
  8
0
 10
256.91395640710709
 20
214.0
 30
0.0
 11
248.61096795917081
 21
214.0
 31
0.0
  0
POLYLINE
  5
2075
  8
0
 66
     1
 10
0.0
 20
0.0
 30
0.0
  0
VERTEX
  5
3E2E
  8
0
 10
247.76246218313881
 20
218.75
 30
0.0
  0
VERTEX
  5
3E2F
  8
0
 10
247.76708320219589
 20
218.41220899495841
 30
0.0
  0
VERTEX
  5
3E30
  8
0
 10
247.846250143015
 20
217.30645323912239
 30
0.0
  0
VERTEX
  5
3E31
  8
0
 10
248.0193580476996
 20
216.20262435639941
 30
0.0
  0
VERTEX
  5
3E32
  8
0
 10
248.27909287961191
 20
215.09597788231341
 30
0.0
  0
VERTEX
  5
3E33
  8
0
 10
248.61096795917081
 20
214.0
 30
0.0
  0
SEQEND
  5
3E34
  8
0
  0
POLYLINE
  5
2076
  8
0
 66
     1
 10
0.0
 20
0.0
 30
0.0
  0
VERTEX
  5
3E35
  8
0
 10
248.61096795917081
 20
214.0
 30
0.0
  0
VERTEX
  5
3E36
  8
0
 10
248.26358051342399
 20
212.84631525043471
 30
0.0
  0
VERTEX
  5
3E37
  8
0
 10
247.99535201676841
 20
211.6728407635967
 30
0.0
  0
VERTEX
  5
3E38
  8
0
 10
247.8223798011033
 20
210.4694047244154
 30
0.0
  0
VERTEX
  5
3E39
  8
0
 10
247.76246218313881
 20
209.25
 30
0.0
  0
SEQEND
  5
3E3A
  8
0
  0
LINE
  5
2077
  8
3
 10
262.00000000000011
 20
209.0735
 30
0.0
 11
257.76246218313878
 21
209.0735
 31
0.0
  0
LINE
  5
2078
  8
3
 10
262.00000000000011
 20
218.9265
 30
0.0
 11
257.76246218313878
 21
218.9265
 31
0.0
  0
LINE
  5
2079
  8
0
 10
240.00000000000011
 20
335.0
 30
0.0
 11
244.98861578906431
 21
334.99999999999989
 31
0.0
  0
LINE
  5
207A
  8
0
 10
245.70628364644611
 20
347.0
 30
0.0
 11
240.00000000000011
 21
347.0
 31
0.0
  0
LINE
  5
207B
  8
0
 10
262.00000000000011
 20
345.92649999999998
 30
0.0
 11
260.92649999999998
 21
347.0
 31
0.0
  0
LINE
  5
207C
  8
0
 10
260.92649999999998
 20
335.0
 30
0.0
 11
262.00000000000011
 21
336.07350000000008
 31
0.0
  0
LINE
  5
207D
  8
0
 10
262.00000000000011
 20
345.92649999999998
 30
0.0
 11
262.00000000000011
 21
336.07350000000008
 31
0.0
  0
LINE
  5
207E
  8
0
 10
257.76246218313878
 20
335.0
 30
0.0
 11
260.92649999999998
 21
335.0
 31
0.0
  0
LINE
  5
207F
  8
0
 10
260.92649999999998
 20
347.0
 30
0.0
 11
257.76246218313878
 21
347.0
 31
0.0
  0
LINE
  5
2080
  8
0
 10
260.92649999999998
 20
347.0
 30
0.0
 11
260.92649999999998
 21
335.0
 31
0.0
  0
LINE
  5
2081
  8
0
 10
257.76246218313878
 20
350.5
 30
0.0
 11
257.76246218313878
 21
331.5
 31
0.0
  0
LINE
  5
2082
  8
0
 10
247.76246218313881
 20
350.5
 30
0.0
 11
257.76246218313878
 21
350.5
 31
0.0
  0
LINE
  5
2083
  8
0
 10
247.76246218313881
 20
350.5
 30
0.0
 11
247.76246218313881
 21
346.80358149530639
 31
0.0
  0
LINE
  5
2084
  8
0
 10
257.76246218313878
 20
331.5
 30
0.0
 11
247.76246218313881
 21
331.5
 31
0.0
  0
POLYLINE
  5
2085
  8
0
 66
     1
 10
0.0
 20
0.0
 30
0.0
  0
VERTEX
  5
3E3B
  8
0
 10
247.76246218313881
 20
336.25
 30
0.0
  0
VERTEX
  5
3E3C
  8
0
 10
247.76708320219589
 20
335.91220899495841
 30
0.0
  0
VERTEX
  5
3E3D
  8
0
 10
247.846250143015
 20
334.80645323912239
 30
0.0
  0
VERTEX
  5
3E3E
  8
0
 10
248.0193580476996
 20
333.70262435639938
 30
0.0
  0
VERTEX
  5
3E3F
  8
0
 10
248.27909287961191
 20
332.59597788231338
 30
0.0
  0
VERTEX
  5
3E40
  8
0
 10
248.61096795917081
 20
331.5
 30
0.0
  0
SEQEND
  5
3E41
  8
0
  0
POLYLINE
  5
2086
  8
0
 66
     1
 10
0.0
 20
0.0
 30
0.0
  0
VERTEX
  5
3E42
  8
0
 10
256.91395640710709
 20
331.5
 30
0.0
  0
VERTEX
  5
3E43
  8
0
 10
257.26134385285383
 20
332.65368474956529
 30
0.0
  0
VERTEX
  5
3E44
  8
0
 10
257.52957234950952
 20
333.82715923640342
 30
0.0
  0
VERTEX
  5
3E45
  8
0
 10
257.70254456517438
 20
335.03059527558469
 30
0.0
  0
VERTEX
  5
3E46
  8
0
 10
257.76246218313878
 20
336.25
 30
0.0
  0
SEQEND
  5
3E47
  8
0
  0
POLYLINE
  5
2087
  8
0
 66
     1
 10
0.0
 20
0.0
 30
0.0
  0
VERTEX
  5
3E48
  8
0
 10
257.76246218313878
 20
336.25
 30
0.0
  0
VERTEX
  5
3E49
  8
0
 10
257.75784116408192
 20
336.58779100504159
 30
0.0
  0
VERTEX
  5
3E4A
  8
0
 10
257.67867422326282
 20
337.69354676087761
 30
0.0
  0
VERTEX
  5
3E4B
  8
0
 10
257.50556631857819
 20
338.79737564360067
 30
0.0
  0
VERTEX
  5
3E4C
  8
0
 10
257.24583148666591
 20
339.90402211768668
 30
0.0
  0
VERTEX
  5
3E4D
  8
0
 10
256.91395640710709
 20
341.0
 30
0.0
  0
SEQEND
  5
3E4E
  8
0
  0
POLYLINE
  5
2088
  8
0
 66
     1
 10
0.0
 20
0.0
 30
0.0
  0
VERTEX
  5
3E4F
  8
0
 10
248.61096795917081
 20
341.0
 30
0.0
  0
VERTEX
  5
3E50
  8
0
 10
248.26358051342399
 20
339.84631525043471
 30
0.0
  0
VERTEX
  5
3E51
  8
0
 10
247.99535201676841
 20
338.6728407635967
 30
0.0
  0
VERTEX
  5
3E52
  8
0
 10
247.8223798011033
 20
337.46940472441543
 30
0.0
  0
VERTEX
  5
3E53
  8
0
 10
247.76246218313881
 20
336.25
 30
0.0
  0
SEQEND
  5
3E54
  8
0
  0
POLYLINE
  5
2089
  8
0
 66
     1
 10
0.0
 20
0.0
 30
0.0
  0
VERTEX
  5
3E55
  8
0
 10
248.61096795917081
 20
350.5
 30
0.0
  0
VERTEX
  5
3E56
  8
0
 10
248.26358051342399
 20
349.34631525043471
 30
0.0
  0
VERTEX
  5
3E57
  8
0
 10
247.99535201676841
 20
348.1728407635967
 30
0.0
  0
VERTEX
  5
3E58
  8
0
 10
247.8223798011033
 20
346.96940472441543
 30
0.0
  0
VERTEX
  5
3E59
  8
0
 10
247.81032201617151
 20
346.7240124606468
 30
0.0
  0
SEQEND
  5
3E5A
  8
0
  0
POLYLINE
  5
208A
  8
0
 66
     1
 10
0.0
 20
0.0
 30
0.0
  0
VERTEX
  5
3E5B
  8
0
 10
247.76246218313881
 20
345.75
 30
0.0
  0
VERTEX
  5
3E5C
  8
0
 10
247.76708320219589
 20
345.41220899495841
 30
0.0
  0
VERTEX
  5
3E5D
  8
0
 10
247.846250143015
 20
344.3064532391225
 30
0.0
  0
VERTEX
  5
3E5E
  8
0
 10
248.0193580476996
 20
343.20262435639938
 30
0.0
  0
VERTEX
  5
3E5F
  8
0
 10
248.27909287961191
 20
342.09597788231338
 30
0.0
  0
VERTEX
  5
3E60
  8
0
 10
248.61096795917081
 20
341.0
 30
0.0
  0
SEQEND
  5
3E61
  8
0
  0
LINE
  5
208B
  8
0
 10
256.91395640710709
 20
341.0
 30
0.0
 11
248.61096795917081
 21
341.0
 31
0.0
  0
POLYLINE
  5
208C
  8
0
 66
     1
 10
0.0
 20
0.0
 30
0.0
  0
VERTEX
  5
3E62
  8
0
 10
256.91395640710709
 20
341.0
 30
0.0
  0
VERTEX
  5
3E63
  8
0
 10
257.26134385285383
 20
342.15368474956529
 30
0.0
  0
VERTEX
  5
3E64
  8
0
 10
257.52957234950952
 20
343.32715923640342
 30
0.0
  0
VERTEX
  5
3E65
  8
0
 10
257.70254456517438
 20
344.53059527558457
 30
0.0
  0
VERTEX
  5
3E66
  8
0
 10
257.76246218313878
 20
345.75
 30
0.0
  0
SEQEND
  5
3E67
  8
0
  0
POLYLINE
  5
208D
  8
0
 66
     1
 10
0.0
 20
0.0
 30
0.0
  0
VERTEX
  5
3E68
  8
0
 10
257.76246218313878
 20
345.75
 30
0.0
  0
VERTEX
  5
3E69
  8
0
 10
257.75784116408192
 20
346.08779100504159
 30
0.0
  0
VERTEX
  5
3E6A
  8
0
 10
257.67867422326282
 20
347.1935467608775
 30
0.0
  0
VERTEX
  5
3E6B
  8
0
 10
257.50556631857819
 20
348.29737564360067
 30
0.0
  0
VERTEX
  5
3E6C
  8
0
 10
257.24583148666591
 20
349.40402211768668
 30
0.0
  0
VERTEX
  5
3E6D
  8
0
 10
256.91395640710709
 20
350.5
 30
0.0
  0
SEQEND
  5
3E6E
  8
0
  0
LINE
  5
208E
  8
3
 10
262.00000000000011
 20
336.07350000000008
 30
0.0
 11
257.76246218313878
 21
336.07350000000008
 31
0.0
  0
LINE
  5
208F
  8
3
 10
262.00000000000011
 20
345.92649999999998
 30
0.0
 11
257.76246218313878
 21
345.92649999999998
 31
0.0
  0
LINE
  5
2090
  8
0
 10
238.00000000000011
 20
193.0
 30
0.0
 11
221.22354286469249
 21
197.49523814126101
 31
0.0
  0
LINE
  5
2091
  8
0
 10
221.22354286469249
 20
357.50476185873902
 30
0.0
 11
238.00000000000011
 21
362.0
 31
0.0
  0
POLYLINE
  5
2092
  8
0
 66
     1
 10
0.0
 20
0.0
 30
0.0
  0
VERTEX
  5
3E6F
  8
0
 10
221.22354286469249
 20
357.50476185873902
 30
0.0
  0
VERTEX
  5
3E70
  8
0
 10
220.97393957002311
 20
357.42606224222948
 30
0.0
  0
VERTEX
  5
3E71
  8
0
 10
220.73214521477789
 20
357.32590774098168
 30
0.0
  0
VERTEX
  5
3E72
  8
0
 10
220.50000000000011
 20
357.20506059122511
 30
0.0
  0
VERTEX
  5
3E73
  8
0
 10
220.2792706909469
 20
357.06444051273883
 30
0.0
  0
VERTEX
  5
3E74
  8
0
 10
220.07163717094039
 20
356.9051177092287
 30
0.0
  0
VERTEX
  5
3E75
  8
0
 10
219.87867965644031
 20
356.72830472343139
 30
0.0
  0
VERTEX
  5
3E76
  8
0
 10
219.70186667064311
 20
356.5353472089314
 30
0.0
  0
VERTEX
  5
3E77
  8
0
 10
219.54254386713311
 20
356.32771368892492
 30
0.0
  0
VERTEX
  5
3E78
  8
0
 10
219.40192378864671
 20
356.10698437987168
 30
0.0
  0
VERTEX
  5
3E79
  8
0
 10
219.28107663889011
 20
355.87483916509382
 30
0.0
  0
VERTEX
  5
3E7A
  8
0
 10
219.18092213764231
 20
355.6330448098488
 30
0.0
  0
VERTEX
  5
3E7B
  8
0
 10
219.1022225211328
 20
355.3834415151793
 30
0.0
  0
VERTEX
  5
3E7C
  8
0
 10
219.04557674096341
 20
355.12792891287251
 30
0.0
  0
VERTEX
  5
3E7D
  8
0
 10
219.01141590572479
 20
354.8684516081147
 30
0.0
  0
VERTEX
  5
3E7E
  8
0
 10
219.00000000000011
 20
354.6069843798719
 30
0.0
  0
SEQEND
  5
3E7F
  8
0
  0
LINE
  5
2093
  8
0
 10
219.00000000000011
 20
354.6069843798719
 30
0.0
 11
219.0
 21
200.3930156201283
 31
0.0
  0
POLYLINE
  5
2094
  8
0
 66
     1
 10
0.0
 20
0.0
 30
0.0
  0
VERTEX
  5
3E80
  8
0
 10
219.0
 20
200.3930156201283
 30
0.0
  0
VERTEX
  5
3E81
  8
0
 10
219.01141590572479
 20
200.1315483918853
 30
0.0
  0
VERTEX
  5
3E82
  8
0
 10
219.04557674096341
 20
199.87207108712749
 30
0.0
  0
VERTEX
  5
3E83
  8
0
 10
219.1022225211328
 20
199.6165584848207
 30
0.0
  0
VERTEX
  5
3E84
  8
0
 10
219.18092213764231
 20
199.3669551901512
 30
0.0
  0
VERTEX
  5
3E85
  8
0
 10
219.28107663889011
 20
199.12516083490621
 30
0.0
  0
VERTEX
  5
3E86
  8
0
 10
219.40192378864671
 20
198.89301562012821
 30
0.0
  0
VERTEX
  5
3E87
  8
0
 10
219.54254386713311
 20
198.67228631107511
 30
0.0
  0
VERTEX
  5
3E88
  8
0
 10
219.70186667064311
 20
198.4646527910686
 30
0.0
  0
VERTEX
  5
3E89
  8
0
 10
219.87867965644031
 20
198.27169527656861
 30
0.0
  0
VERTEX
  5
3E8A
  8
0
 10
220.07163717094039
 20
198.0948822907713
 30
0.0
  0
VERTEX
  5
3E8B
  8
0
 10
220.2792706909469
 20
197.93555948726129
 30
0.0
  0
VERTEX
  5
3E8C
  8
0
 10
220.50000000000011
 20
197.79493940877501
 30
0.0
  0
VERTEX
  5
3E8D
  8
0
 10
220.73214521477789
 20
197.67409225901821
 30
0.0
  0
VERTEX
  5
3E8E
  8
0
 10
220.97393957002311
 20
197.57393775777049
 30
0.0
  0
VERTEX
  5
3E8F
  8
0
 10
221.22354286469249
 20
197.4952381412611
 30
0.0
  0
SEQEND
  5
3E90
  8
0
  0
LINE
  5
209B
  8
0
 10
240.00000000000011
 20
362.0
 30
0.0
 11
240.00000000000011
 21
193.0
 31
0.0
  0
LINE
  5
209C
  8
0
 10
240.00000000000011
 20
329.0
 30
0.0
 11
237.9462
 21
329.0
 31
0.0
  0
LINE
  5
209D
  8
0
 10
238.00000000000011
 20
362.0
 30
0.0
 11
240.00000000000011
 21
362.0
 31
0.0
  0
LINE
  5
209F
  8
0
 10
238.00000000000011
 20
193.0
 30
0.0
 11
240.00000000000011
 21
193.0
 31
0.0
  0
LINE
  5
20A0
  8
0
 10
237.94620000000009
 20
226.0
 30
0.0
 11
240.00000000000011
 21
226.0
 31
0.0
  0
POLYLINE
  5
20A1
  8
0
 66
     1
 10
0.0
 20
0.0
 30
0.0
  0
VERTEX
  5
3E91
  8
0
 10
235.8462000000001
 20
226.5
 30
0.0
  0
VERTEX
  5
3E92
  8
0
 10
235.85419113400749
 20
226.4564221286262
 30
0.0
  0
VERTEX
  5
3E93
  8
0
 10
235.8781037186744
 20
226.4131759111666
 30
0.0
  0
VERTEX
  5
3E94
  8
0
 10
235.91775576479299
 20
226.37059047744879
 30
0.0
  0
VERTEX
  5
3E95
  8
0
 10
235.97284549634961
 20
226.32898992833719
 30
0.0
  0
VERTEX
  5
3E96
  8
0
 10
236.04295364722299
 20
226.28869086912971
 30
0.0
  0
VERTEX
  5
3E97
  8
0
 10
236.1275466520527
 20
226.25
 30
0.0
  0
VERTEX
  5
3E98
  8
0
 10
236.2259807069932
 20
226.2132117818245
 30
0.0
  0
VERTEX
  5
3E99
  8
0
 10
236.33750666945011
 20
226.17860619515679
 30
0.0
  0
VERTEX
  5
3E9A
  8
0
 10
236.46127575950831
 20
226.14644660940681
 30
0.0
  0
VERTEX
  5
3E9B
  8
0
 10
236.5963460196584
 20
226.11697777844051
 30
0.0
  0
VERTEX
  5
3E9C
  8
0
 10
236.7416894836629
 20
226.09042397785549
 30
0.0
  0
VERTEX
  5
3E9D
  8
0
 10
236.89619999999999
 20
226.0669872981079
 30
0.0
  0
VERTEX
  5
3E9E
  8
0
 10
237.05870165034469
 20
226.04684610648169
 30
0.0
  0
VERTEX
  5
3E9F
  8
0
 10
237.2279576990162
 20
226.03015368960709
 30
0.0
  0
VERTEX
  5
3EA0
  8
0
 10
237.40268000528491
 20
226.0170370868554
 30
0.0
  0
VERTEX
  5
3EA1
  8
0
 10
237.5815388268995
 20
226.00759612349401
 30
0.0
  0
VERTEX
  5
3EA2
  8
0
 10
237.76317294022999
 20
226.00190265095421
 30
0.0
  0
VERTEX
  5
3EA3
  8
0
 10
237.94620000000009
 20
226.0
 30
0.0
  0
SEQEND
  5
3EA4
  8
0
  0
LINE
  5
20A2
  8
0
 10
235.8462000000001
 20
246.5
 30
0.0
 11
235.8462000000001
 21
226.5
 31
0.0
  0
POLYLINE
  5
20A3
  8
0
 66
     1
 10
0.0
 20
0.0
 30
0.0
  0
VERTEX
  5
3EA5
  8
0
 10
237.9462
 20
247.0
 30
0.0
  0
VERTEX
  5
3EA6
  8
0
 10
237.76317294022999
 20
246.99809734904591
 30
0.0
  0
VERTEX
  5
3EA7
  8
0
 10
237.58153882689939
 20
246.99240387650619
 30
0.0
  0
VERTEX
  5
3EA8
  8
0
 10
237.40268000528479
 20
246.98296291314449
 30
0.0
  0
VERTEX
  5
3EA9
  8
0
 10
237.2279576990162
 20
246.969846310393
 30
0.0
  0
VERTEX
  5
3EAA
  8
0
 10
237.0587016503446
 20
246.95315389351831
 30
0.0
  0
VERTEX
  5
3EAB
  8
0
 10
236.89619999999999
 20
246.9330127018923
 30
0.0
  0
VERTEX
  5
3EAC
  8
0
 10
236.7416894836627
 20
246.90957602214451
 30
0.0
  0
VERTEX
  5
3EAD
  8
0
 10
236.59634601965831
 20
246.88302222155949
 30
0.0
  0
VERTEX
  5
3EAE
  8
0
 10
236.46127575950831
 20
246.85355339059331
 30
0.0
  0
VERTEX
  5
3EAF
  8
0
 10
236.33750666945011
 20
246.8213938048433
 30
0.0
  0
VERTEX
  5
3EB0
  8
0
 10
236.2259807069932
 20
246.7867882181755
 30
0.0
  0
VERTEX
  5
3EB1
  8
0
 10
236.1275466520527
 20
246.75
 30
0.0
  0
VERTEX
  5
3EB2
  8
0
 10
236.04295364722299
 20
246.7113091308704
 30
0.0
  0
VERTEX
  5
3EB3
  8
0
 10
235.97284549634961
 20
246.67101007166289
 30
0.0
  0
VERTEX
  5
3EB4
  8
0
 10
235.91775576479299
 20
246.62940952255121
 30
0.0
  0
VERTEX
  5
3EB5
  8
0
 10
235.8781037186744
 20
246.58682408883351
 30
0.0
  0
VERTEX
  5
3EB6
  8
0
 10
235.85419113400749
 20
246.5435778713738
 30
0.0
  0
VERTEX
  5
3EB7
  8
0
 10
235.8462000000001
 20
246.5
 30
0.0
  0
SEQEND
  5
3EB8
  8
0
  0
LINE
  5
20A4
  8
0
 10
240.00000000000011
 20
247.0
 30
0.0
 11
237.9462
 21
247.0
 31
0.0
  0
LINE
  5
20A5
  8
0
 10
237.94620000000009
 20
267.0
 30
0.0
 11
240.00000000000011
 21
267.0
 31
0.0
  0
POLYLINE
  5
20A6
  8
0
 66
     1
 10
0.0
 20
0.0
 30
0.0
  0
VERTEX
  5
3EB9
  8
0
 10
235.8462000000001
 20
267.5
 30
0.0
  0
VERTEX
  5
3EBA
  8
0
 10
235.85419113400749
 20
267.45642212862617
 30
0.0
  0
VERTEX
  5
3EBB
  8
0
 10
235.8781037186744
 20
267.4131759111666
 30
0.0
  0
VERTEX
  5
3EBC
  8
0
 10
235.91775576479299
 20
267.37059047744879
 30
0.0
  0
VERTEX
  5
3EBD
  8
0
 10
235.97284549634961
 20
267.32898992833731
 30
0.0
  0
VERTEX
  5
3EBE
  8
0
 10
236.04295364722299
 20
267.28869086912971
 30
0.0
  0
VERTEX
  5
3EBF
  8
0
 10
236.1275466520527
 20
267.25
 30
0.0
  0
VERTEX
  5
3EC0
  8
0
 10
236.2259807069932
 20
267.2132117818245
 30
0.0
  0
VERTEX
  5
3EC1
  8
0
 10
236.33750666945011
 20
267.17860619515682
 30
0.0
  0
VERTEX
  5
3EC2
  8
0
 10
236.46127575950831
 20
267.14644660940678
 30
0.0
  0
VERTEX
  5
3EC3
  8
0
 10
236.59634601965831
 20
267.11697777844051
 30
0.0
  0
VERTEX
  5
3EC4
  8
0
 10
236.7416894836629
 20
267.09042397785561
 30
0.0
  0
VERTEX
  5
3EC5
  8
0
 10
236.89619999999999
 20
267.0669872981079
 30
0.0
  0
VERTEX
  5
3EC6
  8
0
 10
237.0587016503446
 20
267.04684610648172
 30
0.0
  0
VERTEX
  5
3EC7
  8
0
 10
237.2279576990162
 20
267.03015368960712
 30
0.0
  0
VERTEX
  5
3EC8
  8
0
 10
237.40268000528479
 20
267.01703708685562
 30
0.0
  0
VERTEX
  5
3EC9
  8
0
 10
237.5815388268995
 20
267.0075961234939
 30
0.0
  0
VERTEX
  5
3ECA
  8
0
 10
237.76317294022999
 20
267.00190265095421
 30
0.0
  0
VERTEX
  5
3ECB
  8
0
 10
237.94620000000009
 20
267.0
 30
0.0
  0
SEQEND
  5
3ECC
  8
0
  0
LINE
  5
20A7
  8
0
 10
235.8462000000001
 20
287.5
 30
0.0
 11
235.8462000000001
 21
267.5
 31
0.0
  0
POLYLINE
  5
20A8
  8
0
 66
     1
 10
0.0
 20
0.0
 30
0.0
  0
VERTEX
  5
3ECD
  8
0
 10
237.9462
 20
288.0
 30
0.0
  0
VERTEX
  5
3ECE
  8
0
 10
237.76317294022999
 20
287.99809734904591
 30
0.0
  0
VERTEX
  5
3ECF
  8
0
 10
237.58153882689939
 20
287.99240387650622
 30
0.0
  0
VERTEX
  5
3ED0
  8
0
 10
237.40268000528479
 20
287.9829629131446
 30
0.0
  0
VERTEX
  5
3ED1
  8
0
 10
237.2279576990162
 20
287.969846310393
 30
0.0
  0
VERTEX
  5
3ED2
  8
0
 10
237.0587016503446
 20
287.95315389351828
 30
0.0
  0
VERTEX
  5
3ED3
  8
0
 10
236.89619999999999
 20
287.93301270189232
 30
0.0
  0
VERTEX
  5
3ED4
  8
0
 10
236.7416894836629
 20
287.90957602214451
 30
0.0
  0
VERTEX
  5
3ED5
  8
0
 10
236.59634601965831
 20
287.88302222155949
 30
0.0
  0
VERTEX
  5
3ED6
  8
0
 10
236.46127575950831
 20
287.85355339059328
 30
0.0
  0
VERTEX
  5
3ED7
  8
0
 10
236.33750666945011
 20
287.8213938048433
 30
0.0
  0
VERTEX
  5
3ED8
  8
0
 10
236.2259807069932
 20
287.7867882181755
 30
0.0
  0
VERTEX
  5
3ED9
  8
0
 10
236.1275466520527
 20
287.75
 30
0.0
  0
VERTEX
  5
3EDA
  8
0
 10
236.04295364722299
 20
287.7113091308704
 30
0.0
  0
VERTEX
  5
3EDB
  8
0
 10
235.97284549634961
 20
287.67101007166281
 30
0.0
  0
VERTEX
  5
3EDC
  8
0
 10
235.91775576479299
 20
287.62940952255133
 30
0.0
  0
VERTEX
  5
3EDD
  8
0
 10
235.8781037186744
 20
287.58682408883351
 30
0.0
  0
VERTEX
  5
3EDE
  8
0
 10
235.85419113400749
 20
287.54357787137383
 30
0.0
  0
VERTEX
  5
3EDF
  8
0
 10
235.8462000000001
 20
287.5
 30
0.0
  0
SEQEND
  5
3EE0
  8
0
  0
LINE
  5
20A9
  8
0
 10
240.00000000000011
 20
288.0
 30
0.0
 11
237.9462
 21
288.0
 31
0.0
  0
LINE
  5
20AA
  8
0
 10
237.94620000000009
 20
308.0
 30
0.0
 11
240.00000000000011
 21
308.0
 31
0.0
  0
POLYLINE
  5
20AB
  8
0
 66
     1
 10
0.0
 20
0.0
 30
0.0
  0
VERTEX
  5
3EE1
  8
0
 10
235.8462000000001
 20
308.5
 30
0.0
  0
VERTEX
  5
3EE2
  8
0
 10
235.85419113400749
 20
308.45642212862617
 30
0.0
  0
VERTEX
  5
3EE3
  8
0
 10
235.8781037186744
 20
308.4131759111666
 30
0.0
  0
VERTEX
  5
3EE4
  8
0
 10
235.91775576479299
 20
308.37059047744879
 30
0.0
  0
VERTEX
  5
3EE5
  8
0
 10
235.97284549634961
 20
308.32898992833708
 30
0.0
  0
VERTEX
  5
3EE6
  8
0
 10
236.04295364722299
 20
308.28869086912971
 30
0.0
  0
VERTEX
  5
3EE7
  8
0
 10
236.1275466520527
 20
308.25
 30
0.0
  0
VERTEX
  5
3EE8
  8
0
 10
236.2259807069932
 20
308.2132117818245
 30
0.0
  0
VERTEX
  5
3EE9
  8
0
 10
236.33750666945011
 20
308.1786061951567
 30
0.0
  0
VERTEX
  5
3EEA
  8
0
 10
236.46127575950831
 20
308.14644660940678
 30
0.0
  0
VERTEX
  5
3EEB
  8
0
 10
236.59634601965831
 20
308.11697777844051
 30
0.0
  0
VERTEX
  5
3EEC
  8
0
 10
236.7416894836629
 20
308.09042397785549
 30
0.0
  0
VERTEX
  5
3EED
  8
0
 10
236.89619999999999
 20
308.06698729810779
 30
0.0
  0
VERTEX
  5
3EEE
  8
0
 10
237.0587016503446
 20
308.04684610648172
 30
0.0
  0
VERTEX
  5
3EEF
  8
0
 10
237.2279576990162
 20
308.03015368960712
 30
0.0
  0
VERTEX
  5
3EF0
  8
0
 10
237.40268000528479
 20
308.0170370868554
 30
0.0
  0
VERTEX
  5
3EF1
  8
0
 10
237.5815388268995
 20
308.0075961234939
 30
0.0
  0
VERTEX
  5
3EF2
  8
0
 10
237.76317294022999
 20
308.00190265095409
 30
0.0
  0
VERTEX
  5
3EF3
  8
0
 10
237.94620000000009
 20
308.0
 30
0.0
  0
SEQEND
  5
3EF4
  8
0
  0
LINE
  5
20AC
  8
0
 10
235.8462000000001
 20
328.5
 30
0.0
 11
235.8462000000001
 21
308.5
 31
0.0
  0
POLYLINE
  5
20AD
  8
0
 66
     1
 10
0.0
 20
0.0
 30
0.0
  0
VERTEX
  5
3EF5
  8
0
 10
237.9462
 20
329.0
 30
0.0
  0
VERTEX
  5
3EF6
  8
0
 10
237.76317294022999
 20
328.99809734904591
 30
0.0
  0
VERTEX
  5
3EF7
  8
0
 10
237.58153882689939
 20
328.9924038765061
 30
0.0
  0
VERTEX
  5
3EF8
  8
0
 10
237.40268000528479
 20
328.9829629131446
 30
0.0
  0
VERTEX
  5
3EF9
  8
0
 10
237.2279576990162
 20
328.969846310393
 30
0.0
  0
VERTEX
  5
3EFA
  8
0
 10
237.0587016503446
 20
328.95315389351828
 30
0.0
  0
VERTEX
  5
3EFB
  8
0
 10
236.89619999999999
 20
328.93301270189232
 30
0.0
  0
VERTEX
  5
3EFC
  8
0
 10
236.7416894836629
 20
328.90957602214451
 30
0.0
  0
VERTEX
  5
3EFD
  8
0
 10
236.59634601965831
 20
328.88302222155949
 30
0.0
  0
VERTEX
  5
3EFE
  8
0
 10
236.46127575950831
 20
328.85355339059328
 30
0.0
  0
VERTEX
  5
3EFF
  8
0
 10
236.33750666945011
 20
328.8213938048433
 30
0.0
  0
VERTEX
  5
3F00
  8
0
 10
236.2259807069932
 20
328.7867882181755
 30
0.0
  0
VERTEX
  5
3F01
  8
0
 10
236.1275466520527
 20
328.75
 30
0.0
  0
VERTEX
  5
3F02
  8
0
 10
236.04295364722299
 20
328.7113091308704
 30
0.0
  0
VERTEX
  5
3F03
  8
0
 10
235.97284549634961
 20
328.67101007166292
 30
0.0
  0
VERTEX
  5
3F04
  8
0
 10
235.91775576479299
 20
328.62940952255133
 30
0.0
  0
VERTEX
  5
3F05
  8
0
 10
235.8781037186744
 20
328.58682408883351
 30
0.0
  0
VERTEX
  5
3F06
  8
0
 10
235.85419113400749
 20
328.54357787137383
 30
0.0
  0
VERTEX
  5
3F07
  8
0
 10
235.8462000000001
 20
328.5
 30
0.0
  0
SEQEND
  5
3F08
  8
0
  0
LINE
  5
2B44
  8
3
 10
104.4264999999999
 20
94.237537816861163
 30
0.0
 11
104.4265
 21
95.475149769387713
 31
0.0
  0
LINE
  5
2B45
  8
3
 10
94.573499999999953
 20
94.237537816861163
 30
0.0
 11
94.573499999999953
 21
95.475149219892174
 31
0.0
  0
LINE
  5
2B47
  8
0
 10
95.068632451547955
 20
94.441233009657836
 30
0.0
 11
97.865288808908304
 21
96.720851959673965
 31
0.0
  0
LINE
  5
2B48
  8
0
 10
97.521471033383364
 20
97.083879978702157
 30
0.0
 11
94.724814682771566
 21
94.804261035077516
 31
0.0
  0
LINE
  5
2B49
  8
0
 10
94.295415775691822
 20
96.697947693812125
 30
0.0
 11
95.618451289265394
 21
95.532684795985347
 31
0.0
  0
LINE
  5
2B4A
  8
0
 10
93.422522090428956
 20
95.475149155702752
 30
0.0
 11
95.547866210672396
 21
95.475149274231839
 31
0.0
  0
LINE
  5
2B4B
  8
0
 10
95.981342988299176
 20
95.828486170158826
 30
0.0
 11
94.538207948265025
 21
97.049090905459252
 31
0.0
  0
LINE
  5
2B4C
  8
0
 10
94.141801120395357
 20
97.352084301407558
 30
0.0
 11
92.055282540957947
 21
94.408550797400594
 31
0.0
  0
LINE
  5
2B4D
  8
0
 10
92.483542734249454
 20
94.150494190803784
 30
0.0
 11
94.570061318484136
 21
97.09402770277201
 31
0.0
  0
LINE
  5
2B4E
  8
0
 10
94.037760005553423
 20
97.205309424658495
 30
0.0
 11
91.388398923773465
 21
96.249905696774135
 31
0.0
  0
LINE
  5
2B4F
  8
0
 10
89.158325188458434
 20
96.249996235764357
 30
0.0
 11
93.36058805979394
 21
96.2499964310623
 31
0.0
  0
LINE
  5
2B50
  8
0
 10
92.481797407180338
 20
95.010252028846807
 30
0.0
 11
91.016033447288564
 21
96.249996322100415
 31
0.0
  0
LINE
  5
2B51
  8
0
 10
90.368094324190793
 20
96.249996291987713
 30
0.0
 11
92.210402344497993
 21
94.627384381416974
 31
0.0
  0
LINE
  5
2B52
  8
0
 10
92.055282540957947
 20
94.408550797400594
 30
0.0
 11
92.483542734249454
 21
94.150494190803784
 31
0.0
  0
LINE
  5
2B53
  8
0
 10
89.158325240033378
 20
95.475148917891147
 30
0.0
 11
89.158325211224806
 21
96.249996235764357
 31
0.0
  0
LINE
  5
2B54
  8
0
 10
89.158325211224806
 20
95.475148917891147
 30
0.0
 11
91.247853253497965
 21
95.47514903442277
 31
0.0
  0
LINE
  5
2B55
  8
0
 10
94.570061318484136
 20
97.09402770277201
 30
0.0
 11
94.141801120395357
 21
97.352084301407558
 31
0.0
  0
LINE
  5
2B56
  8
0
 10
93.971771247156425
 20
96.249996459466715
 30
0.0
 11
94.804018033019815
 21
96.249996498145052
 31
0.0
  0
LINE
  5
2B57
  8
0
 10
94.724814682771566
 20
94.804261035077516
 30
0.0
 11
95.068632451547955
 21
94.441233009657836
 31
0.0
  0
LINE
  5
2B58
  8
0
 10
103.5718352327583
 20
97.154691074851939
 30
0.0
 11
100.9677332604689
 21
94.657372074510249
 31
0.0
  0
LINE
  5
2B59
  8
0
 10
101.5288078392341
 20
96.249996810676066
 30
0.0
 11
102.62845716041249
 21
96.24999686178171
 31
0.0
  0
LINE
  5
2B5A
  8
0
 10
101.3396547883836
 20
94.323194902279852
 30
0.0
 11
103.9437567668855
 21
96.820513909535407
 31
0.0
  0
LINE
  5
2B5B
  8
0
 10
100.6048426273483
 20
96.474011680511467
 30
0.0
 11
101.7814464626141
 21
95.437718413543607
 31
0.0
  0
LINE
  5
2B5C
  8
0
 10
100.9677332604689
 20
94.657372074510249
 30
0.0
 11
101.3298984703424
 21
94.312645565341427
 31
0.0
  0
LINE
  5
2B5D
  8
0
 10
102.1139585415972
 20
95.756595608647444
 30
0.0
 11
100.9240696522841
 21
96.763004553400265
 31
0.0
  0
LINE
  5
2B5E
  8
0
 10
99.501480455461547
 20
95.475149494722473
 30
0.0
 11
101.73894719923381
 21
95.475149619504464
 31
0.0
  0
LINE
  5
2B5F
  8
0
 10
100.5706087461696
 20
97.115610977342271
 30
0.0
 11
100.93277395604321
 21
96.770884468173449
 31
0.0
  0
LINE
  5
2B60
  8
0
 10
95.482986434372606
 20
96.249996529699729
 30
0.0
 11
96.498455622030974
 21
96.249996576893082
 31
0.0
  0
LINE
  5
2B61
  8
0
 10
97.287639374528226
 20
96.249996613570033
 30
0.0
 11
97.734896659131778
 21
96.249996634356094
 31
0.0
  0
LINE
  5
2B62
  8
0
 10
97.865288808908304
 20
96.720851959673965
 30
0.0
 11
97.521471033383364
 21
97.083879978702157
 31
0.0
  0
LINE
  5
2B63
  8
0
 10
96.337049972540072
 20
95.475149318244121
 30
0.0
 11
98.61465551069432
 21
95.475149445264719
 31
0.0
  0
LINE
  5
2B64
  8
0
 10
97.519921962444528
 20
96.439335495974774
 30
0.0
 11
98.687577987456393
 21
95.410923008622035
 31
0.0
  0
LINE
  5
2B65
  8
0
 10
99.029761434213484
 20
95.720698089078397
 30
0.0
 11
97.856111975046815
 21
96.713371711227751
 31
0.0
  0
LINE
  5
2B66
  8
0
 10
97.895820532289349
 20
94.694153300149523
 30
0.0
 11
98.257985742162774
 21
94.349426790980715
 31
0.0
  0
LINE
  5
2B67
  8
0
 10
100.93277395604321
 20
96.770884468173449
 30
0.0
 11
98.257985742162774
 21
94.349426790980715
 31
0.0
  0
LINE
  5
2B68
  8
0
 10
100.5706087461696
 20
97.115610977342271
 30
0.0
 11
97.895820532289349
 21
94.694153300149523
 31
0.0
  0
LINE
  5
2B69
  8
0
 10
105.65618049569881
 20
95.475149837966214
 30
0.0
 11
109.65832527837721
 21
95.475150061163404
 31
0.0
  0
LINE
  5
2B6A
  8
0
 10
107.08392261639599
 20
96.249997068847165
 30
0.0
 11
109.65832518845841
 21
96.249997188491193
 31
0.0
  0
LINE
  5
2B6B
  8
0
 10
104.9505887633057
 20
94.025216864526101
 30
0.0
 11
106.5293784878496
 21
97.269499889188296
 31
0.0
  0
LINE
  5
2B6C
  8
0
 10
104.9505887633057
 20
94.025216864526101
 30
0.0
 11
107.36116496620851
 21
95.475149933052194
 31
0.0
  0
LINE
  5
2B6D
  8
0
 10
105.50000025490461
 20
94.237537761091744
 30
0.0
 11
105.50000025490461
 21
94.261249509003505
 31
0.0
  0
LINE
  5
2B6E
  8
0
 10
107.80813661295601
 20
95.475149957979525
 30
0.0
 11
106.4011978436648
 21
96.980454254404776
 31
0.0
  0
LINE
  5
2B6F
  8
0
 10
106.1890618716768
 20
96.570177234818416
 30
0.0
 11
107.17219753252461
 21
95.475149922513538
 31
0.0
  0
LINE
  5
2B70
  8
0
 10
106.5293784878496
 20
97.269499889188296
 30
0.0
 11
106.06478099494809
 21
97.454294843004618
 31
0.0
  0
LINE
  5
2B72
  8
0
 10
103.34884499096751
 20
96.249996895261333
 30
0.0
 11
103.8380001571807
 21
96.249996917994622
 31
0.0
  0
LINE
  5
2B73
  8
0
 10
103.9437567668855
 20
96.820513909535407
 30
0.0
 11
103.5718352327583
 21
97.154691074851939
 31
0.0
  0
LINE
  5
2B74
  8
0
 10
106.06478099494809
 20
97.454294843004618
 30
0.0
 11
104.4859912738394
 21
94.210011826979212
 31
0.0
  0
LINE
  5
2B75
  8
0
 10
104.4859912738394
 20
94.210011826979212
 30
0.0
 11
104.9505887633057
 21
94.025216864526101
 31
0.0
  0
LINE
  5
2B76
  8
0
 10
104.50498940355089
 20
96.249996948992575
 30
0.0
 11
105.4787245210274
 21
96.24999699424643
 31
0.0
  0
LINE
  5
2B77
  8
0
 10
103.5805604116631
 20
96.476736851125679
 30
0.0
 11
104.9864796088234
 21
95.238474188494465
 31
0.0
  0
LINE
  5
2B78
  8
0
 10
105.19479970855841
 20
95.66655485840954
 30
0.0
 11
103.8906615641484
 21
96.769595911667466
 31
0.0
  0
LINE
  5
2B79
  8
0
 10
102.5408660337297
 20
95.475149664227146
 30
0.0
 11
104.71775894433461
 21
95.475149785631046
 31
0.0
  0
LINE
  5
2B7A
  8
0
 10
109.6583252581318
 20
95.475150061163404
 30
0.0
 11
109.65832518845841
 21
96.249997188491193
 31
0.0
  0
LINE
  5
2B7B
  8
0
 10
98.403965462652891
 20
96.249996806820263
 30
0.0
 11
99.614434928879803
 21
96.24999686307639
 31
0.0
  0
LINE
  5
2B7C
  8
0
 10
104.4993864522731
 20
94.237537816861163
 30
0.0
 11
92.545243456415335
 21
94.237537816861163
 31
0.0
  0
LINE
  5
2B7D
  8
0
 10
105.5
 20
96.293716353554146
 30
0.0
 11
105.5
 21
102.0
 31
0.0
  0
LINE
  5
2B7E
  8
3
 10
104.4264999999999
 20
96.316383347345663
 30
0.0
 11
104.4264999999999
 21
102.0000000000001
 31
0.0
  0
LINE
  5
2B7F
  8
3
 10
94.573499999999953
 20
96.249996487431872
 30
0.0
 11
94.573499999999953
 21
96.453025145828505
 31
0.0
  0
LINE
  5
2B80
  8
3
 10
94.57349999999991
 20
97.019240860750315
 30
0.0
 11
94.573499999999953
 21
102.0000000000001
 31
0.0
  0
LINE
  5
2B81
  8
0
 10
93.499999999999943
 20
95.475149160023747
 30
0.0
 11
93.499999999999986
 21
94.237537816861163
 31
0.0
  0
LINE
  5
2B82
  8
0
 10
91.93214441593193
 20
95.475148954829606
 30
0.0
 11
92.811338815345891
 21
95.475149003861588
 31
0.0
  0
LINE
  5
2B83
  8
0
 10
92.339088691348636
 20
94.237537816861163
 30
0.0
 11
90.0
 21
94.237537816861163
 31
0.0
  0
LINE
  5
314A
  8
3
 10
247.76246218313889
 20
209.0735
 30
0.0
 11
246.52485078010801
 21
209.0735
 31
0.0
  0
LINE
  5
314B
  8
3
 10
245.75000351256821
 20
209.0735
 30
0.0
 11
245.54697485417159
 21
209.0735
 31
0.0
  0
LINE
  5
314C
  8
3
 10
244.98075913924981
 20
209.0735
 30
0.0
 11
240.0
 21
209.0735
 31
0.0
  0
LINE
  5
314D
  8
3
 10
247.76246218313889
 20
218.9265
 30
0.0
 11
246.5248502306124
 21
218.9265
 31
0.0
  0
LINE
  5
314E
  8
3
 10
245.68361665265451
 20
218.9265
 30
0.0
 11
240.0
 21
218.9265
 31
0.0
  0
LINE
  5
314F
  8
0
 10
246.5248508399763
 20
208.0
 30
0.0
 11
247.76246218313889
 21
208.0
 31
0.0
  0
LINE
  5
3150
  8
0
 10
247.76246218313889
 20
220.0
 30
0.0
 11
247.6443187762294
 21
220.0
 31
0.0
  0
LINE
  5
3151
  8
0
 10
247.55876699034229
 20
209.5686324515479
 30
0.0
 11
245.27914804032619
 21
212.3652888089083
 31
0.0
  0
LINE
  5
3152
  8
0
 10
244.91612002129801
 20
212.02147103338339
 30
0.0
 11
247.19573896492261
 21
209.22481468277161
 31
0.0
  0
LINE
  5
3153
  8
0
 10
245.30205230618799
 20
208.79541577569179
 30
0.0
 11
246.4673152040148
 21
210.11845128926541
 31
0.0
  0
LINE
  5
3154
  8
0
 10
246.52485084429739
 20
207.922522090429
 30
0.0
 11
246.52485072576829
 21
210.0478662106724
 31
0.0
  0
LINE
  5
3155
  8
0
 10
246.1715138298413
 20
210.4813429882991
 30
0.0
 11
244.9509090945408
 21
209.0382079482651
 31
0.0
  0
LINE
  5
3156
  8
0
 10
244.64791569859261
 20
208.6418011203954
 30
0.0
 11
247.59144920259951
 21
206.5552825409579
 31
0.0
  0
LINE
  5
3157
  8
0
 10
247.8495058091963
 20
206.98354273424951
 30
0.0
 11
244.90597229722809
 21
209.07006131848419
 31
0.0
  0
LINE
  5
3158
  8
0
 10
244.7946905753416
 20
208.53776000555339
 30
0.0
 11
245.75009430322601
 21
205.88839892377351
 31
0.0
  0
LINE
  5
3159
  8
0
 10
245.7500037642358
 20
203.65832518845841
 30
0.0
 11
245.75000356893781
 21
207.86058805979391
 31
0.0
  0
LINE
  5
315A
  8
0
 10
246.98974797115329
 20
206.98179740718041
 30
0.0
 11
245.75000367789971
 21
205.51603344728861
 31
0.0
  0
LINE
  5
315B
  8
0
 10
245.7500037080124
 20
204.86809432419079
 30
0.0
 11
247.3726156185831
 21
206.71040234449799
 31
0.0
  0
LINE
  5
315C
  8
0
 10
247.59144920259951
 20
206.5552825409579
 30
0.0
 11
247.8495058091963
 21
206.98354273424951
 31
0.0
  0
LINE
  5
315D
  8
0
 10
246.524851082109
 20
203.65832524003341
 30
0.0
 11
245.7500037642358
 21
203.65832521122479
 31
0.0
  0
LINE
  5
315E
  8
0
 10
246.524851082109
 20
203.65832521122479
 30
0.0
 11
246.52485096557729
 21
205.74785325349799
 31
0.0
  0
LINE
  5
315F
  8
0
 10
244.90597229722809
 20
209.07006131848419
 30
0.0
 11
244.64791569859261
 21
208.6418011203954
 31
0.0
  0
LINE
  5
3160
  8
0
 10
245.75000354053341
 20
208.4717712471564
 30
0.0
 11
245.7500035018551
 21
209.30401803301979
 31
0.0
  0
LINE
  5
3161
  8
0
 10
247.19573896492261
 20
209.22481468277161
 30
0.0
 11
247.55876699034229
 21
209.5686324515479
 31
0.0
  0
LINE
  5
3162
  8
0
 10
244.8453089251482
 20
218.0718352327583
 30
0.0
 11
247.34262792548989
 21
215.46773326046889
 31
0.0
  0
LINE
  5
3163
  8
0
 10
245.75000318932399
 20
216.0288078392341
 30
0.0
 11
245.7500031382184
 21
217.12845716041249
 31
0.0
  0
LINE
  5
3164
  8
0
 10
247.67680509772029
 20
215.83965478838371
 30
0.0
 11
245.17948609046471
 21
218.44375676688551
 31
0.0
  0
LINE
  5
3165
  8
0
 10
245.52598831948859
 20
215.1048426273484
 30
0.0
 11
246.56228158645649
 21
216.2814464626141
 31
0.0
  0
LINE
  5
3166
  8
0
 10
247.34262792548989
 20
215.46773326046889
 30
0.0
 11
247.68735443465869
 21
215.82989847034241
 31
0.0
  0
LINE
  5
3167
  8
0
 10
246.2434043913527
 20
216.61395854159721
 30
0.0
 11
245.23699544659991
 21
215.4240696522842
 31
0.0
  0
LINE
  5
3168
  8
0
 10
246.52485050527761
 20
214.0014804554616
 30
0.0
 11
246.52485038049571
 21
216.23894719923391
 31
0.0
  0
LINE
  5
3169
  8
0
 10
244.88438902265781
 20
215.07060874616971
 30
0.0
 11
245.22911553182669
 21
215.43277395604321
 31
0.0
  0
LINE
  5
316A
  8
0
 10
245.75000347030041
 20
209.98298643437261
 30
0.0
 11
245.75000342310699
 21
210.998455622031
 31
0.0
  0
LINE
  5
316B
  8
0
 10
245.75000338643011
 20
211.7876393745282
 30
0.0
 11
245.75000336564401
 21
212.23489665913181
 31
0.0
  0
LINE
  5
316C
  8
0
 10
245.27914804032619
 20
212.3652888089083
 30
0.0
 11
244.91612002129801
 21
212.02147103338339
 31
0.0
  0
LINE
  5
316D
  8
0
 10
246.52485068175599
 20
210.83704997254
 30
0.0
 11
246.52485055473539
 21
213.11465551069429
 31
0.0
  0
LINE
  5
316E
  8
0
 10
245.5606645040254
 20
212.0199219624445
 30
0.0
 11
246.58907699137811
 21
213.18757798745639
 31
0.0
  0
LINE
  5
316F
  8
0
 10
246.2793019109217
 20
213.5297614342135
 30
0.0
 11
245.28662828877239
 21
212.35611197504679
 31
0.0
  0
LINE
  5
3170
  8
0
 10
247.3058466998506
 20
212.39582053228929
 30
0.0
 11
247.6505732090194
 21
212.75798574216279
 31
0.0
  0
LINE
  5
3171
  8
0
 10
245.22911553182669
 20
215.43277395604321
 30
0.0
 11
247.6505732090194
 21
212.75798574216279
 31
0.0
  0
LINE
  5
3172
  8
0
 10
244.88438902265781
 20
215.07060874616971
 30
0.0
 11
247.3058466998506
 21
212.39582053228929
 31
0.0
  0
LINE
  5
3173
  8
0
 10
246.52485016203391
 20
220.15618049569881
 30
0.0
 11
246.5248499388367
 21
224.15832527837719
 31
0.0
  0
LINE
  5
3174
  8
0
 10
245.75000293115301
 20
221.58392261639611
 30
0.0
 11
245.75000281150889
 21
224.15832518845841
 31
0.0
  0
LINE
  5
3175
  8
0
 10
247.97478313547401
 20
219.4505887633058
 30
0.0
 11
244.73050011081179
 21
221.02937848784961
 31
0.0
  0
LINE
  5
3176
  8
0
 10
247.97478313547401
 20
219.4505887633058
 30
0.0
 11
246.52485006694789
 21
221.86116496620861
 31
0.0
  0
LINE
  5
3178
  8
0
 10
246.5248500420206
 20
222.30813661295599
 30
0.0
 11
245.01954574559531
 21
220.90119784366479
 31
0.0
  0
LINE
  5
3179
  8
0
 10
245.42982276518171
 20
220.68906187167681
 30
0.0
 11
246.5248500774866
 21
221.67219753252459
 31
0.0
  0
LINE
  5
317A
  8
0
 10
244.73050011081179
 20
221.02937848784961
 30
0.0
 11
244.5457051569955
 21
220.56478099494819
 31
0.0
  0
LINE
  5
317B
  8
0
 10
245.75000310473879
 20
217.84884499096751
 30
0.0
 11
245.75000308200549
 21
218.3380001571808
 31
0.0
  0
LINE
  5
317C
  8
0
 10
245.17948609046471
 20
218.44375676688551
 30
0.0
 11
244.8453089251482
 21
218.0718352327583
 31
0.0
  0
LINE
  5
317D
  8
0
 10
244.5457051569955
 20
220.56478099494819
 30
0.0
 11
247.7899881730209
 21
218.9859912738394
 31
0.0
  0
LINE
  5
317E
  8
0
 10
247.7899881730209
 20
218.9859912738394
 30
0.0
 11
247.97478313547401
 21
219.4505887633058
 31
0.0
  0
LINE
  5
317F
  8
0
 10
245.7500030510075
 20
219.00498940355089
 30
0.0
 11
245.75000300575371
 21
219.9787245210274
 31
0.0
  0
LINE
  5
3180
  8
0
 10
245.52326314887441
 20
218.0805604116631
 30
0.0
 11
246.76152581150561
 21
219.4864796088234
 31
0.0
  0
LINE
  5
3181
  8
0
 10
246.3334451415906
 20
219.69479970855841
 30
0.0
 11
245.23040408833259
 21
218.39066156414839
 31
0.0
  0
LINE
  5
3182
  8
0
 10
246.52485033577301
 20
217.04086603372971
 30
0.0
 11
246.524850214369
 21
219.21775894433461
 31
0.0
  0
LINE
  5
3183
  8
0
 10
246.5248499388367
 20
224.1583252581319
 30
0.0
 11
245.75000281150889
 21
224.15832518845841
 31
0.0
  0
LINE
  5
3184
  8
0
 10
245.75000319317991
 20
212.90396546265291
 30
0.0
 11
245.75000313692371
 21
214.1144349288798
 31
0.0
  0
LINE
  5
3185
  8
0
 10
246.52485104517049
 20
206.4321444159319
 30
0.0
 11
246.5248509961385
 21
207.31133881534581
 31
0.0
  0
LINE
  5
3186
  8
3
 10
247.76246218313889
 20
336.07350000000002
 30
0.0
 11
246.52485078010801
 21
336.07350000000002
 31
0.0
  0
LINE
  5
3187
  8
3
 10
245.75000351256821
 20
336.07350000000002
 30
0.0
 11
245.54697485417159
 21
336.07350000000002
 31
0.0
  0
LINE
  5
3188
  8
3
 10
244.98075913924981
 20
336.07350000000002
 30
0.0
 11
240.0
 21
336.07350000000002
 31
0.0
  0
LINE
  5
3189
  8
3
 10
247.76246218313889
 20
345.92649999999998
 30
0.0
 11
246.5248502306124
 21
345.92649999999998
 31
0.0
  0
LINE
  5
318A
  8
3
 10
245.68361665265451
 20
345.92649999999998
 30
0.0
 11
240.0
 21
345.92649999999998
 31
0.0
  0
LINE
  5
318B
  8
0
 10
246.5248508399763
 20
335.0
 30
0.0
 11
247.76246218313889
 21
335.0
 31
0.0
  0
LINE
  5
318C
  8
0
 10
247.76246218313889
 20
347.0
 30
0.0
 11
247.6443187762294
 21
347.0
 31
0.0
  0
LINE
  5
318D
  8
0
 10
247.55876699034229
 20
336.5686324515479
 30
0.0
 11
245.27914804032619
 21
339.3652888089083
 31
0.0
  0
LINE
  5
318E
  8
0
 10
244.91612002129801
 20
339.02147103338342
 30
0.0
 11
247.19573896492261
 21
336.22481468277158
 31
0.0
  0
LINE
  5
318F
  8
0
 10
245.30205230618799
 20
335.79541577569182
 30
0.0
 11
246.4673152040148
 21
337.11845128926541
 31
0.0
  0
LINE
  5
3190
  8
0
 10
246.52485084429739
 20
334.92252209042903
 30
0.0
 11
246.52485072576829
 21
337.0478662106724
 31
0.0
  0
LINE
  5
3191
  8
0
 10
246.1715138298413
 20
337.4813429882991
 30
0.0
 11
244.9509090945408
 21
336.0382079482651
 31
0.0
  0
LINE
  5
3192
  8
0
 10
244.64791569859261
 20
335.64180112039543
 30
0.0
 11
247.59144920259951
 21
333.55528254095788
 31
0.0
  0
LINE
  5
3193
  8
0
 10
247.8495058091963
 20
333.98354273424951
 30
0.0
 11
244.90597229722809
 21
336.07006131848419
 31
0.0
  0
LINE
  5
3194
  8
0
 10
244.7946905753416
 20
335.53776000555342
 30
0.0
 11
245.75009430322601
 21
332.88839892377348
 31
0.0
  0
LINE
  5
3195
  8
0
 10
245.7500037642358
 20
330.65832518845849
 30
0.0
 11
245.75000356893781
 21
334.86058805979388
 31
0.0
  0
LINE
  5
3196
  8
0
 10
246.98974797115329
 20
333.98179740718041
 30
0.0
 11
245.75000367789971
 21
332.51603344728858
 31
0.0
  0
LINE
  5
3197
  8
0
 10
245.7500037080124
 20
331.86809432419079
 30
0.0
 11
247.3726156185831
 21
333.71040234449799
 31
0.0
  0
LINE
  5
3198
  8
0
 10
247.59144920259951
 20
333.55528254095788
 30
0.0
 11
247.8495058091963
 21
333.98354273424951
 31
0.0
  0
LINE
  5
3199
  8
0
 10
246.524851082109
 20
330.65832524003338
 30
0.0
 11
245.7500037642358
 21
330.65832521122479
 31
0.0
  0
LINE
  5
319A
  8
0
 10
246.524851082109
 20
330.65832521122479
 30
0.0
 11
246.52485096557729
 21
332.74785325349802
 31
0.0
  0
LINE
  5
319B
  8
0
 10
244.90597229722809
 20
336.07006131848419
 30
0.0
 11
244.64791569859261
 21
335.64180112039543
 31
0.0
  0
LINE
  5
319C
  8
0
 10
245.75000354053341
 20
335.47177124715643
 30
0.0
 11
245.7500035018551
 21
336.30401803301982
 31
0.0
  0
LINE
  5
319D
  8
0
 10
247.19573896492261
 20
336.22481468277158
 30
0.0
 11
247.55876699034229
 21
336.5686324515479
 31
0.0
  0
LINE
  5
319E
  8
0
 10
244.8453089251482
 20
345.0718352327583
 30
0.0
 11
247.34262792548989
 21
342.46773326046889
 31
0.0
  0
LINE
  5
319F
  8
0
 10
245.75000318932399
 20
343.0288078392341
 30
0.0
 11
245.7500031382184
 21
344.12845716041249
 31
0.0
  0
LINE
  5
31A0
  8
0
 10
247.67680509772029
 20
342.83965478838371
 30
0.0
 11
245.17948609046471
 21
345.44375676688549
 31
0.0
  0
LINE
  5
31A1
  8
0
 10
245.52598831948859
 20
342.10484262734838
 30
0.0
 11
246.56228158645649
 21
343.2814464626141
 31
0.0
  0
LINE
  5
31A2
  8
0
 10
247.34262792548989
 20
342.46773326046889
 30
0.0
 11
247.68735443465869
 21
342.82989847034241
 31
0.0
  0
LINE
  5
31A3
  8
0
 10
246.2434043913527
 20
343.61395854159719
 30
0.0
 11
245.23699544659991
 21
342.42406965228417
 31
0.0
  0
LINE
  5
31A4
  8
0
 10
246.52485050527761
 20
341.0014804554616
 30
0.0
 11
246.52485038049571
 21
343.23894719923391
 31
0.0
  0
LINE
  5
31A5
  8
0
 10
244.88438902265781
 20
342.07060874616968
 30
0.0
 11
245.22911553182669
 21
342.43277395604321
 31
0.0
  0
LINE
  5
31A6
  8
0
 10
245.75000347030041
 20
336.98298643437261
 30
0.0
 11
245.75000342310699
 21
337.99845562203097
 31
0.0
  0
LINE
  5
31A7
  8
0
 10
245.75000338643011
 20
338.78763937452823
 30
0.0
 11
245.75000336564401
 21
339.23489665913178
 31
0.0
  0
LINE
  5
31A8
  8
0
 10
245.27914804032619
 20
339.3652888089083
 30
0.0
 11
244.91612002129801
 21
339.02147103338342
 31
0.0
  0
LINE
  5
31A9
  8
0
 10
246.52485068175599
 20
337.83704997254
 30
0.0
 11
246.52485055473539
 21
340.11465551069432
 31
0.0
  0
LINE
  5
31AA
  8
0
 10
245.5606645040254
 20
339.01992196244453
 30
0.0
 11
246.58907699137811
 21
340.18757798745639
 31
0.0
  0
LINE
  5
31AB
  8
0
 10
246.2793019109217
 20
340.52976143421353
 30
0.0
 11
245.28662828877239
 21
339.35611197504682
 31
0.0
  0
LINE
  5
31AC
  8
0
 10
247.3058466998506
 20
339.39582053228929
 30
0.0
 11
247.6505732090194
 21
339.75798574216282
 31
0.0
  0
LINE
  5
31AD
  8
0
 10
245.22911553182669
 20
342.43277395604321
 30
0.0
 11
247.6505732090194
 21
339.75798574216282
 31
0.0
  0
LINE
  5
31AE
  8
0
 10
244.88438902265781
 20
342.07060874616968
 30
0.0
 11
247.3058466998506
 21
339.39582053228929
 31
0.0
  0
LINE
  5
31AF
  8
0
 10
246.52485016203391
 20
347.15618049569878
 30
0.0
 11
246.5248499388367
 21
351.15832527837722
 31
0.0
  0
LINE
  5
31B0
  8
0
 10
245.75000293115301
 20
348.58392261639608
 30
0.0
 11
245.75000281150889
 21
351.15832518845838
 31
0.0
  0
LINE
  5
31B1
  8
0
 10
247.97478313547401
 20
346.4505887633058
 30
0.0
 11
244.73050011081179
 21
348.02937848784961
 31
0.0
  0
LINE
  5
31B2
  8
0
 10
247.97478313547401
 20
346.4505887633058
 30
0.0
 11
246.52485006694789
 21
348.86116496620861
 31
0.0
  0
LINE
  5
31B4
  8
0
 10
246.5248500420206
 20
349.30813661295599
 30
0.0
 11
245.01954574559531
 21
347.90119784366482
 31
0.0
  0
LINE
  5
31B5
  8
0
 10
245.42982276518171
 20
347.68906187167681
 30
0.0
 11
246.5248500774866
 21
348.67219753252459
 31
0.0
  0
LINE
  5
31B6
  8
0
 10
244.73050011081179
 20
348.02937848784961
 30
0.0
 11
244.5457051569955
 21
347.56478099494819
 31
0.0
  0
LINE
  5
31B7
  8
0
 10
245.75000310473879
 20
344.84884499096751
 30
0.0
 11
245.75000308200549
 21
345.33800015718077
 31
0.0
  0
LINE
  5
31B8
  8
0
 10
245.17948609046471
 20
345.44375676688549
 30
0.0
 11
244.8453089251482
 21
345.0718352327583
 31
0.0
  0
LINE
  5
31B9
  8
0
 10
244.5457051569955
 20
347.56478099494819
 30
0.0
 11
247.7899881730209
 21
345.98599127383937
 31
0.0
  0
LINE
  5
31BA
  8
0
 10
247.7899881730209
 20
345.98599127383937
 30
0.0
 11
247.97478313547401
 21
346.4505887633058
 31
0.0
  0
LINE
  5
31BB
  8
0
 10
245.7500030510075
 20
346.00498940355089
 30
0.0
 11
245.75000300575371
 21
346.9787245210274
 31
0.0
  0
LINE
  5
31BC
  8
0
 10
245.52326314887441
 20
345.0805604116631
 30
0.0
 11
246.76152581150561
 21
346.4864796088234
 31
0.0
  0
LINE
  5
31BD
  8
0
 10
246.3334451415906
 20
346.69479970855838
 30
0.0
 11
245.23040408833259
 21
345.39066156414839
 31
0.0
  0
LINE
  5
31BE
  8
0
 10
246.52485033577301
 20
344.04086603372969
 30
0.0
 11
246.524850214369
 21
346.21775894433461
 31
0.0
  0
LINE
  5
31BF
  8
0
 10
246.5248499388367
 20
351.15832525813192
 30
0.0
 11
245.75000281150889
 21
351.15832518845838
 31
0.0
  0
LINE
  5
31C0
  8
0
 10
245.75000319317991
 20
339.90396546265288
 30
0.0
 11
245.75000313692371
 21
341.1144349288798
 31
0.0
  0
LINE
  5
31C1
  8
0
 10
246.52485104517049
 20
333.43214441593187
 30
0.0
 11
246.5248509961385
 21
334.31133881534578
 31
0.0
  0
LINE
  5
31C2
  8
0
 10
247.76246218313881
 20
345.99938645227343
 30
0.0
 11
247.76246218313889
 21
334.04524345641551
 31
0.0
  0
POLYLINE
  5
31C3
  8
0
 66
     1
 10
0.0
 20
0.0
 30
0.0
  0
VERTEX
  5
3F09
  8
0
 10
247.7744300562623
 20
345.9935624366193
 30
0.0
  0
VERTEX
  5
3F0A
  8
0
 10
247.76246218313881
 20
345.75
 30
0.0
  0
SEQEND
  5
3F0B
  8
0
  0
LINE
  5
31C4
  8
0
 10
247.76246218313881
 20
333.83908869134871
 30
0.0
 11
247.76246218313881
 21
331.5
 31
0.0
  0
POLYLINE
  5
31C5
  8
0
 66
     1
 10
0.0
 20
0.0
 30
0.0
  0
VERTEX
  5
3F0C
  8
0
 10
247.77443005626219
 20
218.9935624366193
 30
0.0
  0
VERTEX
  5
3F0D
  8
0
 10
247.76246218313881
 20
218.75
 30
0.0
  0
SEQEND
  5
3F0E
  8
0
  0
LINE
  5
31C6
  8
0
 10
247.76246218313881
 20
218.99938645227331
 30
0.0
 11
247.76246218313881
 21
207.04524345641539
 31
0.0
  0
LINE
  5
31C7
  8
0
 10
246.52485083997641
 20
208.0
 30
0.0
 11
247.76246218313881
 21
208.0
 31
0.0
  0
LINE
  5
31C8
  8
0
 10
247.76246218313881
 20
206.83908869134871
 30
0.0
 11
247.76246218313881
 21
204.5
 31
0.0
  0
LINE
  5
37B1
  8
0
 10
109.0
 20
237.99534089869209
 30
0.0
 11
90.0
 21
237.99534089869201
 31
0.0
  0
LINE
  5
37B3
  8
0
 10
90.0
 20
235.99534089869221
 30
0.0
 11
109.0
 21
235.99534089869209
 31
0.0
  0
TEXT
  5
37B4
  8
0
 10
91.105888423120376
 20
320.03011341888208
 30
0.0
 40
1.3
  1
ELESA
 41
3.0
  7
SIM300
 72
     1
 11
99.555888423120393
 21
320.03011341888208
 31
0.0
  0
LINE
  5
37B5
  8
0
 10
109.0
 20
317.75
 30
0.0
 11
90.0
 21
317.75
 31
0.0
  0
LINE
  5
37B6
  8
0
 10
109.0
 20
316.25
 30
0.0
 11
90.0
 21
316.25
 31
0.0
  0
ENDSEC
  0
EOF
