  0
SECTION
  2
HEADER
  9
$ACADVER
  1
AC1009
  9
$INSBASE
 10
0.0
 20
0.0
 30
0.0
  9
$EXTMIN
 10
0.0
 20
-2.960436562073669
 30
0.0
  9
$EXTMAX
 10
473.6748368816817
 20
426.52043004690779
 30
0.0
  9
$LIMMIN
 10
0.0
 20
0.0
  9
$LIMMAX
 10
750.0
 20
540.0
  9
$ORTHOMODE
 70
     1
  9
$REGENMODE
 70
     1
  9
$FILLMODE
 70
     1
  9
$QTEXTMODE
 70
     0
  9
$MIRRTEXT
 70
     0
  9
$DRAGMODE
 70
     2
  9
$LTSCALE
 40
20.0
  9
$OSMODE
 70
  3071
  9
$ATTMODE
 70
     1
  9
$TEXTSIZE
 40
0.2
  9
$TRACEWID
 40
0.05
  9
$TEXTSTYLE
  7
STANDARD
  9
$CLAYER
  8
0
  9
$CELTYPE
  6
BYLAYER
  9
$CECOLOR
 62
   256
  9
$DIMSCALE
 40
2.0
  9
$DIMASZ
 40
3.0
  9
$DIMEXO
 40
2.0
  9
$DIMDLI
 40
0.38
  9
$DIMRND
 40
0.0
  9
$DIMDLE
 40
0.0
  9
$DIMEXE
 40
2.0
  9
$DIMTP
 40
0.0
  9
$DIMTM
 40
0.0
  9
$DIMTXT
 40
3.2000000000000002
  9
$DIMCEN
 40
0.0
  9
$DIMTSZ
 40
0.0
  9
$DIMTOL
 70
     0
  9
$DIMLIM
 70
     0
  9
$DIMTIH
 70
     0
  9
$DIMTOH
 70
     0
  9
$DIMSE1
 70
     0
  9
$DIMSE2
 70
     0
  9
$DIMTAD
 70
     1
  9
$DIMZIN
 70
     0
  9
$DIMBLK
  1

  9
$DIMASO
 70
     1
  9
$DIMSHO
 70
     0
  9
$DIMPOST
  1

  9
$DIMAPOST
  1

  9
$DIMALT
 70
     0
  9
$DIMALTD
 70
     2
  9
$DIMALTF
 40
25.399999999999999
  9
$DIMLFAC
 40
1.0
  9
$DIMTOFL
 70
     1
  9
$DIMTVP
 40
1.6000000000000001
  9
$DIMTIX
 70
     1
  9
$DIMSOXD
 70
     0
  9
$DIMSAH
 70
     0
  9
$DIMBLK1
  1

  9
$DIMBLK2
  1

  9
$DIMSTYLE
  2
STANDARD
  9
$DIMCLRD
 70
     0
  9
$DIMCLRE
 70
     0
  9
$DIMCLRT
 70
     0
  9
$DIMTFAC
 40
1.0
  9
$DIMGAP
 40
0.09
  9
$LUNITS
 70
     2
  9
$LUPREC
 70
     4
  9
$SKETCHINC
 40
0.1
  9
$FILLETRAD
 40
0.0
  9
$AUNITS
 70
     0
  9
$AUPREC
 70
     4
  9
$MENU
  1
E:\r13\win\SUPPORT\ACAD
  9
$ELEVATION
 40
0.0
  9
$PELEVATION
 40
0.0
  9
$THICKNESS
 40
0.0
  9
$LIMCHECK
 70
     0
  9
$BLIPMODE
 70
     0
  9
$CHAMFERA
 40
0.0
  9
$CHAMFERB
 40
0.0
  9
$SKPOLY
 70
     0
  9
$TDCREATE
 40
2451614.4610555549
  9
$TDUPDATE
 40
2456597.5880576498
  9
$TDINDWG
 40
0.0001568866
  9
$TDUSRTIMER
 40
0.0001568866
  9
$USRTIMER
 70
     1
  9
$ANGBASE
 50
0.0
  9
$ANGDIR
 70
     0
  9
$PDMODE
 70
     0
  9
$PDSIZE
 40
0.0
  9
$PLINEWID
 40
0.0
  9
$COORDS
 70
     1
  9
$SPLFRAME
 70
     0
  9
$SPLINETYPE
 70
     6
  9
$SPLINESEGS
 70
     8
  9
$ATTDIA
 70
     0
  9
$ATTREQ
 70
     1
  9
$HANDLING
 70
     1
  9
$HANDSEED
  5
101D
  9
$SURFTAB1
 70
     6
  9
$SURFTAB2
 70
     6
  9
$SURFTYPE
 70
     6
  9
$SURFU
 70
     6
  9
$SURFV
 70
     6
  9
$UCSNAME
  2

  9
$UCSORG
 10
0.0
 20
0.0
 30
0.0
  9
$UCSXDIR
 10
1.0
 20
0.0
 30
0.0
  9
$UCSYDIR
 10
0.0
 20
1.0
 30
0.0
  9
$PUCSNAME
  2

  9
$PUCSORG
 10
0.0
 20
0.0
 30
0.0
  9
$PUCSXDIR
 10
1.0
 20
0.0
 30
0.0
  9
$PUCSYDIR
 10
0.0
 20
1.0
 30
0.0
  9
$USERI1
 70
     0
  9
$USERI2
 70
     1
  9
$USERI3
 70
     1
  9
$USERI4
 70
     0
  9
$USERI5
 70
     0
  9
$USERR1
 40
0.0
  9
$USERR2
 40
0.0
  9
$USERR3
 40
0.0
  9
$USERR4
 40
0.0
  9
$USERR5
 40
0.0
  9
$WORLDVIEW
 70
     1
  9
$SHADEDGE
 70
     3
  9
$SHADEDIF
 70
    70
  9
$TILEMODE
 70
     1
  9
$MAXACTVP
 70
    16
  9
$PLIMCHECK
 70
     0
  9
$PEXTMIN
 10
1.0000000000000000E+020
 20
1.0000000000000000E+020
 30
1.0000000000000000E+020
  9
$PEXTMAX
 10
-1.0000000000000000E+020
 20
-1.0000000000000000E+020
 30
-1.0000000000000000E+020
  9
$PLIMMIN
 10
0.0
 20
0.0
  9
$PLIMMAX
 10
12.0
 20
9.0
  9
$UNITMODE
 70
     0
  9
$VISRETAIN
 70
     0
  9
$PLINEGEN
 70
     0
  9
$PSLTSCALE
 70
     0
  0
ENDSEC
  0
SECTION
  2
TABLES
  0
TABLE
  2
VPORT
 70
     1
  0
VPORT
  2
*ACTIVE
 70
     0
 10
0.0
 20
0.0
 11
1.0
 21
1.0
 12
374.98855678130462
 22
269.68405869568772
 13
0.0
 23
0.0
 14
20.0
 24
20.0
 15
20.0
 25
20.0
 16
0.0
 26
0.0
 36
1.0
 17
0.0
 27
0.0
 37
0.0
 40
551.57487251346481
 41
2.304913294797688
 42
50.0
 43
0.0
 44
0.0
 50
0.0
 51
0.0
 71
     0
 72
   500
 73
     1
 74
     0
 75
     0
 76
     0
 77
     0
 78
     2
  0
ENDTAB
  0
TABLE
  2
LTYPE
 70
     4
  0
LTYPE
  2
CONTINUOUS
 70
     0
  3
Solid Line
 72
    65
 73
     0
 40
0.0
  0
LTYPE
  2
CENTER
 70
     0
  3
____ _ ____ _ ____ _ ____ _ ____ _ ____ _ ____
 72
    65
 73
     4
 40
2.0
 49
1.25
 49
-0.25
 49
0.25
 49
-0.25
  0
LTYPE
  2
HIDDEN
 70
     0
  3
_ _ _ _ _ _ _ _ _ _ _ _ _ _ _ _ _ _ _ _ _ _ _
 72
    65
 73
     2
 40
0.375
 49
0.25
 49
-0.125
  0
LTYPE
  2
PHANTOM2
 70
     0
  3
___ _ _ ___ _ _ ___ _ _ ___ _ _
 72
    65
 73
     6
 40
1.25
 49
0.625
 49
-0.125
 49
0.125
 49
-0.125
 49
0.125
 49
-0.125
  0
ENDTAB
  0
TABLE
  2
LAYER
 70
     5
  0
LAYER
  2
0
 70
     0
 62
     7
  6
CONTINUOUS
  0
LAYER
  2
1
 70
     0
 62
     1
  6
CENTER
  0
LAYER
  2
2
 70
     0
 62
     2
  6
HIDDEN
  0
LAYER
  2
3
 70
     0
 62
     3
  6
CONTINUOUS
  0
LAYER
  2
CONTORNO
 70
     0
 62
     7
  6
CONTINUOUS
  0
ENDTAB
  0
TABLE
  2
STYLE
 70
     3
  0
STYLE
  2
STANDARD
 70
     0
 40
0.0
 41
1.0
 50
0.0
 71
     0
 42
0.2
  3
TXT
  4
BIGFONT
  0
STYLE
  2
SIM300
 70
     0
 40
0.0
 41
3.0
 50
0.0
 71
     0
 42
1.0
  3
SIMPLEX
  4

  0
STYLE
  2
STANDARD1
 70
     0
 40
0.0
 41
1.0
 50
0.0
 71
     0
 42
3.0
  3
txt
  4

  0
ENDTAB
  0
TABLE
  2
VIEW
 70
     1
  0
VIEW
  2
ALL
 70
     0
 40
540.0
 10
441.98319327731087
 20
270.0
 41
0.0
 11
0.0
 21
0.0
 31
1.0
 12
0.0
 22
0.0
 32
0.0
 42
0.0
 43
0.0
 44
0.0
 50
0.0
 71
     0
  0
ENDTAB
  0
TABLE
  2
UCS
 70
     0
  0
ENDTAB
  0
TABLE
  2
APPID
 70
     3
  0
APPID
  2
ACAD
 70
     0
  0
APPID
  2
ACAD_MLEADERVER
 70
     0
  0
APPID
  2
ACAD_NAV_VCDISPLAY
 70
     0
  0
ENDTAB
  0
TABLE
  2
DIMSTYLE
 70
     1
  0
DIMSTYLE
  2
STANDARD
 70
     0
  3

  4

  5

  6

  7

 40
1.0
 41
0.18
 42
0.0625
 43
0.38
 44
0.18
 45
0.0
 46
0.0
 47
0.0
 48
0.0
140
0.18
141
0.09
142
0.0
143
25.399999999999999
144
1.0
145
0.0
146
1.0
147
0.09
 71
     0
 72
     0
 73
     1
 74
     1
 75
     0
 76
     0
 77
     0
 78
     0
170
     0
171
     2
172
     0
173
     0
174
     0
175
     0
176
     0
177
     0
178
     0
  0
ENDTAB
  0
ENDSEC
  0
SECTION
  2
BLOCKS
  0
BLOCK
  8
0
  2
$MODEL_SPACE
 70
     0
 10
0.0
 20
0.0
 30
0.0
  3
$MODEL_SPACE
  1

  0
ENDBLK
  5
E98
  8
0
  0
BLOCK
 67
     1
  8
0
  2
$PAPER_SPACE
 70
     0
 10
0.0
 20
0.0
 30
0.0
  3
$PAPER_SPACE
  1

  0
ENDBLK
  5
E96
 67
     1
  8
0
  0
ENDSEC
  0
SECTION
  2
ENTITIES
  0
LINE
  5
7E8
  8
1
 10
291.42837424360653
 20
426.52043004690779
 30
0.0
 11
291.42837424360619
 21
247.5204300501255
 31
0.0
  0
LINE
  5
7E9
  8
0
 10
310.99963653902688
 20
254.5904555500604
 30
0.0
 11
310.99963653902688
 21
285.5204300485176
 31
0.0
  0
LINE
  5
7EA
  8
0
 10
271.85711194818612
 20
254.5904555500604
 30
0.0
 11
271.85711194818612
 21
285.5204300485176
 31
0.0
  0
CIRCLE
  5
7EB
  8
0
 10
291.42837424360641
 20
273.52043539037658
 30
0.0
 40
9.1999999999999993
  0
CIRCLE
  5
7EC
  8
0
 10
291.42837424360641
 20
273.52043539037658
 30
0.0
 40
8.5
  0
LINE
  5
7EE
  8
2
 10
290.42837424360602
 20
192.49581423020939
 30
0.0
 11
290.42837424360602
 21
190.70445763675741
 31
0.0
  0
LINE
  5
7EF
  8
2
 10
292.42837424360607
 20
192.49581423020939
 30
0.0
 11
292.42837424360607
 21
190.70445763675741
 31
0.0
  0
LINE
  5
7F0
  8
1
 10
291.42837424360619
 20
197.52043005012541
 30
0.0
 11
291.42837424360602
 21
139.82405056462071
 31
0.0
  0
ARC
  5
7F1
  8
0
 10
291.42837424360619
 20
173.52043005012541
 30
0.0
 40
19.000000000000021
 50
4.9999999999924682
 51
175.0000000000075
1001
ACAD
1000
ASC_BOUNDS
1002
{
1070
    19
1002
}
  0
LINE
  5
7F2
  8
0
 10
283.0579037760607
 20
192.25817032445701
 30
0.0
 11
283.0579037760607
 21
190.5772534399583
 31
0.0
  0
LINE
  5
7F3
  8
0
 10
299.79884471115162
 20
192.25817032445701
 30
0.0
 11
299.79884471115162
 21
190.5772534399583
 31
0.0
  0
LINE
  5
7F4
  8
3
 10
296.48279227523108
 20
145.3434207401809
 30
0.0
 11
296.48279227523108
 21
149.0615893089001
 31
0.0
  0
LINE
  5
7F5
  8
3
 10
286.37395621198101
 20
145.3434207401809
 30
0.0
 11
286.37395621198101
 21
149.06158921493949
 31
0.0
  0
LINE
  5
7F6
  8
0
 10
286.57193297904382
 20
144.82405056462071
 30
0.0
 11
285.42837424360619
 21
147.82405056462071
 31
0.0
  0
LINE
  5
7F7
  8
0
 10
296.28481550816832
 20
144.82405056462071
 30
0.0
 11
297.42837424360619
 21
147.82405056462071
 31
0.0
  0
LINE
  5
7F8
  8
0
 10
286.57193297904382
 20
144.82405056462071
 30
0.0
 11
296.28481550816849
 21
144.82405056462071
 31
0.0
  0
LINE
  5
7F9
  8
2
 10
275.92837424360619
 20
168.6380769386484
 30
0.0
 11
306.92837424360619
 21
168.63807693864831
 31
0.0
1001
ACAD
1000
ASC_BOUNDS
1002
{
1070
    19
1002
}
  0
LINE
  5
7FA
  8
2
 10
285.4283742436059
 20
169.93216102632039
 30
0.0
 11
291.42837424360607
 21
169.9321610263205
 31
0.0
  0
LINE
  5
7FB
  8
2
 10
286.68649451537908
 20
168.87684435301651
 30
0.0
 11
296.17025397183312
 21
168.87684435301651
 31
0.0
  0
LINE
  5
7FC
  8
2
 10
285.42837424360619
 20
168.1225129988801
 30
0.0
 11
297.42837424360619
 21
168.1225129988801
 31
0.0
  0
LINE
  5
7FD
  8
2
 10
282.67837424360619
 20
187.52043005012541
 30
0.0
 11
300.17837424360619
 21
187.52043005012541
 31
0.0
  0
ARC
  5
7FE
  8
2
 10
291.4283742436067
 20
170.31261755012571
 30
0.0
 40
15.507812499999501
 50
358.18123910165792
 51
181.81876089839909
  0
LINE
  5
7FF
  8
1
 10
283.87837424360208
 20
175.57043005012551
 30
0.0
 11
298.97837424361018
 21
175.57043005012551
 31
0.0
  0
ARC
  5
800
  8
0
 10
291.42837368281607
 20
142.60710595669721
 30
0.0
 40
16.45448269053572
 50
70.528777294449142
 51
109.4712188001231
  0
LINE
  5
801
  8
0
 10
299.65561530993682
 20
159.06158836975359
 30
0.0
 11
283.2011326674662
 21
159.0615885226963
 31
0.0
  0
LINE
  5
802
  8
0
 10
279.92837424360619
 20
166.80815382810709
 30
0.0
 11
302.92837424360619
 21
166.80815382810709
 31
0.0
  0
LINE
  5
803
  8
0
 10
279.92837424360619
 20
166.74565382810709
 30
0.0
 11
302.92837424360619
 21
166.74565382810709
 31
0.0
  0
LINE
  5
804
  8
0
 10
279.92837424360619
 20
166.68315382810709
 30
0.0
 11
302.92837424360619
 21
166.68315382810709
 31
0.0
  0
LINE
  5
805
  8
0
 10
279.92837424360619
 20
166.62065382810709
 30
0.0
 11
302.92837424360619
 21
166.62065382810709
 31
0.0
  0
LINE
  5
806
  8
0
 10
279.92837424360619
 20
166.55815382810709
 30
0.0
 11
302.92837424360619
 21
166.55815382810709
 31
0.0
  0
LINE
  5
807
  8
0
 10
279.92837424360619
 20
166.49565382810709
 30
0.0
 11
302.92837424360619
 21
166.49565382810709
 31
0.0
  0
LINE
  5
808
  8
0
 10
279.92837424360619
 20
166.43315382810709
 30
0.0
 11
302.92837424360619
 21
166.43315382810709
 31
0.0
  0
LINE
  5
809
  8
0
 10
279.92837424360619
 20
166.37065382810709
 30
0.0
 11
302.92837424360619
 21
166.37065382810709
 31
0.0
  0
LINE
  5
80A
  8
0
 10
279.92837424360619
 20
166.30815382810709
 30
0.0
 11
302.92837424360619
 21
166.30815382810709
 31
0.0
  0
LINE
  5
80B
  8
0
 10
279.92837424360619
 20
166.24565382810709
 30
0.0
 11
302.92837424360619
 21
166.24565382810709
 31
0.0
  0
LINE
  5
80C
  8
0
 10
279.92837424360619
 20
166.18315382810709
 30
0.0
 11
302.92837424360619
 21
166.18315382810709
 31
0.0
  0
LINE
  5
80D
  8
0
 10
279.92837424360619
 20
166.12065382810709
 30
0.0
 11
302.92837424360619
 21
166.12065382810709
 31
0.0
  0
LINE
  5
80E
  8
0
 10
279.92837424360619
 20
166.05815382810709
 30
0.0
 11
302.92837424360619
 21
166.05815382810709
 31
0.0
  0
LINE
  5
80F
  8
0
 10
279.92837424360619
 20
165.99565382810709
 30
0.0
 11
302.92837424360619
 21
165.99565382810709
 31
0.0
  0
LINE
  5
810
  8
0
 10
279.92837424360619
 20
165.93315382810709
 30
0.0
 11
302.92837424360619
 21
165.93315382810709
 31
0.0
  0
LINE
  5
811
  8
0
 10
279.92837424360619
 20
165.87065382810709
 30
0.0
 11
302.92837424360619
 21
165.87065382810709
 31
0.0
  0
LINE
  5
812
  8
0
 10
279.92837424360619
 20
166.87065382810709
 30
0.0
 11
302.92837424360619
 21
166.87065382810709
 31
0.0
  0
LINE
  5
813
  8
0
 10
279.92837424360619
 20
166.93315382810709
 30
0.0
 11
302.92837424360619
 21
166.93315382810709
 31
0.0
  0
LINE
  5
814
  8
0
 10
279.92837424360619
 20
166.99565382810709
 30
0.0
 11
302.92837424360619
 21
166.99565382810709
 31
0.0
  0
LINE
  5
815
  8
0
 10
279.92837424360619
 20
167.05815382810709
 30
0.0
 11
302.92837424360619
 21
167.05815382810709
 31
0.0
  0
LINE
  5
816
  8
0
 10
279.92837424360619
 20
167.12065382810709
 30
0.0
 11
302.92837424360619
 21
167.12065382810709
 31
0.0
  0
LINE
  5
817
  8
0
 10
279.92837424360619
 20
167.18315382810709
 30
0.0
 11
302.92837424360619
 21
167.18315382810709
 31
0.0
  0
LINE
  5
818
  8
0
 10
279.92837424360619
 20
167.24565382810709
 30
0.0
 11
302.92837424360619
 21
167.24565382810709
 31
0.0
  0
LINE
  5
819
  8
0
 10
279.92837424360619
 20
167.30815382810709
 30
0.0
 11
302.92837424360619
 21
167.30815382810709
 31
0.0
  0
LINE
  5
81A
  8
0
 10
282.52837424360609
 20
167.37065382810709
 30
0.0
 11
300.32837424360611
 21
167.37065382810709
 31
0.0
  0
LINE
  5
81B
  8
0
 10
282.52837424360609
 20
167.43315382810709
 30
0.0
 11
300.32837424360611
 21
167.43315382810709
 31
0.0
  0
LINE
  5
81C
  8
0
 10
282.52837424360609
 20
167.49565382810709
 30
0.0
 11
300.32837424360611
 21
167.49565382810709
 31
0.0
  0
LINE
  5
81D
  8
0
 10
282.52837424360609
 20
167.55815382810709
 30
0.0
 11
300.32837424360611
 21
167.55815382810709
 31
0.0
  0
LINE
  5
81E
  8
0
 10
282.52837424360609
 20
167.62065382810709
 30
0.0
 11
300.32837424360611
 21
167.62065382810709
 31
0.0
  0
LINE
  5
81F
  8
0
 10
282.52837424360609
 20
167.68315382810709
 30
0.0
 11
300.32837424360611
 21
167.68315382810709
 31
0.0
  0
LINE
  5
820
  8
0
 10
282.52837424360609
 20
167.74565382810709
 30
0.0
 11
300.32837424360611
 21
167.74565382810709
 31
0.0
  0
LINE
  5
821
  8
0
 10
282.52837424360609
 20
167.80815382810709
 30
0.0
 11
300.32837424360611
 21
167.80815382810709
 31
0.0
  0
LINE
  5
822
  8
0
 10
285.42837424360619
 20
147.82405056462071
 30
0.0
 11
297.42837424360619
 21
147.82405056462071
 31
0.0
  0
ARC
  5
823
  8
0
 10
291.42837432162543
 20
165.5160712416382
 30
0.0
 40
16.45448269053572
 50
250.52877800452771
 51
289.47121951020182
  0
LINE
  5
824
  8
0
 10
299.65561530993682
 20
149.06158933839109
 30
0.0
 11
283.2011326674662
 21
149.0615891854485
 31
0.0
  0
LINE
  5
825
  8
0
 10
271.85711194818577
 20
167.82043005012551
 30
0.0
 11
310.99963653902648
 21
167.82043005012551
 31
0.0
1001
ACAD
1000
ASC_BOUNDS
1002
{
1070
    19
1002
}
  0
ARC
  5
826
  8
0
 10
291.42837424360619
 20
173.52043005012541
 30
0.0
 40
16.000000000000021
 50
4.9999999999924682
 51
175.0000000000075
1001
ACAD
1000
ASC_BOUNDS
1002
{
1070
    19
1002
}
  0
LINE
  5
827
  8
0
 10
279.92837424360619
 20
165.82043005012551
 30
0.0
 11
291.42837424360607
 21
165.82043005012551
 31
0.0
1001
ACAD
1000
ASC_BOUNDS
1002
{
1070
    19
1002
}
  0
LINE
  5
828
  8
0
 10
286.99700644024949
 20
159.26528363902159
 30
0.0
 11
289.79366279760978
 21
161.54490258903769
 31
0.0
  0
LINE
  5
829
  8
0
 10
289.4498450220849
 20
161.9079306080659
 30
0.0
 11
286.65318867147312
 21
159.6283116644413
 31
0.0
  0
LINE
  5
82A
  8
0
 10
286.22378976439342
 20
161.52199832317589
 30
0.0
 11
287.54682527796689
 21
160.35673542534909
 31
0.0
  0
LINE
  5
82B
  8
0
 10
285.35089607913051
 20
160.29919978506649
 30
0.0
 11
287.47624019937388
 21
160.29919990359559
 31
0.0
  0
LINE
  5
82C
  8
0
 10
287.9097169770007
 20
160.65253679952261
 30
0.0
 11
286.46658193696658
 21
161.87314153482299
 31
0.0
  0
LINE
  5
82D
  8
2
 10
275.92837424360619
 20
168.6380769386484
 30
0.0
 11
275.92837424360619
 21
169.82043005012551
 31
0.0
  0
LINE
  5
82E
  8
2
 10
286.68649451537908
 20
168.87684435301651
 30
0.0
 11
286.68649451537908
 21
169.9321610263205
 31
0.0
  0
LINE
  5
82F
  8
0
 10
274.8685714608157
 20
167.82043005012551
 30
0.0
 11
275.48925907413798
 21
174.91492193408601
 31
0.0
210
0.0
220
1.0
230
0.0
1001
ACAD
1000
ASC_BOUNDS
1002
{
1070
    19
1005
0
1002
}
  0
LINE
  5
830
  8
0
 10
271.85711194818577
 20
167.82043005012551
 30
0.0
 11
272.50067497986271
 21
175.1763891623286
 31
0.0
210
0.0
220
1.0
230
0.0
1001
ACAD
1000
ASC_BOUNDS
1002
{
1070
    19
1005
0
1002
}
  0
ARC
  5
831
  8
0
 10
283.20113232881221
 20
154.59507515279881
 30
0.0
 40
4.4665135228401711
 50
52.12111997572093
 51
127.8788789591642
  0
ARC
  5
832
  8
0
 10
283.20113229906002
 20
153.5281025043646
 30
0.0
 40
4.4665135228401711
 50
232.12111784548659
 51
307.87887682893
  0
LINE
  5
833
  8
0
 10
280.45871855284798
 20
158.1205414763825
 30
0.0
 11
280.45871825102768
 21
150.00263674157119
 31
0.0
  0
LINE
  5
834
  8
0
 10
285.42837424360619
 20
147.82405056462071
 30
0.0
 11
285.42837424360619
 21
149.06158920615039
 31
0.0
  0
LINE
  5
835
  8
0
 10
285.94354610033821
 20
158.12054122147799
 30
0.0
 11
285.94354579851779
 21
150.00263648666669
 31
0.0
  0
LINE
  5
836
  8
3
 10
286.37395621198101
 20
159.06158849320519
 30
0.0
 11
286.37395621198101
 21
160.29458618622559
 31
0.0
  0
LINE
  5
837
  8
3
 10
286.37395621198101
 20
162.02552503904241
 30
0.0
 11
286.37395621198101
 21
165.82043005012551
 31
0.0
  0
LINE
  5
838
  8
2
 10
285.42837424360619
 20
167.82043005012559
 30
0.0
 11
285.42837424360619
 21
168.1225129988801
 31
0.0
  0
LINE
  5
839
  8
2
 10
286.37395621198101
 20
167.82043005012551
 30
0.0
 11
286.37395621198101
 21
168.6894557170402
 31
0.0
  0
LINE
  5
83A
  8
2
 10
285.4283742436059
 20
168.1225129988801
 30
0.0
 11
286.68649451537908
 21
168.87684435301651
 31
0.0
  0
LINE
  5
83B
  8
2
 10
285.4283742436059
 20
168.1225129988801
 30
0.0
 11
286.68649451537891
 21
168.87684435301651
 31
0.0
  0
LINE
  5
83C
  8
2
 10
282.52837424360609
 20
167.32043005012551
 30
0.0
 11
282.52837424360609
 21
167.82043005012551
 31
0.0
1001
ACAD
1000
ASC_BOUNDS
1002
{
1070
    19
1002
}
  0
LINE
  5
83D
  8
0
 10
286.07017510909691
 20
162.1761349307713
 30
0.0
 11
283.98365652965953
 21
159.2326014267644
 31
0.0
  0
LINE
  5
83E
  8
0
 10
284.41191672295099
 20
158.97454482016749
 30
0.0
 11
286.49843530718567
 21
161.91807833213579
 31
0.0
  0
LINE
  5
83F
  8
0
 10
285.96613399425502
 20
162.02936005402231
 30
0.0
 11
283.31677291247502
 21
161.0739563261379
 31
0.0
  0
LINE
  5
840
  8
0
 10
281.08669917716003
 20
161.07404686512811
 30
0.0
 11
285.28896204849548
 21
161.0740470604261
 31
0.0
  0
LINE
  5
841
  8
0
 10
284.41017139588189
 20
159.83430265821059
 30
0.0
 11
282.94440743599012
 21
161.0740469514642
 31
0.0
  0
LINE
  5
842
  8
0
 10
282.29646831289227
 20
161.07404692135151
 30
0.0
 11
284.13877633319947
 21
159.4514350107807
 31
0.0
  0
LINE
  5
843
  8
0
 10
283.98365652965953
 20
159.2326014267644
 30
0.0
 11
284.41191672295099
 21
158.97454482016749
 31
0.0
  0
LINE
  5
844
  8
0
 10
279.92837424360619
 20
167.32043005012551
 30
0.0
 11
279.92837424360619
 21
165.82043005012551
 31
0.0
1001
ACAD
1000
ASC_BOUNDS
1002
{
1070
    19
1002
}
  0
LINE
  5
845
  8
0
 10
281.08669922873491
 20
160.29919954725489
 30
0.0
 11
281.08669919992627
 21
161.07404686512811
 31
0.0
  0
LINE
  5
846
  8
0
 10
281.08669919992627
 20
160.29919954725489
 30
0.0
 11
283.1762272421995
 21
160.29919966378651
 31
0.0
  0
LINE
  5
847
  8
0
 10
282.52837424360609
 20
167.32043005012551
 30
0.0
 11
279.92837424360619
 21
167.32043005012551
 31
0.0
1001
ACAD
1000
ASC_BOUNDS
1002
{
1070
    19
1002
}
  0
LINE
  5
848
  8
0
 10
286.37395621198101
 20
159.06158849320519
 30
0.0
 11
286.37395621198101
 21
159.09715588393451
 31
0.0
  0
LINE
  5
849
  8
0
 10
286.49843530718567
 20
161.91807833213579
 30
0.0
 11
286.07017510909691
 21
162.1761349307713
 31
0.0
  0
LINE
  5
84A
  8
0
 10
285.90014523585802
 20
161.0740470888305
 30
0.0
 11
286.7323920217213
 21
161.07404712750881
 31
0.0
  0
LINE
  5
84B
  8
0
 10
285.42837424360619
 20
159.06158850199441
 30
0.0
 11
285.42837424360619
 21
160.28273044065841
 31
0.0
  0
LINE
  5
84C
  8
0
 10
286.65318867147312
 20
159.6283116644413
 30
0.0
 11
286.99700644024949
 21
159.26528363902159
 31
0.0
  0
LINE
  5
84D
  8
0
 10
285.42837424360619
 20
161.83583310996659
 30
0.0
 11
285.42837424360619
 21
165.82043005012551
 31
0.0
  0
LINE
  5
84E
  8
2
 10
285.4283742436059
 20
187.52043005012541
 30
0.0
 11
285.4283742436059
 21
169.93216102632039
 31
0.0
  0
LINE
  5
84F
  8
2
 10
283.0579037760607
 20
190.5772534399583
 30
0.0
 11
283.0579037760607
 21
187.52043005012541
 31
0.0
  0
LINE
  5
850
  8
2
 10
282.67837424360619
 20
187.52043005012541
 30
0.0
 11
282.67837424360619
 21
190.38570502564841
 31
0.0
1001
ACAD
1000
ASC_BOUNDS
1002
{
1070
    19
1002
}
  0
LINE
  5
851
  8
2
 10
306.92837424360619
 20
169.8204300501252
 30
0.0
 11
306.92837424360619
 21
168.63807693864831
 31
0.0
  0
LINE
  5
852
  8
2
 10
296.17025397183312
 20
168.87684435301651
 30
0.0
 11
296.17025397183312
 21
169.9321610263205
 31
0.0
  0
LINE
  5
853
  8
0
 10
307.36748941307428
 20
174.91492193408601
 30
0.0
 11
307.98817702639639
 21
167.82043005012551
 31
0.0
210
0.0
220
1.0
230
0.0
1001
ACAD
1000
ASC_BOUNDS
1002
{
1070
    19
1005
0
1002
}
  0
LINE
  5
854
  8
0
 10
310.35607350734949
 20
175.1763891623286
 30
0.0
 11
310.99963653902648
 21
167.82043005012551
 31
0.0
210
0.0
220
1.0
230
0.0
1001
ACAD
1000
ASC_BOUNDS
1002
{
1070
    19
1005
0
1002
}
  0
LINE
  5
855
  8
0
 10
302.92837424360619
 20
165.82043005012551
 30
0.0
 11
291.42837424360607
 21
165.82043005012551
 31
0.0
1001
ACAD
1000
ASC_BOUNDS
1002
{
1070
    19
1002
}
  0
ARC
  5
856
  8
0
 10
299.65561548252799
 20
154.59507484691341
 30
0.0
 40
4.4665135228401711
 50
52.121118910603009
 51
127.8788778940463
  0
ARC
  5
857
  8
0
 10
299.65561545277569
 20
153.5281018925939
 30
0.0
 40
4.4665135228401711
 50
232.12111891060451
 51
307.87887789404789
  0
LINE
  5
858
  8
0
 10
300.32837424360611
 20
167.32043005012551
 30
0.0
 11
302.92837424360619
 21
167.32043005012551
 31
0.0
1001
ACAD
1000
ASC_BOUNDS
1002
{
1070
    19
1002
}
  0
LINE
  5
859
  8
0
 10
297.42837424360619
 20
147.82405056462079
 30
0.0
 11
297.42837424360619
 21
149.0615893176892
 31
0.0
  0
LINE
  5
85A
  8
0
 10
296.91320180708931
 20
158.12054081363061
 30
0.0
 11
296.91320150526911
 21
150.00263607881931
 31
0.0
  0
LINE
  5
85B
  8
0
 10
295.50020922145978
 20
161.97874170421571
 30
0.0
 11
292.89610724917043
 21
159.48142270387399
 31
0.0
  0
LINE
  5
85C
  8
0
 10
293.45718182793559
 20
161.07404744003981
 30
0.0
 11
294.55683114911398
 21
161.07404749114551
 31
0.0
  0
LINE
  5
85D
  8
0
 10
293.26802877708519
 20
159.14724553164359
 30
0.0
 11
295.87213075558702
 21
161.6445645388992
 31
0.0
  0
LINE
  5
85E
  8
0
 10
292.51578109828102
 20
161.3134186338379
 30
0.0
 11
293.70982045131558
 21
160.26176904290739
 31
0.0
  0
LINE
  5
85F
  8
0
 10
292.89610724917043
 20
159.48142270387399
 30
0.0
 11
293.25827245904401
 21
159.13669619470519
 31
0.0
  0
LINE
  5
860
  8
0
 10
294.00534080968868
 20
160.6119338639719
 30
0.0
 11
292.86732774967999
 21
161.57446619209509
 31
0.0
  0
LINE
  5
861
  8
0
 10
291.42985444416308
 20
160.29920012408621
 30
0.0
 11
293.66732118793539
 21
160.2992002488682
 31
0.0
  0
LINE
  5
862
  8
0
 10
292.49898273487122
 20
161.93966160670601
 30
0.0
 11
292.8611479447448
 21
161.59493509753719
 31
0.0
  0
LINE
  5
863
  8
0
 10
287.41136042307409
 20
161.0740471590635
 30
0.0
 11
288.42682961073251
 21
161.07404720625681
 31
0.0
  0
LINE
  5
864
  8
0
 10
289.21601336322982
 20
161.0740472429338
 30
0.0
 11
289.66327064783331
 21
161.07404726371979
 31
0.0
  0
LINE
  5
865
  8
0
 10
289.79366279760978
 20
161.54490258903769
 30
0.0
 11
289.4498450220849
 21
161.9079306080659
 31
0.0
  0
LINE
  5
866
  8
0
 10
288.26542396124159
 20
160.29919994760789
 30
0.0
 11
290.68689772872278
 21
160.29920008265211
 31
0.0
  0
LINE
  5
867
  8
0
 10
289.44829595114601
 20
161.26338612533851
 30
0.0
 11
290.59606904488692
 21
160.2524855202237
 31
0.0
  0
LINE
  5
868
  8
0
 10
290.93785566255377
 20
160.56190135547249
 30
0.0
 11
289.7998426025452
 21
161.52443368359559
 31
0.0
  0
LINE
  5
869
  8
0
 10
289.82419452099089
 20
159.51820392951331
 30
0.0
 11
290.1863597308643
 21
159.17347742034451
 31
0.0
  0
LINE
  5
86A
  8
0
 10
292.8611479447448
 20
161.59493509753719
 30
0.0
 11
290.1863597308643
 21
159.17347742034451
 31
0.0
  0
LINE
  5
86B
  8
0
 10
292.49898273487122
 20
161.93966160670601
 30
0.0
 11
289.82419452099089
 21
159.51820392951331
 31
0.0
  0
LINE
  5
86C
  8
3
 10
296.48279227523108
 20
159.06158839924461
 30
0.0
 11
296.48279227523108
 21
160.25901894952389
 31
0.0
  0
LINE
  5
86D
  8
3
 10
296.48279227523108
 20
161.0770653936633
 30
0.0
 11
296.48279227523108
 21
165.8204300501254
 31
0.0
  0
LINE
  5
86E
  8
2
 10
297.42837424360619
 20
168.1225129988801
 30
0.0
 11
296.17025397183312
 21
168.87684435301651
 31
0.0
  0
LINE
  5
86F
  8
2
 10
296.48279227523108
 20
167.82043005012551
 30
0.0
 11
296.48279227523108
 21
168.6894557170402
 31
0.0
  0
LINE
  5
870
  8
2
 10
297.42837424360619
 20
167.82043005012551
 30
0.0
 11
297.42837424360619
 21
168.1225129988801
 31
0.0
  0
LINE
  5
871
  8
0
 10
297.58455448440031
 20
160.29920046733
 30
0.0
 11
301.58669926707881
 21
160.29920069052719
 31
0.0
  0
LINE
  5
872
  8
0
 10
299.01229660509762
 20
161.0740476982109
 30
0.0
 11
301.58669917716003
 21
161.07404781785499
 31
0.0
  0
LINE
  5
873
  8
0
 10
300.32837424360611
 20
167.32043005012551
 30
0.0
 11
300.32837424360611
 21
167.82043005012551
 31
0.0
1001
ACAD
1000
ASC_BOUNDS
1002
{
1070
    19
1002
}
  0
LINE
  5
874
  8
0
 10
296.87896275200728
 20
158.8492674938899
 30
0.0
 11
298.45775247655121
 21
162.09355051855209
 31
0.0
  0
LINE
  5
875
  8
0
 10
296.87896275200728
 20
158.8492674938899
 30
0.0
 11
299.28953895491009
 21
160.29920056241599
 31
0.0
  0
LINE
  5
876
  8
0
 10
297.42837424360619
 20
159.06158839045551
 30
0.0
 11
297.42837424360619
 21
159.0853001383673
 31
0.0
  0
LINE
  5
877
  8
0
 10
299.73651060165753
 20
160.29920058734331
 30
0.0
 11
298.32957183236641
 21
161.8045048837686
 31
0.0
  0
LINE
  5
878
  8
0
 10
298.11743586037841
 20
161.3942278641822
 30
0.0
 11
299.10057152122607
 21
160.29920055187731
 31
0.0
  0
LINE
  5
879
  8
0
 10
298.45775247655121
 20
162.09355051855209
 30
0.0
 11
297.99315498364967
 21
162.27834547236839
 31
0.0
  0
LINE
  5
87A
  8
0
 10
296.48279227523108
 20
159.06158839924461
 30
0.0
 11
296.48279227523108
 21
159.13272312063631
 31
0.0
  0
LINE
  5
87B
  8
0
 10
295.2772189796691
 20
161.07404752462509
 30
0.0
 11
295.76637414588231
 21
161.07404754735839
 31
0.0
  0
LINE
  5
87C
  8
0
 10
295.87213075558702
 20
161.6445645388992
 30
0.0
 11
295.50020922145978
 21
161.97874170421571
 31
0.0
  0
LINE
  5
87D
  8
0
 10
297.99315498364967
 20
162.27834547236839
 30
0.0
 11
296.41436526254103
 21
159.03406245634301
 31
0.0
  0
LINE
  5
87E
  8
0
 10
296.41436526254103
 20
159.03406245634301
 30
0.0
 11
296.87896275200728
 21
158.8492674938899
 31
0.0
  0
LINE
  5
87F
  8
0
 10
296.43336339225249
 20
161.07404757835641
 30
0.0
 11
297.40709850972888
 21
161.0740476236102
 31
0.0
  0
LINE
  5
880
  8
0
 10
295.50893440036458
 20
161.3007874804895
 30
0.0
 11
296.914853597525
 21
160.06252481785819
 31
0.0
  0
LINE
  5
881
  8
0
 10
297.12317369725997
 20
160.49060548777331
 30
0.0
 11
295.81903555284998
 21
161.59364654103121
 31
0.0
  0
LINE
  5
882
  8
0
 10
294.46924002243122
 20
160.2992002935909
 30
0.0
 11
296.64613293303609
 21
160.2992004149948
 31
0.0
  0
LINE
  5
883
  8
0
 10
297.42837424360619
 20
161.1719113582013
 30
0.0
 11
297.42837424360619
 21
165.82043005012551
 31
0.0
  0
LINE
  5
884
  8
0
 10
301.5866992468334
 20
160.29920069052719
 30
0.0
 11
301.58669917716003
 21
161.07404781785499
 31
0.0
  0
LINE
  5
885
  8
0
 10
302.39802935457959
 20
158.12054066068799
 30
0.0
 11
302.39802905275928
 21
150.00263592587649
 31
0.0
  0
LINE
  5
886
  8
0
 10
302.92837424360619
 20
167.32043005012551
 30
0.0
 11
302.92837424360619
 21
165.82043005012551
 31
0.0
1001
ACAD
1000
ASC_BOUNDS
1002
{
1070
    19
1002
}
  0
LINE
  5
887
  8
2
 10
297.42837424360619
 20
187.52043005012541
 30
0.0
 11
297.42837424360619
 21
169.93216102632039
 31
0.0
  0
LINE
  5
888
  8
2
 10
297.42837424360619
 20
169.93216102632039
 30
0.0
 11
291.42837424360607
 21
169.9321610263205
 31
0.0
  0
CIRCLE
  5
889
  8
2
 10
291.42837424360619
 20
175.57043005012551
 30
0.0
 40
2.5499999999999989
  0
LINE
  5
88A
  8
2
 10
292.42837424360607
 20
190.70445763675741
 30
0.0
 11
290.42837424360602
 21
190.70445763675741
 31
0.0
  0
LINE
  5
88B
  8
2
 10
299.79884471115162
 20
190.5772534399583
 30
0.0
 11
299.79884471115162
 21
187.52043005012541
 31
0.0
  0
LINE
  5
88C
  8
2
 10
300.17837424360619
 20
187.52043005012541
 30
0.0
 11
300.17837424360619
 21
190.38570502564841
 31
0.0
1001
ACAD
1000
ASC_BOUNDS
1002
{
1070
    19
1002
}
  0
LINE
  5
88D
  8
0
 10
283.29554768181288
 20
192.49581423020939
 30
0.0
 11
290.42837424360602
 21
192.4958142302095
 31
0.0
  0
LINE
  5
88E
  8
0
 10
283.0579037760607
 20
192.25817032445701
 30
0.0
 11
283.29554768181288
 21
192.49581423020939
 31
0.0
  0
LINE
  5
88F
  8
0
 10
299.56120080539938
 20
192.49581423020939
 30
0.0
 11
292.42837424360619
 21
192.4958142302095
 31
0.0
  0
LINE
  5
890
  8
0
 10
299.79884471115162
 20
192.25817032445701
 30
0.0
 11
299.56120080539921
 21
192.49581423020939
 31
0.0
  0
LINE
  5
891
  8
1
 10
266.85711194818612
 20
273.52043539037658
 30
0.0
 11
315.99963653902699
 21
273.52043539037658
 31
0.0
  0
LINE
  5
892
  8
0
 10
273.8642407707888
 20
252.52043005372801
 30
0.0
 11
308.99250771642397
 21
252.52043004652299
 31
0.0
  0
LINE
  5
893
  8
0
 10
282.98740273553938
 20
274.52043539037658
 30
0.0
 11
299.86934575167339
 21
274.52043539037658
 31
0.0
  0
LINE
  5
894
  8
0
 10
282.98740273553938
 20
272.52043539037658
 30
0.0
 11
299.86934575167339
 21
272.52043539037658
 31
0.0
  0
ARC
  5
895
  8
0
 10
291.2101634448494
 20
193.70697517168441
 30
0.0
 40
67.426974395862246
 50
92.795420019654699
 51
93.873654416453334
  0
ARC
  5
896
  8
0
 10
291.1200709081553
 20
201.7748253814955
 30
0.0
 40
56.837911963291731
 50
93.866858680109416
 51
95.336844450739918
  0
LINE
  5
897
  8
0
 10
271.85711194818612
 20
254.5904555500604
 30
0.0
 11
272.4557200853709
 21
256.42379669938629
 31
0.0
  0
ARC
  5
898
  8
0
 10
280.54240449945121
 20
248.11346420704299
 30
0.0
 40
9.0719399118958837
 50
114.7654746386346
 51
121.5542364148518
  0
LINE
  5
899
  8
0
 10
273.8642407707888
 20
252.52043005012541
 30
0.0
 11
271.85711194818612
 21
254.5904555500604
 31
0.0
  0
ARC
  5
89A
  8
0
 10
278.2171037805162
 20
251.89995990130069
 30
0.0
 40
4.6284533218281911
 50
121.5542364148515
 51
130.3910099942467
  0
ARC
  5
89B
  8
0
 10
277.30658160398718
 20
252.9701600104423
 30
0.0
 40
3.2233273817225161
 50
130.3910099942477
 51
142.0548957344478
  0
ARC
  5
89C
  8
0
 10
276.11291094849298
 20
253.90091734004241
 30
0.0
 40
1.709669943464869
 50
142.05489573444731
 51
156.90503574888069
  0
LINE
  5
89D
  8
0
 10
274.49357147706598
 20
254.44786439102529
 30
0.0
 11
274.54026083326579
 21
254.57154609774921
 31
0.0
  0
LINE
  5
89E
  8
0
 10
273.8642407707888
 20
252.52043005012541
 30
0.0
 11
274.49357147706598
 21
254.44786439102529
 31
0.0
  0
LINE
  5
89F
  8
0
 10
272.4557200853709
 20
256.42379669938629
 30
0.0
 11
272.50067497984998
 21
256.56130311673388
 31
0.0
  0
ARC
  5
8A0
  8
0
 10
288.20229849607767
 20
218.51326535199439
 30
0.0
 40
42.426929131483412
 50
99.417072543662556
 51
101.7335699985255
  0
ARC
  5
8A1
  8
0
 10
285.98719492396788
 20
232.86004460408341
 30
0.0
 40
25.29216546729749
 50
104.079222266112
 51
106.31192312910871
  0
ARC
  5
8A2
  8
0
 10
282.85212067719169
 20
240.2929766902771
 30
0.0
 40
19.983753241866498
 50
106.6667589538598
 51
109.2926999596564
  0
ARC
  5
8A3
  8
0
 10
281.84569584445211
 20
243.1680491316836
 30
0.0
 40
16.93761921866756
 50
109.2926999596562
 51
112.2751192107599
  0
ARC
  5
8A4
  8
0
 10
278.69145793178279
 20
250.41384009675741
 30
0.0
 40
9.0317815443089202
 50
115.6928681884618
 51
123.094403742214
  0
ARC
  5
8A5
  8
0
 10
274.11410351166802
 20
256.03321275429448
 30
0.0
 40
1.6976545756381269
 50
145.80648576782431
 51
161.87624064850931
  0
ARC
  5
8A6
  8
0
 10
275.25647893405892
 20
255.25704424363329
 30
0.0
 40
3.078762523129829
 50
132.87212293984749
 51
145.80648576782269
  0
ARC
  5
8A7
  8
0
 10
276.19090336041762
 20
254.25050214874071
 30
0.0
 40
4.452180157124153
 50
123.09440374221479
 51
132.8721229398476
  0
ARC
  5
8A8
  8
0
 10
279.94450577579738
 20
247.80936940629769
 30
0.0
 40
11.92200583955889
 50
112.275119210759
 51
115.6928681884627
  0
ARC
  5
8A9
  8
0
 10
286.0001385494507
 20
229.11580613973049
 30
0.0
 40
31.59810742336883
 50
101.7335699985255
 51
104.3253887153371
  0
ARC
  5
8AA
  8
0
 10
284.85001061510559
 20
233.61959867810239
 30
0.0
 40
26.94978068205037
 50
104.3253887153366
 51
106.6667589538595
  0
ARC
  5
8AB
  8
0
 10
284.25984999785538
 20
238.76254366989801
 30
0.0
 40
19.14210727930379
 50
106.3119231291093
 51
108.79423172157681
  0
ARC
  5
8AC
  8
0
 10
281.67552594711071
 20
245.65727878791611
 30
0.0
 40
11.77690036045651
 50
111.5889514317428
 51
114.7654746386356
  0
ARC
  5
8AD
  8
0
 10
283.37537352195312
 20
241.36153389789899
 30
0.0
 40
16.396738662584099
 50
108.7942317215734
 51
111.5889514317432
  0
ARC
  5
8AE
  8
0
 10
290.35093944756977
 20
203.58010464060541
 30
0.0
 40
57.51589592806139
 50
95.354238752049227
 51
96.902897268674906
  0
ARC
  5
8AF
  8
0
 10
290.57035798302661
 20
207.6594057018284
 30
0.0
 40
50.927711472064388
 50
95.33684445074023
 51
96.867214548447237
  0
ARC
  5
8B0
  8
0
 10
289.87644386368999
 20
207.49946311833639
 30
0.0
 40
53.567919619104771
 50
96.902897268674579
 51
98.128200212134175
  0
ARC
  5
8B1
  8
0
 10
288.93046345117631
 20
214.1228966341414
 30
0.0
 40
46.877273127236457
 50
98.128200212133763
 51
99.41707254366122
  0
ARC
  5
8B2
  8
0
 10
289.41304640708159
 20
216.30073768301651
 30
0.0
 40
42.208777614199022
 50
98.071877946274839
 51
99.333187704978613
  0
ARC
  5
8B3
  8
0
 10
290.18629766817389
 20
210.8484081662134
 30
0.0
 40
47.715665544108447
 50
96.867214548446924
 51
98.071877946274654
  0
ARC
  5
8B4
  8
0
 10
286.96866417713898
 20
228.94664591352841
 30
0.0
 40
29.326762250887882
 50
101.584215271326
 51
104.0792222661137
  0
ARC
  5
8B5
  8
0
 10
288.81514098181208
 20
219.9387140047744
 30
0.0
 40
38.521995465056222
 50
99.333187704977874
 51
101.5842152713257
  0
ARC
  5
8B6
  8
0
 10
291.03807650547191
 20
196.2484585035825
 30
0.0
 40
64.879671618212981
 50
93.873654416454414
 51
95.354238752048914
  0
ARC
  5
8B7
  8
0
 10
302.19046460329122
 20
247.83953031760959
 30
0.0
 40
9.3733630184776437
 50
61.575360666952783
 51
66.873589261276663
  0
LINE
  5
8B8
  8
0
 10
310.99963653902688
 20
254.5904555500604
 30
0.0
 11
310.40102840184198
 21
256.42379669938629
 31
0.0
  0
LINE
  5
8B9
  8
0
 10
308.99250771642397
 20
252.52043005012541
 30
0.0
 11
310.99963653902688
 21
254.5904555500604
 31
0.0
  0
ARC
  5
8BA
  8
0
 10
305.80924796242368
 20
253.21342162333789
 30
0.0
 40
2.8691629644619701
 50
36.029759536013017
 51
46.585024186336447
  0
ARC
  5
8BB
  8
0
 10
305.10835849056213
 20
252.47263973549471
 30
0.0
 40
3.888968758288847
 50
46.585024186335659
 51
54.940951668629602
  0
ARC
  5
8BC
  8
0
 10
303.3147372291495
 20
249.91669351554791
 30
0.0
 40
7.0114578789507238
 50
54.940951668630568
 51
61.575360666953983
  0
ARC
  5
8BD
  8
0
 10
306.76954238958672
 20
253.9118787179344
 30
0.0
 40
1.681725513548229
 50
23.094964251100329
 51
36.029759536014787
  0
LINE
  5
8BE
  8
0
 10
308.36317701014701
 20
254.44786439102529
 30
0.0
 11
308.31648765403799
 21
254.5715460975095
 31
0.0
  0
LINE
  5
8BF
  8
0
 10
308.99250771642397
 20
252.52043005012541
 30
0.0
 11
308.36317701014701
 21
254.44786439102529
 31
0.0
  0
ARC
  5
8C0
  8
0
 10
294.6179495973833
 20
223.0607294045744
 30
0.0
 40
35.34788566615692
 50
77.943281013228926
 51
80.667337455479057
  0
ARC
  5
8C1
  8
0
 10
295.3465202469153
 20
222.21750088310151
 30
0.0
 40
38.659421951304623
 50
77.778159840399184
 51
80.583373208692976
  0
ARC
  5
8C2
  8
0
 10
291.46003642879788
 20
189.86280793270441
 30
0.0
 40
71.275691741531972
 50
87.559356364896374
 51
88.958713884781218
  0
ARC
  5
8C3
  8
0
 10
291.52088116103198
 20
198.3106106163294
 30
0.0
 40
60.308870666890357
 50
86.493022667134184
 51
87.560999275955467
  0
ARC
  5
8C4
  8
0
 10
291.45326092042171
 20
196.7230695157065
 30
0.0
 40
61.89785123414341
 50
87.560999275955211
 51
88.958875547551116
  0
ARC
  5
8C5
  8
0
 10
291.42837356333769
 20
195.9797876033974
 30
0.0
 40
65.157077769292727
 50
88.904238608441801
 51
90.000126686669745
  0
ARC
  5
8C6
  8
0
 10
291.3902362354591
 20
190.0190774555744
 30
0.0
 40
71.119265794764488
 50
91.740090693018544
 51
92.795420019654927
  0
ARC
  5
8C7
  8
0
 10
291.41277313499711
 20
189.27723554802441
 30
0.0
 40
71.861449954955333
 50
91.041966588148597
 51
91.740090693020775
  0
ARC
  5
8C8
  8
0
 10
291.42739829526431
 20
188.06712335835641
 30
0.0
 40
73.071672904660346
 50
88.958713884780863
 51
90.344993858729012
  0
ARC
  5
8C9
  8
0
 10
291.4237438023705
 20
188.67404572367241
 30
0.0
 40
72.46473953695093
 50
90.0
 51
91.041966588147801
  0
ARC
  5
8CA
  8
0
 10
291.4283735630238
 20
195.97992989679139
 30
0.0
 40
65.156935475898763
 50
90.0
 51
91.096015639952597
  0
ARC
  5
8CB
  8
0
 10
291.25589343174249
 20
199.76538073287941
 30
0.0
 40
58.851941643749612
 50
92.792825730132165
 51
93.866858680109004
  0
ARC
  5
8CC
  8
0
 10
291.39865288380747
 20
196.8389414426174
 30
0.0
 40
61.781860956758599
 50
91.739354906404671
 51
92.792825730131668
  0
ARC
  5
8CD
  8
0
 10
291.41619369394209
 20
196.26131025594341
 30
0.0
 40
62.359758411190242
 50
91.041773525434408
 51
91.739354906404287
  0
ARC
  5
8CE
  8
0
 10
291.42756774593897
 20
195.3092630978814
 30
0.0
 40
63.31189109436594
 50
88.958875547550775
 51
90.345092539976605
  0
ARC
  5
8CF
  8
0
 10
291.42462669359082
 20
195.7975606694595
 30
0.0
 40
62.823584665780423
 50
90.0
 51
91.041773525433953
  0
ARC
  5
8D0
  8
0
 10
293.16678403623757
 20
209.0744529063264
 30
0.0
 40
51.981995278854697
 50
80.583373208693018
 51
83.092134937640324
  0
ARC
  5
8D1
  8
0
 10
292.61666872368841
 20
204.53377114717449
 30
0.0
 40
56.555879590355943
 50
83.092134937639798
 51
84.268140462639764
  0
ARC
  5
8D2
  8
0
 10
291.98786138734067
 20
198.26918336724441
 30
0.0
 40
62.851946514928237
 50
84.268140462640233
 51
85.395174461511274
  0
ARC
  5
8D3
  8
0
 10
292.8200389968805
 20
212.12065332320739
 30
0.0
 40
46.43471330951359
 50
80.667337455479242
 51
83.128013129451475
  0
ARC
  5
8D4
  8
0
 10
291.87128444993078
 20
203.38514251841841
 30
0.0
 40
55.222034336002281
 50
84.289249836191473
 51
85.406445649686688
  0
ARC
  5
8D5
  8
0
 10
292.3783801366618
 20
208.45595902384139
 30
0.0
 40
50.125925421627421
 50
83.128013129452412
 51
84.289249836192283
  0
ARC
  5
8D6
  8
0
 10
291.5457201222024
 20
191.87307449279439
 30
0.0
 40
69.263599959845166
 50
86.487887208965788
 51
87.559356364895393
  0
ARC
  5
8D7
  8
0
 10
291.70515133446878
 20
201.3173922478515
 30
0.0
 40
57.296447841907778
 50
85.40644564968737
 51
86.493022667134781
  0
ARC
  5
8D8
  8
0
 10
291.77952426288022
 20
195.6825216520474
 30
0.0
 40
65.446984700831138
 50
85.395174461510877
 51
86.487887208966015
  0
ARC
  5
8D9
  8
0
 10
305.2503897714617
 20
252.26805315908021
 30
0.0
 40
6.8854871719164681
 50
53.04581573608376
 51
60.331209068203137
  0
ARC
  5
8DA
  8
0
 10
296.7846155553155
 20
228.85670176320139
 30
0.0
 40
31.866255793881159
 50
74.532441021081254
 51
77.778159840398956
  0
ARC
  5
8DB
  8
0
 10
299.72729476027291
 20
239.49103804188681
 30
0.0
 40
20.83228692536203
 50
70.716092746849398
 51
74.532441021080871
  0
ARC
  5
8DC
  8
0
 10
304.02948737798181
 20
250.12487171833931
 30
0.0
 40
9.3520291525730208
 50
60.331209068204579
 51
66.073870535246542
  0
ARC
  5
8DD
  8
0
 10
298.35453142236082
 20
238.0421437633199
 30
0.0
 40
19.902180355578022
 50
71.21338879397851
 51
74.829570547568977
  0
ARC
  5
8DE
  8
0
 10
295.82595940108388
 20
228.71643271056141
 30
0.0
 40
29.56461085242125
 50
74.829570547568622
 51
77.943281013228159
  0
ARC
  5
8DF
  8
0
 10
299.7178961433076
 20
242.05007105401211
 30
0.0
 40
15.668713156012521
 50
66.873589261277488
 51
71.21338879397841
  0
ARC
  5
8E0
  8
0
 10
301.27845842105461
 20
243.92445761380279
 30
0.0
 40
16.135339214009608
 50
66.073870535246513
 51
70.71609274684937
  0
ARC
  5
8E1
  8
0
 10
307.15188739603309
 20
254.79562838257701
 30
0.0
 40
3.722524995935637
 50
43.769475807081207
 51
53.045815736084947
  0
LINE
  5
8E2
  8
0
 10
310.40102840184198
 20
256.42379669938629
 30
0.0
 11
310.35607350738491
 21
256.56130311666709
 31
0.0
  0
ARC
  5
8E3
  8
0
 10
307.86018742458299
 20
255.4741397015332
 30
0.0
 40
2.7416750887654699
 50
32.079218479510857
 51
43.769475807081328
  0
ARC
  5
8E4
  8
0
 10
308.76252715290531
 20
256.03972037827992
 30
0.0
 40
1.676734486094166
 50
18.123759352231861
 51
32.079218479510963
  0
LINE
  5
8E5
  8
0
 10
271.85711194818612
 20
367.5204300485176
 30
0.0
 11
271.85711194818612
 21
347.5204300485176
 31
0.0
  0
LINE
  5
8E6
  8
0
 10
281.4283742436063
 20
290.52043004851771
 30
0.0
 11
281.4283742436063
 21
383.52043004851771
 31
0.0
  0
LINE
  5
8E7
  8
0
 10
279.53886338314561
 20
388.5204300485176
 30
0.0
 11
279.53886338314572
 21
337.0204300485176
 31
0.0
  0
LINE
  5
8E8
  8
0
 10
278.26364864828918
 20
388.5204300485176
 30
0.0
 11
278.26364864828918
 21
337.0204300485176
 31
0.0
  0
LINE
  5
8E9
  8
0
 10
310.99963653902688
 20
367.5204300485176
 30
0.0
 11
310.99963653902688
 21
347.5204300485176
 31
0.0
  0
LINE
  5
8EA
  8
0
 10
303.31788510406739
 20
388.5204300485176
 30
0.0
 11
303.31788510406727
 21
347.8486087326678
 31
0.0
  0
LINE
  5
8EB
  8
0
 10
301.4283742436063
 20
383.5204300485176
 30
0.0
 11
301.4283742436063
 21
290.52043004851771
 31
0.0
  0
LINE
  5
8EC
  8
0
 10
304.59309983892359
 20
388.5204300485176
 30
0.0
 11
304.59309983892359
 21
337.0204300485176
 31
0.0
  0
LINE
  5
8ED
  8
0
 10
271.85711194818612
 20
306.5204300485176
 30
0.0
 11
271.85711194818612
 21
326.5204300485176
 31
0.0
  0
LINE
  5
8EE
  8
0
 10
278.26364864828918
 20
285.5204300485176
 30
0.0
 11
278.26364864828918
 21
337.0204300485176
 31
0.0
  0
LINE
  5
8EF
  8
0
 10
279.53886338314561
 20
285.5204300485176
 30
0.0
 11
279.53886338314572
 21
337.0204300485176
 31
0.0
  0
LINE
  5
8F0
  8
0
 10
310.99963653902688
 20
306.5204300485176
 30
0.0
 11
310.99963653902688
 21
326.5204300485176
 31
0.0
  0
LINE
  5
8F1
  8
0
 10
303.31788510406739
 20
285.5204300485176
 30
0.0
 11
303.31788510406727
 21
326.19225136436739
 31
0.0
  0
LINE
  5
8F2
  8
0
 10
304.59309983892359
 20
285.5204300485176
 30
0.0
 11
304.59309983892359
 21
337.0204300485176
 31
0.0
  0
LINE
  5
8F3
  8
0
 10
301.4283742436063
 20
297.01577094720972
 30
0.0
 11
281.4283742436063
 21
297.01577094720972
 31
0.0
  0
LINE
  5
8F4
  8
0
 10
299.9283742436063
 20
289.0204300485176
 30
0.0
 11
282.9283742436063
 21
289.0204300485176
 31
0.0
  0
LINE
  5
8F5
  8
0
 10
278.26364864828918
 20
285.52043005121772
 30
0.0
 11
304.59309983892359
 21
285.52043004581748
 31
0.0
  0
LINE
  5
8F6
  8
0
 10
291.4283742436063
 20
295.01577094720972
 30
0.0
 11
281.4283742436063
 21
295.01577094720972
 31
0.0
  0
LINE
  5
8F7
  8
0
 10
272.9213485506433
 20
287.5903211476151
 30
0.0
 11
272.9213485506433
 21
304.45053894942009
 31
0.0
  0
LINE
  5
8F8
  8
0
 10
271.85711194818612
 20
285.5204300485176
 30
0.0
 11
272.50067497986299
 21
285.58462453116402
 31
0.0
  0
ARC
  5
8F9
  8
0
 10
282.9283742436063
 20
290.52043004851771
 30
0.0
 40
1.5
 50
180.0
 51
270.0
  0
ARC
  5
8FA
  8
0
 10
268.83952811239982
 20
286.95995983083043
 30
0.0
 40
4.0323591330632436
 50
346.76750157347959
 51
348.86605743995619
  0
ARC
  5
8FB
  8
0
 10
272.67419693039648
 20
283.84503090965961
 30
0.0
 40
1.7482264828378791
 50
94.750356045285898
 51
95.696328702699077
  0
ARC
  5
8FC
  8
0
 10
272.81160849290171
 20
282.1914591687754
 30
0.0
 40
3.4074978409227819
 50
94.062003289638525
 51
94.750356045280014
  0
ARC
  5
8FD
  8
0
 10
272.56750654082049
 20
285.62882019176851
 30
0.0
 40
0.0385196525618305
 50
274.0620049798078
 51
311.9775674129084
  0
ARC
  5
8FE
  8
0
 10
272.45754224879357
 20
285.75104411077922
 30
0.0
 40
0.2029302115272669
 50
311.97756741294472
 51
328.22416352123162
  0
ARC
  5
8FF
  8
0
 10
272.25433515976812
 20
285.87691923035811
 30
0.0
 40
0.4419650766813012
 50
328.22416352125748
 51
336.17284642749411
  0
ARC
  5
900
  8
0
 10
271.50915488196102
 20
286.20600483534128
 30
0.0
 40
1.256576015620763
 50
336.172846427487
 51
340.93416240698582
  0
ARC
  5
901
  8
0
 10
270.94907259913123
 20
286.39957680111502
 30
0.0
 40
1.84916547677683
 50
340.93416240699122
 51
344.2320534101579
  0
ARC
  5
902
  8
0
 10
269.58672655115862
 20
286.78425883014972
 30
0.0
 40
3.2647808969701608
 50
344.23205341015722
 51
346.76750157348158
  0
ARC
  5
903
  8
0
 10
267.42194082118169
 20
287.23895161840039
 30
0.0
 40
5.477139443613801
 50
348.86605743995739
 51
350.71926785533162
  0
ARC
  5
904
  8
0
 10
266.78058342847828
 20
287.34375646722611
 30
0.0
 40
6.1270035536496703
 50
350.71926785533361
 51
352.41119583572271
  0
ARC
  5
905
  8
0
 10
265.73947362012427
 20
287.48246312055289
 30
0.0
 40
7.1773126361239479
 50
352.41119583572271
 51
354.01866825078969
  0
ARC
  5
906
  8
0
 10
264.68155317550497
 20
287.57678832677658
 30
0.0
 40
8.2395227042464079
 50
355.55274534281102
 51
357.05483434533011
  0
ARC
  5
907
  8
0
 10
264.53194734524379
 20
287.58448527126973
 30
0.0
 40
8.3893264004715054
 50
357.05483434533102
 51
358.53123277768719
  0
ARC
  5
908
  8
0
 10
264.30434297536351
 20
287.59032114762078
 30
0.0
 40
8.6170055752797978
 50
358.53123277768788
 51
359.99999999996197
  0
ARC
  5
909
  8
0
 10
265.2933543248019
 20
287.52920519154441
 30
0.0
 40
7.6258739439286058
 50
354.0186682507906
 51
355.55274534281187
  0
LINE
  5
90A
  8
0
 10
272.50067497986299
 20
306.45623556587122
 30
0.0
 11
271.85711194818612
 21
306.5204300485176
 31
0.0
  0
ARC
  5
90B
  8
0
 10
267.42194082136888
 20
304.80190847866737
 30
0.0
 40
5.4771394434236438
 50
9.2807321450009042
 51
11.133942560407419
  0
ARC
  5
90C
  8
0
 10
268.8395281126119
 20
305.08090026625172
 30
0.0
 40
4.0323591328459107
 50
11.1339425604083
 51
13.23249842694427
  0
ARC
  5
90D
  8
0
 10
269.5867265513578
 20
305.25660126693532
 30
0.0
 40
3.264780896764822
 50
13.23249842694015
 51
15.767946590320349
  0
ARC
  5
90E
  8
0
 10
270.94907259927379
 20
305.64128329596628
 30
0.0
 40
1.8491654766270891
 50
15.767946590318219
 51
19.06583759359582
  0
ARC
  5
90F
  8
0
 10
271.50915488206658
 20
305.83485526173371
 30
0.0
 40
1.25657601550789
 50
19.06583759360122
 51
23.827153573230259
  0
ARC
  5
910
  8
0
 10
272.25433515980558
 20
306.16394086669789
 30
0.0
 40
0.4419650766384639
 50
23.827153573226848
 51
31.77583647971592
  0
ARC
  5
911
  8
0
 10
272.45754224880682
 20
306.2898159862666
 30
0.0
 40
0.2029302115104144
 50
31.775836479724038
 51
48.02243258812495
  0
ARC
  5
912
  8
0
 10
272.56750654082072
 20
306.41203990526742
 30
0.0
 40
0.0385196525610965
 50
48.022432588089863
 51
85.937995020270236
  0
ARC
  5
913
  8
0
 10
272.674196930395
 20
308.19582918736558
 30
0.0
 40
1.7482264828278029
 50
264.30367129731729
 51
265.24964395471972
  0
ARC
  5
914
  8
0
 10
272.81160849290183
 20
309.84940092826753
 30
0.0
 40
3.4074978409304841
 50
265.24964395472068
 51
265.93799671036891
  0
ARC
  5
915
  8
0
 10
265.73947362025558
 20
304.55839697649731
 30
0.0
 40
7.1773126359916857
 50
5.9813317494606304
 51
7.588804164566926
  0
ARC
  5
916
  8
0
 10
264.3043429753547
 20
304.4505389494135
 30
0.0
 40
8.6170055752885961
 50
0.0000000000439298
 51
1.468767222389759
  0
ARC
  5
917
  8
0
 10
264.5319473452472
 20
304.45637482576541
 30
0.0
 40
8.3893264004680521
 50
1.468767222389199
 51
2.94516565481729
  0
ARC
  5
918
  8
0
 10
264.68155317554732
 20
304.46407177026128
 30
0.0
 40
8.2395227042040382
 50
2.9451656548151521
 51
4.4472546573848373
  0
ARC
  5
919
  8
0
 10
265.29335432488608
 20
304.51165490549869
 30
0.0
 40
7.625873943844006
 50
4.4472546573851286
 51
5.9813317494609608
  0
ARC
  5
91A
  8
0
 10
266.78058342864159
 20
304.6971036298338
 30
0.0
 40
6.1270035534843821
 50
7.5888041645662012
 51
9.2807321450004832
  0
LINE
  5
91B
  8
0
 10
309.9353999365697
 20
287.5903211476151
 30
0.0
 11
309.9353999365697
 21
304.45053894942009
 31
0.0
  0
ARC
  5
91C
  8
0
 10
299.9283742436063
 20
290.52043004851771
 30
0.0
 40
1.5
 50
270.0
 51
0.0
  0
LINE
  5
91D
  8
0
 10
291.4283742436063
 20
295.01577094720972
 30
0.0
 11
301.4283742436063
 21
295.01577094720972
 31
0.0
  0
LINE
  5
91E
  8
0
 10
293.91793212691749
 20
297.01577094720972
 30
0.0
 11
301.4283742436063
 21
297.01577094720972
 31
0.0
  0
ARC
  5
91F
  8
0
 10
314.01722037481278
 20
286.95995983083031
 30
0.0
 40
4.0323591330629958
 50
191.13394256003841
 51
193.2324984265066
  0
ARC
  5
920
  8
0
 10
310.04513999431202
 20
282.19145916878313
 30
0.0
 40
3.4074978409150449
 50
85.249643954719375
 51
85.937996710364118
  0
ARC
  5
921
  8
0
 10
313.27002193606933
 20
286.78425883015359
 30
0.0
 40
3.2647808969856702
 50
193.2324984265085
 51
195.76794658981319
  0
ARC
  5
922
  8
0
 10
311.9076758880924
 20
286.39957680111843
 30
0.0
 40
1.8491654767881871
 50
195.76794658981009
 51
199.06583759295589
  0
ARC
  5
923
  8
0
 10
311.34759360526039
 20
286.20600483534452
 30
0.0
 40
1.25657601562989
 50
199.0658375929622
 51
203.82715357243899
  0
ARC
  5
924
  8
0
 10
310.6024133274496
 20
285.8769192303609
 30
0.0
 40
0.441965076686985
 50
203.82715357243609
 51
211.77583647860561
  0
ARC
  5
925
  8
0
 10
310.39920623842039
 20
285.75104411078019
 30
0.0
 40
0.202930211528861
 50
211.77583647858589
 51
228.02243258692781
  0
ARC
  5
926
  8
0
 10
310.28924194639239
 20
285.6288201917688
 30
0.0
 40
0.0385196525621517
 50
228.0224325869485
 51
265.93799502022381
  0
ARC
  5
927
  8
0
 10
315.43480766602607
 20
287.23895161839943
 30
0.0
 40
5.4771394436086771
 50
189.28073214467389
 51
191.133942560039
  0
ARC
  5
928
  8
0
 10
317.11727486708799
 20
287.48246312055278
 30
0.0
 40
7.1773126361233643
 50
185.98133174922921
 51
187.5888041642892
  0
ARC
  5
929
  8
0
 10
316.076165058718
 20
287.3437564672235
 30
0.0
 40
6.1270035536328802
 50
187.58880416428789
 51
189.280732144674
  0
ARC
  5
92A
  8
0
 10
318.55240551153679
 20
287.59032114761101
 30
0.0
 40
8.6170055749670738
 50
179.9999999999728
 51
181.46876722230419
  0
ARC
  5
92B
  8
0
 10
318.324801141904
 20
287.5844852712662
 30
0.0
 40
8.3893264004063504
 50
181.46876722230439
 51
182.94516565468641
  0
ARC
  5
92C
  8
0
 10
318.17519531167392
 20
287.57678832677431
 30
0.0
 40
8.2395227042124972
 50
182.94516565468481
 51
184.4472546572087
  0
ARC
  5
92D
  8
0
 10
317.56339416241519
 20
287.52920519154509
 30
0.0
 40
7.6258739439331249
 50
184.4472546572095
 51
185.98133174922921
  0
ARC
  5
92E
  8
0
 10
310.18255155681618
 20
283.84503090965109
 30
0.0
 40
1.74822648284638
 50
84.303671297318871
 51
85.249643954724206
  0
LINE
  5
92F
  8
0
 10
310.99963653902688
 20
285.5204300485176
 30
0.0
 11
310.35607350734978
 21
285.58462453116402
 31
0.0
  0
ARC
  5
930
  8
0
 10
310.28924194639228
 20
306.41203990526702
 30
0.0
 40
0.0385196525615044
 50
94.062004979687885
 51
131.97756741194669
  0
ARC
  5
931
  8
0
 10
310.39920623840578
 20
306.2898159862666
 30
0.0
 40
0.2029302115102622
 50
131.9775674118728
 51
148.22416352034841
  0
ARC
  5
932
  8
0
 10
310.60241332740981
 20
306.16394086669641
 30
0.0
 40
0.4419650766415666
 50
148.22416352035029
 51
156.17284642682321
  0
ARC
  5
933
  8
0
 10
311.34759360515528
 20
305.8348552617303
 30
0.0
 40
1.2565760155176791
 50
156.1728464268277
 51
160.93416240645129
  0
ARC
  5
934
  8
0
 10
311.90767588794972
 20
305.64128329596269
 30
0.0
 40
1.8491654766384551
 50
160.93416240645021
 51
164.23205340972009
  0
ARC
  5
935
  8
0
 10
313.27002193588021
 20
305.25660126692878
 30
0.0
 40
3.264780896790942
 50
164.23205340972149
 51
166.76750157309721
  0
ARC
  5
936
  8
0
 10
314.01722037461639
 20
305.08090026624802
 30
0.0
 40
4.032359132861961
 50
166.7675015730932
 51
168.8660574396294
  0
ARC
  5
937
  8
0
 10
315.4348076658635
 20
304.8019084786639
 30
0.0
 40
5.4771394434437184
 50
168.86605743963071
 51
170.7192678550376
  0
ARC
  5
938
  8
0
 10
310.04513999431532
 20
309.84940092822222
 30
0.0
 40
3.4074978408850138
 50
274.0620032896162
 51
274.75035604527358
  0
ARC
  5
939
  8
0
 10
310.18255155681749
 20
308.1958291873695
 30
0.0
 40
1.7482264828317231
 50
274.75035604528267
 51
275.69632870268288
  0
LINE
  5
93A
  8
0
 10
310.35607350734978
 20
306.45623556587122
 30
0.0
 11
310.99963653902688
 21
306.5204300485176
 31
0.0
  0
ARC
  5
93B
  8
0
 10
317.11727486699499
 20
304.5583969764931
 30
0.0
 40
7.1773126360299671
 50
172.41119583547291
 51
174.01866825057209
  0
ARC
  5
93C
  8
0
 10
317.56339416233919
 20
304.51165490549738
 30
0.0
 40
7.6258739438567584
 50
174.01866825057161
 51
175.55274534264029
  0
ARC
  5
93D
  8
0
 10
318.17519531168972
 20
304.46407177025941
 30
0.0
 40
8.2395227042283832
 50
175.55274534264089
 51
177.05483434520249
  0
ARC
  5
93E
  8
0
 10
318.32480114186552
 20
304.45637482577058
 30
0.0
 40
8.3893264003678691
 50
177.05483434520491
 51
178.53123277764649
  0
ARC
  5
93F
  8
0
 10
318.55240551142123
 20
304.45053894942748
 30
0.0
 40
8.6170055748515022
 50
178.5312327776461
 51
180.00000000004911
  0
ARC
  5
940
  8
0
 10
316.07616505857033
 20
304.69710362983392
 30
0.0
 40
6.1270035534836387
 50
170.71926785503629
 51
172.4111958354724
  0
LINE
  5
941
  8
1
 10
266.85711194818612
 20
337.02043004851652
 30
0.0
 11
315.99963653902699
 21
337.02043004851657
 31
0.0
  0
LINE
  5
942
  8
0
 10
272.9213485506433
 20
345.45053894942009
 30
0.0
 11
272.9213485506433
 21
337.0204300485176
 31
0.0
  0
LINE
  5
943
  8
0
 10
271.85711194818612
 20
326.5204300485176
 30
0.0
 11
272.50067497986299
 21
326.58462453116402
 31
0.0
  0
LINE
  5
944
  8
0
 10
272.9213485506433
 20
328.5903211476151
 30
0.0
 11
272.9213485506433
 21
337.0204300485176
 31
0.0
  0
ARC
  5
945
  8
0
 10
272.56750654082072
 20
326.62882019176772
 30
0.0
 40
0.038519652561013
 50
274.06200497973992
 51
311.9775674120055
  0
ARC
  5
946
  8
0
 10
272.45754224880523
 20
326.75104411076973
 30
0.0
 40
0.2029302115123035
 50
311.97756741200362
 51
328.22416352037652
  0
ARC
  5
947
  8
0
 10
272.254335159802
 20
326.87691923033918
 30
0.0
 40
0.4419650766424107
 50
328.22416352037141
 51
336.17284642682938
  0
ARC
  5
948
  8
0
 10
271.50915488205868
 20
327.2060048353045
 30
0.0
 40
1.256576015516284
 50
336.17284642682552
 51
340.93416240645428
  0
ARC
  5
949
  8
0
 10
270.94907259926242
 20
327.39957680107261
 30
0.0
 40
1.8491654766390171
 50
340.93416240645689
 51
344.23205340972589
  0
ARC
  5
94A
  8
0
 10
269.58672655133148
 20
327.78425883010652
 30
0.0
 40
3.2647808967917809
 50
344.23205340972612
 51
346.76750157309732
  0
ARC
  5
94B
  8
0
 10
268.83952811258803
 20
327.95995983078882
 30
0.0
 40
4.0323591328703383
 50
346.76750157309658
 51
348.8660574396273
  0
ARC
  5
94C
  8
0
 10
267.42194082134949
 20
328.23895161837129
 30
0.0
 40
5.477139443443332
 50
348.86605743962809
 51
350.71926785503189
  0
ARC
  5
94D
  8
0
 10
266.78058342865017
 20
328.34375646720008
 30
0.0
 40
6.1270035534756433
 50
350.71926785503058
 51
352.411195835466
  0
ARC
  5
94E
  8
0
 10
265.73947362022528
 20
328.48246312054113
 30
0.0
 40
7.1773126360222008
 50
352.41119583546617
 51
354.01866825056709
  0
ARC
  5
94F
  8
0
 10
272.67419693039528
 20
324.84503090966848
 30
0.0
 40
1.7482264828289229
 50
94.750356045283951
 51
95.696328702688945
  0
ARC
  5
950
  8
0
 10
272.81160849289807
 20
323.1914591688174
 30
0.0
 40
3.4074978408806551
 50
94.062003289629786
 51
94.750356045286509
  0
ARC
  5
951
  8
0
 10
264.68155317553698
 20
328.57678832677487
 30
0.0
 40
8.2395227042142523
 50
355.55274534263481
 51
357.05483434519863
  0
ARC
  5
952
  8
0
 10
264.5319473452397
 20
328.58448527127013
 30
0.0
 40
8.3893264004755288
 50
357.05483434520022
 51
358.53123277761631
  0
ARC
  5
953
  8
0
 10
264.30434297524607
 20
328.59032114762448
 30
0.0
 40
8.6170055753971972
 50
358.53123277761608
 51
359.99999999993793
  0
ARC
  5
954
  8
0
 10
265.2933543248725
 20
328.52920519153793
 30
0.0
 40
7.6258739438577292
 50
354.01866825056618
 51
355.55274534263538
  0
LINE
  5
955
  8
0
 10
271.85711194818612
 20
347.5204300485176
 30
0.0
 11
272.50067497986299
 21
347.45623556587122
 31
0.0
  0
ARC
  5
956
  8
0
 10
269.58672655133148
 20
346.25660126692873
 30
0.0
 40
3.2647808967917809
 50
13.232498426902669
 51
15.767946590273979
  0
ARC
  5
957
  8
0
 10
266.78058342865017
 20
345.69710362983511
 30
0.0
 40
6.1270035534756433
 50
7.5888041645339381
 51
9.2807321449693525
  0
ARC
  5
958
  8
0
 10
267.42194082134949
 20
345.8019084786639
 30
0.0
 40
5.477139443443332
 50
9.2807321449680931
 51
11.13394256037199
  0
ARC
  5
959
  8
0
 10
268.83952811258803
 20
346.08090026624637
 30
0.0
 40
4.0323591328703383
 50
11.13394256037274
 51
13.232498426903399
  0
ARC
  5
95A
  8
0
 10
272.81160849289807
 20
350.84940092821779
 30
0.0
 40
3.4074978408806551
 50
265.24964395471352
 51
265.9379967103701
  0
ARC
  5
95B
  8
0
 10
272.67419693039528
 20
349.19582918736671
 30
0.0
 40
1.7482264828289229
 50
264.30367129731098
 51
265.24964395471602
  0
ARC
  5
95C
  8
0
 10
270.94907259926242
 20
346.64128329596269
 30
0.0
 40
1.8491654766390171
 50
15.7679465902741
 51
19.06583759354308
  0
ARC
  5
95D
  8
0
 10
271.50915488205868
 20
346.83485526173081
 30
0.0
 40
1.256576015516284
 50
19.065837593545691
 51
23.827153573174531
  0
ARC
  5
95E
  8
0
 10
272.254335159802
 20
347.16394086669601
 30
0.0
 40
0.4419650766424107
 50
23.827153573170559
 51
31.775836479628669
  0
ARC
  5
95F
  8
0
 10
272.45754224880523
 20
347.28981598626552
 30
0.0
 40
0.2029302115123035
 50
31.775836479623479
 51
48.022432587996391
  0
ARC
  5
960
  8
0
 10
272.56750654082072
 20
347.41203990526748
 30
0.0
 40
0.038519652561013
 50
48.022432587994452
 51
85.937995020260118
  0
ARC
  5
961
  8
0
 10
265.2933543248725
 20
345.51165490549738
 30
0.0
 40
7.6258739438577292
 50
4.4472546573645948
 51
5.9813317494338127
  0
ARC
  5
962
  8
0
 10
264.30434297524607
 20
345.45053894941071
 30
0.0
 40
8.6170055753971972
 50
0.0000000000620844
 51
1.468767222383869
  0
ARC
  5
963
  8
0
 10
264.5319473452397
 20
345.45637482576512
 30
0.0
 40
8.3893264004755288
 50
1.468767222383792
 51
2.9451656547998599
  0
ARC
  5
964
  8
0
 10
264.68155317553698
 20
345.46407177026032
 30
0.0
 40
8.2395227042142523
 50
2.945165654801349
 51
4.4472546573652059
  0
ARC
  5
965
  8
0
 10
265.73947362022528
 20
345.55839697649412
 30
0.0
 40
7.1773126360222008
 50
5.9813317494329219
 51
7.5888041645338742
  0
LINE
  5
966
  8
0
 10
303.31788510406727
 20
347.84860873266769
 30
0.0
 11
303.31788510406727
 21
337.0204300485176
 31
0.0
  0
LINE
  5
967
  8
0
 10
309.9353999365697
 20
345.45053894942009
 30
0.0
 11
309.9353999365697
 21
337.0204300485176
 31
0.0
  0
LINE
  5
968
  8
0
 10
303.31788510406727
 20
326.19225136436751
 30
0.0
 11
303.31788510406727
 21
337.0204300485176
 31
0.0
  0
LINE
  5
969
  8
0
 10
309.9353999365697
 20
328.5903211476151
 30
0.0
 11
309.9353999365697
 21
337.0204300485176
 31
0.0
  0
ARC
  5
96A
  8
0
 10
310.04513999431481
 20
323.19145916881791
 30
0.0
 40
3.4074978408801448
 50
85.249643954716177
 51
85.937996710371323
  0
ARC
  5
96B
  8
0
 10
317.11727486697248
 20
328.48246312053948
 30
0.0
 40
7.177312636007203
 50
185.9813317494563
 51
187.58880416456449
  0
ARC
  5
96C
  8
0
 10
316.07616505855867
 20
328.34375646719951
 30
0.0
 40
6.1270035534718792
 50
187.58880416456449
 51
189.2807321450056
  0
ARC
  5
96D
  8
0
 10
315.43480766583809
 20
328.23895161836708
 30
0.0
 40
5.4771394434180909
 50
189.2807321450079
 51
191.1339425604215
  0
ARC
  5
96E
  8
0
 10
314.01722037459592
 20
327.9599598307824
 30
0.0
 40
4.0323591328409316
 50
191.13394256042039
 51
193.2324984269639
  0
ARC
  5
96F
  8
0
 10
313.27002193585258
 20
327.78425883009942
 30
0.0
 40
3.2647808967623848
 50
193.23249842696461
 51
195.7679465903505
  0
ARC
  5
970
  8
0
 10
311.90767588792693
 20
327.39957680106488
 30
0.0
 40
1.8491654766143739
 50
195.7679465903496
 51
199.06583759364091
  0
ARC
  5
971
  8
0
 10
311.34759360513539
 20
327.20600483529762
 30
0.0
 40
1.2565760154965899
 50
199.06583759364571
 51
203.82715357330511
  0
ARC
  5
972
  8
0
 10
310.6024133274031
 20
326.87691923033509
 30
0.0
 40
0.441965076633764
 50
203.82715357331401
 51
211.77583647984639
  0
ARC
  5
973
  8
0
 10
310.39920623840322
 20
326.7510441107666
 30
0.0
 40
0.2029302115070454
 50
211.7758364798473
 51
228.02243258833499
  0
ARC
  5
974
  8
0
 10
310.28924194639228
 20
326.62882019176823
 30
0.0
 40
0.0385196525615141
 50
228.02243258827099
 51
265.93799502031271
  0
ARC
  5
975
  8
0
 10
318.17519531167528
 20
328.57678832677482
 30
0.0
 40
8.2395227042141226
 50
182.94516565481021
 51
184.44725465738
  0
ARC
  5
976
  8
0
 10
318.552405511323
 20
328.59032114760498
 30
0.0
 40
8.6170055747531951
 50
179.99999999993281
 51
181.4687672223576
  0
ARC
  5
977
  8
0
 10
318.3248011418529
 20
328.58448527126421
 30
0.0
 40
8.3893264003554275
 50
181.4687672223576
 51
182.94516565481109
  0
ARC
  5
978
  8
0
 10
317.5633941623376
 20
328.52920519153759
 30
0.0
 40
7.6258739438552547
 50
184.4472546573808
 51
185.9813317494563
  0
ARC
  5
979
  8
0
 10
310.1825515568172
 20
324.84503090966513
 30
0.0
 40
1.7482264828323499
 50
84.303671297305897
 51
85.249643954712283
  0
LINE
  5
97A
  8
0
 10
310.99963653902688
 20
326.5204300485176
 30
0.0
 11
310.35607350734978
 21
326.58462453116402
 31
0.0
  0
ARC
  5
97B
  8
0
 10
313.27002193585258
 20
346.25660126693577
 30
0.0
 40
3.2647808967623848
 50
164.2320534096495
 51
166.76750157303539
  0
ARC
  5
97C
  8
0
 10
314.01722037459592
 20
346.0809002662528
 30
0.0
 40
4.0323591328409316
 50
166.7675015730361
 51
168.86605743957961
  0
ARC
  5
97D
  8
0
 10
315.43480766583809
 20
345.80190847866811
 30
0.0
 40
5.4771394434180909
 50
168.86605743957841
 51
170.7192678549921
  0
ARC
  5
97E
  8
0
 10
316.07616505855867
 20
345.69710362983579
 30
0.0
 40
6.1270035534718792
 50
170.7192678549944
 51
172.41119583543539
  0
ARC
  5
97F
  8
0
 10
310.28924194639228
 20
347.41203990526702
 30
0.0
 40
0.0385196525615141
 50
94.062004979687288
 51
131.97756741172901
  0
ARC
  5
980
  8
0
 10
310.39920623840322
 20
347.28981598626859
 30
0.0
 40
0.2029302115070454
 50
131.97756741166501
 51
148.22416352015259
  0
ARC
  5
981
  8
0
 10
310.6024133274031
 20
347.1639408667001
 30
0.0
 40
0.441965076633764
 50
148.22416352015361
 51
156.17284642668591
  0
ARC
  5
982
  8
0
 10
311.34759360513539
 20
346.83485526173769
 30
0.0
 40
1.2565760154965899
 50
156.17284642669489
 51
160.93416240635429
  0
ARC
  5
983
  8
0
 10
311.90767588792693
 20
346.64128329597031
 30
0.0
 40
1.8491654766143739
 50
160.93416240635909
 51
164.2320534096504
  0
ARC
  5
984
  8
0
 10
310.04513999431481
 20
350.84940092821728
 30
0.0
 40
3.4074978408801448
 50
274.06200328962871
 51
274.75035604528381
  0
ARC
  5
985
  8
0
 10
310.1825515568172
 20
349.19582918737012
 30
0.0
 40
1.7482264828323499
 50
274.75035604528767
 51
275.69632870269407
  0
LINE
  5
986
  8
0
 10
310.99963653902688
 20
347.5204300485176
 30
0.0
 11
310.35607350734978
 21
347.45623556587122
 31
0.0
  0
ARC
  5
987
  8
0
 10
317.5633941623376
 20
345.51165490549761
 30
0.0
 40
7.6258739438552547
 50
174.0186682505437
 51
175.55274534261909
  0
ARC
  5
988
  8
0
 10
318.17519531167528
 20
345.46407177026038
 30
0.0
 40
8.2395227042141226
 50
175.55274534262
 51
177.0548343451897
  0
ARC
  5
989
  8
0
 10
318.3248011418529
 20
345.45637482577098
 30
0.0
 40
8.3893264003554275
 50
177.05483434518891
 51
178.5312327776424
  0
ARC
  5
98A
  8
0
 10
318.552405511323
 20
345.4505389494301
 30
0.0
 40
8.6170055747531951
 50
178.53123277764229
 51
180.00000000006719
  0
ARC
  5
98B
  8
0
 10
317.11727486697248
 20
345.55839697649571
 30
0.0
 40
7.177312636007203
 50
172.41119583543539
 51
174.01866825054361
  0
CIRCLE
  5
98C
  8
0
 10
291.42837424360641
 20
400.5204247066585
 30
0.0
 40
9.1999999999999993
  0
CIRCLE
  5
98D
  8
0
 10
291.42837424360641
 20
400.5204247066585
 30
0.0
 40
8.5
  0
LINE
  5
98E
  8
0
 10
271.85711194818612
 20
419.45040454697278
 30
0.0
 11
271.85711194818612
 21
388.5204300485176
 31
0.0
  0
LINE
  5
98F
  8
0
 10
310.99963653902688
 20
419.45040454697278
 30
0.0
 11
310.99963653902688
 21
388.5204300485176
 31
0.0
  0
LINE
  5
990
  8
1
 10
266.85711194818612
 20
400.52042470665839
 30
0.0
 11
315.99963653902699
 21
400.5204247066585
 31
0.0
  0
LINE
  5
991
  8
0
 10
282.9283742436063
 20
385.02043004851771
 30
0.0
 11
299.9283742436063
 21
385.0204300485176
 31
0.0
  0
TEXT
  5
992
  8
0
 10
283.03426266672687
 20
373.5505434673999
 30
0.0
 40
1.3
  1
ELESA
 41
3.0
  7
SIM300
 72
     1
 11
291.48426266672692
 21
373.5505434673999
 31
0.0
  0
LINE
  5
993
  8
0
 10
278.26364864828918
 20
388.52043004581748
 30
0.0
 11
304.59309983892359
 21
388.52043005121772
 31
0.0
  0
LINE
  5
994
  8
0
 10
282.98740273553938
 20
401.5204247066585
 30
0.0
 11
299.86934575167339
 21
401.5204247066585
 31
0.0
  0
LINE
  5
995
  8
0
 10
282.98740273553938
 20
399.52042470665862
 30
0.0
 11
299.86934575167339
 21
399.52042470665862
 31
0.0
  0
LINE
  5
996
  8
0
 10
291.42837424360641
 20
371.27043004851782
 30
0.0
 11
281.4283742436063
 21
371.27043004851782
 31
0.0
  0
LINE
  5
997
  8
0
 10
291.42837424360641
 20
369.77043004851782
 30
0.0
 11
281.4283742436063
 21
369.77043004851782
 31
0.0
  0
ARC
  5
998
  8
0
 10
264.30434297536351
 20
386.45053894941441
 30
0.0
 40
8.6170055752797978
 50
0.0000000000379885
 51
1.4687672223121031
  0
LINE
  5
999
  8
0
 10
272.50067497986299
 20
367.58462453116402
 30
0.0
 11
271.85711194818612
 21
367.5204300485176
 31
0.0
  0
LINE
  5
99A
  8
0
 10
272.9213485506433
 20
386.45053894942009
 30
0.0
 11
272.9213485506433
 21
369.5903211476151
 31
0.0
  0
ARC
  5
99B
  8
0
 10
272.81160849290183
 20
364.19145916876772
 30
0.0
 40
3.4074978409304841
 50
94.062003289631022
 51
94.750356045279304
  0
ARC
  5
99C
  8
0
 10
272.674196930395
 20
365.84503090966962
 30
0.0
 40
1.7482264828278029
 50
94.750356045280313
 51
95.696328702682706
  0
ARC
  5
99D
  8
0
 10
272.56750654082072
 20
367.62882019176789
 30
0.0
 40
0.0385196525610965
 50
274.06200497972981
 51
311.97756741191012
  0
ARC
  5
99E
  8
0
 10
272.45754224880682
 20
367.75104411076859
 30
0.0
 40
0.2029302115104144
 50
311.97756741187499
 51
328.22416352027602
  0
ARC
  5
99F
  8
0
 10
272.25433515980558
 20
367.87691923033731
 30
0.0
 40
0.4419650766384639
 50
328.22416352028409
 51
336.17284642677322
  0
ARC
  5
9A0
  8
0
 10
271.50915488206658
 20
368.20600483530148
 30
0.0
 40
1.25657601550789
 50
336.17284642676969
 51
340.9341624063988
  0
ARC
  5
9A1
  8
0
 10
270.94907259927379
 20
368.39957680106892
 30
0.0
 40
1.8491654766270891
 50
340.9341624064042
 51
344.23205340968178
  0
ARC
  5
9A2
  8
0
 10
269.5867265513578
 20
368.78425883009987
 30
0.0
 40
3.264780896764822
 50
344.23205340967962
 51
346.76750157305992
  0
ARC
  5
9A3
  8
0
 10
268.8395281126119
 20
368.95995983078359
 30
0.0
 40
4.0323591328459107
 50
346.76750157305571
 51
348.86605743959171
  0
ARC
  5
9A4
  8
0
 10
267.42194082136888
 20
369.23895161836782
 30
0.0
 40
5.4771394434236438
 50
348.86605743959262
 51
350.71926785499909
  0
ARC
  5
9A5
  8
0
 10
266.78058342864159
 20
369.34375646720139
 30
0.0
 40
6.1270035534843821
 50
350.71926785499949
 51
352.41119583543377
  0
ARC
  5
9A6
  8
0
 10
265.73947362025558
 20
369.48246312053789
 30
0.0
 40
7.1773126359916857
 50
352.41119583543309
 51
354.01866825053929
  0
ARC
  5
9A7
  8
0
 10
264.68155317554732
 20
369.57678832677391
 30
0.0
 40
8.2395227042040382
 50
355.55274534261508
 51
357.05483434518487
  0
ARC
  5
9A8
  8
0
 10
264.5319473452472
 20
369.58448527126978
 30
0.0
 40
8.3893264004680521
 50
357.05483434518271
 51
358.5312327776108
  0
ARC
  5
9A9
  8
0
 10
264.3043429753547
 20
369.59032114762169
 30
0.0
 40
8.6170055752885961
 50
358.53123277761023
 51
359.99999999995612
  0
ARC
  5
9AA
  8
0
 10
265.29335432488608
 20
369.52920519153651
 30
0.0
 40
7.625873943844006
 50
354.01866825053912
 51
355.55274534261491
  0
ARC
  5
9AB
  8
0
 10
282.9283742436063
 20
383.52043004851771
 30
0.0
 40
1.5
 50
89.999999999999986
 51
179.99999999999989
  0
LINE
  5
9AC
  8
0
 10
271.85711194818612
 20
388.5204300485176
 30
0.0
 11
272.50067497986299
 21
388.45623556587122
 31
0.0
  0
ARC
  5
9AD
  8
0
 10
266.78058342847828
 20
386.69710362980908
 30
0.0
 40
6.1270035536496703
 50
7.5888041642772919
 51
9.2807321446663735
  0
ARC
  5
9AE
  8
0
 10
267.42194082118169
 20
386.8019084786348
 30
0.0
 40
5.477139443613801
 50
9.2807321446684607
 51
11.13394256004257
  0
ARC
  5
9AF
  8
0
 10
268.83952811239982
 20
387.08090026620482
 30
0.0
 40
4.0323591330632436
 50
11.13394256004374
 51
13.23249842652036
  0
ARC
  5
9B0
  8
0
 10
269.58672655115862
 20
387.25660126688553
 30
0.0
 40
3.2647808969701608
 50
13.23249842651831
 51
15.76794658984279
  0
ARC
  5
9B1
  8
0
 10
270.94907259913123
 20
387.64128329592018
 30
0.0
 40
1.84916547677683
 50
15.76794658984204
 51
19.06583759300889
  0
ARC
  5
9B2
  8
0
 10
271.50915488196102
 20
387.83485526169392
 30
0.0
 40
1.256576015620763
 50
19.065837593014141
 51
23.827153572512991
  0
ARC
  5
9B3
  8
0
 10
272.25433515976812
 20
388.16394086667708
 30
0.0
 40
0.4419650766813012
 50
23.827153572505889
 51
31.775836478742441
  0
ARC
  5
9B4
  8
0
 10
272.45754224879357
 20
388.28981598625609
 30
0.0
 40
0.2029302115272669
 50
31.775836478768401
 51
48.022432587055299
  0
ARC
  5
9B5
  8
0
 10
272.56750654082049
 20
388.41203990526668
 30
0.0
 40
0.0385196525618305
 50
48.0224325870916
 51
85.937995020192233
  0
ARC
  5
9B6
  8
0
 10
272.81160849290171
 20
391.8494009282598
 30
0.0
 40
3.4074978409227819
 50
265.24964395471989
 51
265.9379967103614
  0
ARC
  5
9B7
  8
0
 10
272.67419693039648
 20
390.19582918737558
 30
0.0
 40
1.7482264828378791
 50
264.30367129730092
 51
265.24964395471409
  0
ARC
  5
9B8
  8
0
 10
265.2933543248019
 20
386.51165490549079
 30
0.0
 40
7.6258739439286058
 50
4.4472546571880871
 51
5.9813317492093407
  0
ARC
  5
9B9
  8
0
 10
264.53194734524379
 20
386.45637482576552
 30
0.0
 40
8.3893264004715054
 50
1.468767222312739
 51
2.945165654669025
  0
ARC
  5
9BA
  8
0
 10
264.68155317550497
 20
386.46407177025861
 30
0.0
 40
8.2395227042464079
 50
2.9451656546698901
 51
4.447254657189017
  0
ARC
  5
9BB
  8
0
 10
265.73947362012427
 20
386.5583969764823
 30
0.0
 40
7.1773126361239479
 50
5.9813317492103328
 51
7.5888041642772537
  0
ARC
  5
9BC
  8
0
 10
318.55240551153679
 20
386.45053894942419
 30
0.0
 40
8.6170055749670738
 50
178.53123277769569
 51
180.0000000000272
  0
LINE
  5
9BD
  8
0
 10
291.42837424360641
 20
369.77043004851771
 30
0.0
 11
301.4283742436063
 21
369.77043004851771
 31
0.0
  0
LINE
  5
9BE
  8
0
 10
291.42837424360641
 20
371.27043004851782
 30
0.0
 11
301.4283742436063
 21
371.27043004851782
 31
0.0
  0
ARC
  5
9BF
  8
0
 10
299.9283742436063
 20
383.5204300485176
 30
0.0
 40
1.5
 50
0.0
 51
89.999999999999986
  0
LINE
  5
9C0
  8
0
 10
309.9353999365697
 20
386.45053894942009
 30
0.0
 11
309.9353999365697
 21
369.5903211476151
 31
0.0
  0
ARC
  5
9C1
  8
0
 10
310.04513999431532
 20
364.19145916881303
 30
0.0
 40
3.4074978408850138
 50
85.249643954726366
 51
85.937996710383842
  0
ARC
  5
9C2
  8
0
 10
317.11727486699499
 20
369.48246312054209
 30
0.0
 40
7.1773126360299671
 50
185.9813317494278
 51
187.58880416452701
  0
ARC
  5
9C3
  8
0
 10
316.07616505857033
 20
369.34375646720127
 30
0.0
 40
6.1270035534836387
 50
187.58880416452749
 51
189.28073214496359
  0
ARC
  5
9C4
  8
0
 10
315.4348076658635
 20
369.23895161837129
 30
0.0
 40
5.4771394434437184
 50
189.28073214496229
 51
191.13394256036929
  0
ARC
  5
9C5
  8
0
 10
314.01722037461639
 20
368.95995983078723
 30
0.0
 40
4.032359132861961
 50
191.13394256037051
 51
193.2324984269068
  0
ARC
  5
9C6
  8
0
 10
313.27002193588021
 20
368.78425883010641
 30
0.0
 40
3.264780896790942
 50
193.23249842690279
 51
195.76794659027851
  0
ARC
  5
9C7
  8
0
 10
311.90767588794972
 20
368.3995768010725
 30
0.0
 40
1.8491654766384551
 50
195.76794659027979
 51
199.06583759354979
  0
ARC
  5
9C8
  8
0
 10
311.34759360515528
 20
368.2060048353049
 30
0.0
 40
1.2565760155176791
 50
199.06583759354871
 51
203.8271535731723
  0
ARC
  5
9C9
  8
0
 10
310.60241332740981
 20
367.87691923033879
 30
0.0
 40
0.4419650766415666
 50
203.82715357317679
 51
211.77583647964971
  0
ARC
  5
9CA
  8
0
 10
310.39920623840578
 20
367.75104411076859
 30
0.0
 40
0.2029302115102622
 50
211.7758364796515
 51
228.02243258812709
  0
ARC
  5
9CB
  8
0
 10
310.28924194639228
 20
367.62882019176823
 30
0.0
 40
0.0385196525615044
 50
228.02243258805319
 51
265.93799502031209
  0
ARC
  5
9CC
  8
0
 10
318.55240551142123
 20
369.59032114760771
 30
0.0
 40
8.6170055748515022
 50
179.9999999999508
 51
181.4687672223539
  0
ARC
  5
9CD
  8
0
 10
318.32480114186552
 20
369.58448527126461
 30
0.0
 40
8.3893264003678691
 50
181.46876722235339
 51
182.94516565479509
  0
ARC
  5
9CE
  8
0
 10
318.17519531168972
 20
369.57678832677578
 30
0.0
 40
8.2395227042283832
 50
182.94516565479751
 51
184.44725465735911
  0
ARC
  5
9CF
  8
0
 10
317.56339416233919
 20
369.52920519153781
 30
0.0
 40
7.6258739438567584
 50
184.44725465735959
 51
185.98133174942831
  0
ARC
  5
9D0
  8
0
 10
310.18255155681749
 20
365.8450309096657
 30
0.0
 40
1.7482264828317231
 50
84.303671297317038
 51
85.249643954717286
  0
LINE
  5
9D1
  8
0
 10
310.35607350734978
 20
367.58462453116402
 30
0.0
 11
310.99963653902688
 21
367.5204300485176
 31
0.0
  0
ARC
  5
9D2
  8
0
 10
310.28924194639239
 20
388.4120399052664
 30
0.0
 40
0.0385196525621517
 50
94.062004979776304
 51
131.9775674130515
  0
ARC
  5
9D3
  8
0
 10
310.39920623842039
 20
388.28981598625501
 30
0.0
 40
0.202930211528861
 50
131.97756741307211
 51
148.22416352141411
  0
ARC
  5
9D4
  8
0
 10
310.6024133274496
 20
388.1639408666743
 30
0.0
 40
0.441965076686985
 50
148.22416352139439
 51
156.17284642756391
  0
ARC
  5
9D5
  8
0
 10
311.34759360526039
 20
387.83485526169068
 30
0.0
 40
1.25657601562989
 50
156.1728464275609
 51
160.9341624070378
  0
ARC
  5
9D6
  8
0
 10
311.9076758880924
 20
387.64128329591682
 30
0.0
 40
1.8491654767881871
 50
160.93416240704411
 51
164.23205341018991
  0
ARC
  5
9D7
  8
0
 10
313.27002193606933
 20
387.2566012668816
 30
0.0
 40
3.2647808969856702
 50
164.23205341018669
 51
166.76750157349139
  0
ARC
  5
9D8
  8
0
 10
314.01722037481278
 20
387.08090026620488
 30
0.0
 40
4.0323591330629958
 50
166.76750157349329
 51
168.86605743996151
  0
ARC
  5
9D9
  8
0
 10
315.43480766602607
 20
386.80190847863582
 30
0.0
 40
5.4771394436086771
 50
168.86605743996091
 51
170.71926785532611
  0
ARC
  5
9DA
  8
0
 10
316.076165058718
 20
386.69710362981169
 30
0.0
 40
6.1270035536328802
 50
170.719267855326
 51
172.41119583571211
  0
ARC
  5
9DB
  8
0
 10
310.04513999431202
 20
391.84940092825212
 30
0.0
 40
3.4074978409150449
 50
274.06200328963592
 51
274.75035604528063
  0
ARC
  5
9DC
  8
0
 10
310.18255155681618
 20
390.19582918738411
 30
0.0
 40
1.74822648284638
 50
274.75035604527579
 51
275.69632870268111
  0
LINE
  5
9DD
  8
0
 10
310.99963653902688
 20
388.5204300485176
 30
0.0
 11
310.35607350734978
 21
388.45623556587122
 31
0.0
  0
ARC
  5
9DE
  8
0
 10
317.56339416241519
 20
386.5116549054901
 30
0.0
 40
7.6258739439331249
 50
174.0186682507707
 51
175.55274534279039
  0
ARC
  5
9DF
  8
0
 10
318.17519531167392
 20
386.46407177026089
 30
0.0
 40
8.2395227042124972
 50
175.5527453427913
 51
177.05483434531519
  0
ARC
  5
9E0
  8
0
 10
318.324801141904
 20
386.45637482576899
 30
0.0
 40
8.3893264004063504
 50
177.05483434531351
 51
178.53123277769561
  0
ARC
  5
9E1
  8
0
 10
317.11727486708799
 20
386.55839697648241
 30
0.0
 40
7.1773126361233643
 50
172.4111958357108
 51
174.0186682507707
  0
LINE
  5
9E2
  8
0
 10
273.8642407707888
 20
421.52043004330523
 30
0.0
 11
308.99250771642397
 21
421.5204300505103
 31
0.0
  0
ARC
  5
9E3
  8
0
 10
291.2101634448494
 20
480.3338849253488
 30
0.0
 40
67.426974395862246
 50
266.12634558354671
 51
267.20457998034527
  0
ARC
  5
9E4
  8
0
 10
291.1200709081553
 20
472.26603471553773
 30
0.0
 40
56.837911963291731
 50
264.66315554926001
 51
266.13314131989063
  0
LINE
  5
9E5
  8
0
 10
272.4557200853709
 20
417.61706339764697
 30
0.0
 11
272.50067497984998
 21
417.47955698029938
 31
0.0
  0
LINE
  5
9E6
  8
0
 10
273.8642407707888
 20
421.52043004690779
 30
0.0
 11
271.85711194818612
 21
419.45040454697278
 31
0.0
  0
LINE
  5
9E7
  8
0
 10
271.85711194818612
 20
419.45040454697278
 30
0.0
 11
272.4557200853709
 21
417.61706339764692
 31
0.0
  0
ARC
  5
9E8
  8
0
 10
276.11291094849298
 20
420.13994275699071
 30
0.0
 40
1.709669943464869
 50
203.09496425111931
 51
217.94510426555269
  0
ARC
  5
9E9
  8
0
 10
288.20229849607767
 20
455.52759474503893
 30
0.0
 40
42.426929131483412
 50
258.26643000147448
 51
260.58292745633747
  0
ARC
  5
9EA
  8
0
 10
285.98719492396788
 20
441.18081549294982
 30
0.0
 40
25.29216546729749
 50
253.68807687089119
 51
255.920777733888
  0
ARC
  5
9EB
  8
0
 10
282.85212067719169
 20
433.7478834067561
 30
0.0
 40
19.983753241866498
 50
250.7073000403436
 51
253.3332410461401
  0
ARC
  5
9EC
  8
0
 10
280.54240449945121
 20
425.92739588999018
 30
0.0
 40
9.0719399118958837
 50
238.4457635851482
 51
245.2345253613627
  0
ARC
  5
9ED
  8
0
 10
278.2171037805162
 20
422.14090019573251
 30
0.0
 40
4.6284533218281911
 50
229.60899000575321
 51
238.44576358514851
  0
ARC
  5
9EE
  8
0
 10
277.30658160398718
 20
421.07070008659099
 30
0.0
 40
3.2233273817225161
 50
217.9451042655522
 51
229.6089900057523
  0
ARC
  5
9EF
  8
0
 10
274.11410351166802
 20
418.00764734273872
 30
0.0
 40
1.6976545756381269
 50
198.12375935149069
 51
214.19351423217569
  0
ARC
  5
9F0
  8
0
 10
279.94450577579738
 20
426.2314906907356
 30
0.0
 40
11.92200583955889
 50
244.30713181153149
 51
247.7248807892407
  0
ARC
  5
9F1
  8
0
 10
278.69145793178279
 20
423.62702000027588
 30
0.0
 40
9.0317815443089202
 50
236.9055962577859
 51
244.3071318115324
  0
ARC
  5
9F2
  8
0
 10
276.19090336041762
 20
419.79035794829252
 30
0.0
 40
4.452180157124153
 50
227.1278770601524
 51
236.90559625778519
  0
ARC
  5
9F3
  8
0
 10
281.84569584445211
 20
430.87281096534952
 30
0.0
 40
16.93761921866756
 50
247.72488078923979
 51
250.7073000403438
  0
ARC
  5
9F4
  8
0
 10
275.25647893405892
 20
418.78381585339997
 30
0.0
 40
3.078762523129829
 50
214.19351423217731
 51
227.12787706015251
  0
ARC
  5
9F5
  8
0
 10
284.25984999785538
 20
435.27831642713522
 30
0.0
 40
19.14210727930379
 50
251.20576827842319
 51
253.68807687089071
  0
ARC
  5
9F6
  8
0
 10
281.67552594711071
 20
428.38358130911712
 30
0.0
 40
11.77690036045651
 50
245.23452536136179
 51
248.411048568257
  0
ARC
  5
9F7
  8
0
 10
283.37537352195312
 20
432.67932619913421
 30
0.0
 40
16.396738662584099
 50
248.41104856825669
 51
251.20576827842649
  0
ARC
  5
9F8
  8
0
 10
286.0001385494507
 20
444.92505395730279
 30
0.0
 40
31.59810742336883
 50
255.6746112846628
 51
258.26643000147448
  0
ARC
  5
9F9
  8
0
 10
284.85001061510559
 20
440.42126141893078
 30
0.0
 40
26.94978068205037
 50
253.3332410461405
 51
255.6746112846634
  0
ARC
  5
9FA
  8
0
 10
290.35093944756977
 20
470.46075545642782
 30
0.0
 40
57.51589592806139
 50
263.09710273132509
 51
264.64576124795082
  0
ARC
  5
9FB
  8
0
 10
290.57035798302661
 20
466.38145439520491
 30
0.0
 40
50.927711472064388
 50
263.13278545155282
 51
264.66315554925978
  0
ARC
  5
9FC
  8
0
 10
289.41304640708159
 20
457.7401224140167
 30
0.0
 40
42.208777614199022
 50
260.66681229502137
 51
261.92812205372519
  0
ARC
  5
9FD
  8
0
 10
289.87644386368999
 20
466.54139697869681
 30
0.0
 40
53.567919619104771
 50
261.87179978786583
 51
263.09710273132538
  0
ARC
  5
9FE
  8
0
 10
290.18629766817389
 20
463.1924519308198
 30
0.0
 40
47.715665544108447
 50
261.9281220537253
 51
263.1327854515531
  0
ARC
  5
9FF
  8
0
 10
286.96866417713898
 20
445.09421418350479
 30
0.0
 40
29.326762250887882
 50
255.92077773388621
 51
258.415784728674
  0
ARC
  5
A00
  8
0
 10
288.81514098181208
 20
454.10214609225881
 30
0.0
 40
38.521995465056222
 50
258.41578472867428
 51
260.66681229502211
  0
ARC
  5
A01
  8
0
 10
288.93046345117631
 20
459.91796346289181
 30
0.0
 40
46.877273127236457
 50
260.58292745633878
 51
261.87179978786628
  0
ARC
  5
A02
  8
0
 10
291.03807650547191
 20
477.79240159345079
 30
0.0
 40
64.879671618212981
 50
264.6457612479511
 51
266.12634558354563
  0
LINE
  5
A03
  8
0
 10
273.8642407707888
 20
421.52043004690779
 30
0.0
 11
274.49357147706598
 21
419.59299570600791
 31
0.0
  0
LINE
  5
A04
  8
0
 10
274.49357147706598
 20
419.59299570600791
 30
0.0
 11
274.54026083326579
 21
419.46931399928411
 31
0.0
  0
ARC
  5
A05
  8
0
 10
294.6179495973833
 20
450.98013069245877
 30
0.0
 40
35.34788566615692
 50
279.33266254452087
 51
282.0567189867711
  0
ARC
  5
A06
  8
0
 10
295.3465202469153
 20
451.82335921393172
 30
0.0
 40
38.659421951304623
 50
279.41662679130701
 51
282.22184015960079
  0
ARC
  5
A07
  8
0
 10
291.46003642879788
 20
484.17805216432879
 30
0.0
 40
71.275691741531972
 50
271.04128611521878
 51
272.44064363510358
  0
ARC
  5
A08
  8
0
 10
291.52088116103198
 20
475.73024948070378
 30
0.0
 40
60.308870666890357
 50
272.4390007240446
 51
273.5069773328658
  0
ARC
  5
A09
  8
0
 10
291.45326092042171
 20
477.31779058132679
 30
0.0
 40
61.89785123414341
 50
271.04112445244891
 51
272.43900072404477
  0
ARC
  5
A0A
  8
0
 10
291.42837356333769
 20
478.06107249363578
 30
0.0
 40
65.157077769292727
 50
269.99987331333028
 51
271.0957613915582
  0
ARC
  5
A0B
  8
0
 10
291.25589343174249
 20
474.2754793641538
 30
0.0
 40
58.851941643749612
 50
266.13314131989102
 51
267.20717426986778
  0
ARC
  5
A0C
  8
0
 10
291.3902362354591
 20
484.0217826414588
 30
0.0
 40
71.119265794764488
 50
267.20457998034499
 51
268.25990930698151
  0
ARC
  5
A0D
  8
0
 10
291.39865288380747
 20
477.20191865441592
 30
0.0
 40
61.781860956758599
 50
267.20717426986829
 51
268.26064509359531
  0
ARC
  5
A0E
  8
0
 10
291.41619369394209
 20
477.77954984108982
 30
0.0
 40
62.359758411190242
 50
268.26064509359571
 51
268.95822647456561
  0
ARC
  5
A0F
  8
0
 10
291.41277313499711
 20
484.7636245490088
 30
0.0
 40
71.861449954955333
 50
268.25990930697918
 51
268.95803341185137
  0
ARC
  5
A10
  8
0
 10
291.42739829526431
 20
485.97373673867679
 30
0.0
 40
73.071672904660346
 50
269.65500614127097
 51
271.04128611521918
  0
ARC
  5
A11
  8
0
 10
291.42756774593897
 20
478.7315969991518
 30
0.0
 40
63.31189109436594
 50
269.65490746002342
 51
271.0411244524492
  0
ARC
  5
A12
  8
0
 10
291.4283735630238
 20
478.06093020024178
 30
0.0
 40
65.156935475898763
 50
268.90398436004739
 51
270.0
  0
ARC
  5
A13
  8
0
 10
291.4237438023705
 20
485.3668143733608
 30
0.0
 40
72.46473953695093
 50
268.95803341185223
 51
270.0
  0
ARC
  5
A14
  8
0
 10
291.42462669359082
 20
478.24329942757379
 30
0.0
 40
62.823584665780423
 50
268.95822647456612
 51
270.0
  0
ARC
  5
A15
  8
0
 10
293.16678403623757
 20
464.96640719070678
 30
0.0
 40
51.981995278854697
 50
276.90786506235969
 51
279.41662679130701
  0
ARC
  5
A16
  8
0
 10
292.8200389968805
 20
461.92020677382578
 30
0.0
 40
46.43471330951359
 50
276.87198687054848
 51
279.33266254452082
  0
ARC
  5
A17
  8
0
 10
292.61666872368841
 20
469.50708894985871
 30
0.0
 40
56.555879590355943
 50
275.73185953736021
 51
276.9078650623602
  0
ARC
  5
A18
  8
0
 10
291.87128444993078
 20
470.65571757861483
 30
0.0
 40
55.222034336002281
 50
274.5935543503133
 51
275.71075016380848
  0
ARC
  5
A19
  8
0
 10
292.3783801366618
 20
465.58490107319187
 30
0.0
 40
50.125925421627421
 50
275.71075016380769
 51
276.87198687054757
  0
ARC
  5
A1A
  8
0
 10
291.98786138734067
 20
475.77167672978879
 30
0.0
 40
62.851946514928237
 50
274.60482553848868
 51
275.73185953735981
  0
ARC
  5
A1B
  8
0
 10
291.5457201222024
 20
482.16778560423882
 30
0.0
 40
69.263599959845166
 50
272.44064363510461
 51
273.51211279103421
  0
ARC
  5
A1C
  8
0
 10
291.70515133446878
 20
472.72346784918182
 30
0.0
 40
57.296447841907778
 50
273.50697733286518
 51
274.59355435031262
  0
ARC
  5
A1D
  8
0
 10
291.77952426288022
 20
478.3583384449858
 30
0.0
 40
65.446984700831138
 50
273.51211279103399
 51
274.60482553848908
  0
ARC
  5
A1E
  8
0
 10
306.76954238958672
 20
420.12898137909889
 30
0.0
 40
1.681725513548229
 50
323.97024046398519
 51
336.90503574889971
  0
LINE
  5
A1F
  8
0
 10
310.99963653902688
 20
419.45040454697278
 30
0.0
 11
310.40102840184198
 21
417.61706339764692
 31
0.0
  0
ARC
  5
A20
  8
0
 10
305.2503897714617
 20
421.77280693795291
 30
0.0
 40
6.8854871719164681
 50
299.66879093179688
 51
306.9541842639162
  0
ARC
  5
A21
  8
0
 10
305.80924796242368
 20
420.82743847369539
 30
0.0
 40
2.8691629644619701
 50
313.41497581366349
 51
323.97024046398701
  0
ARC
  5
A22
  8
0
 10
305.10835849056213
 20
421.56822036153858
 30
0.0
 40
3.888968758288847
 50
305.05904833137038
 51
313.41497581366428
  0
ARC
  5
A23
  8
0
 10
303.3147372291495
 20
424.12416658148533
 30
0.0
 40
7.0114578789507238
 50
298.424639333046
 51
305.05904833136941
  0
ARC
  5
A24
  8
0
 10
302.19046460329122
 20
426.2013297794237
 30
0.0
 40
9.3733630184776437
 50
293.12641073872391
 51
298.4246393330472
  0
ARC
  5
A25
  8
0
 10
304.02948737798181
 20
423.91598837869378
 30
0.0
 40
9.3520291525730208
 50
293.92612946475469
 51
299.66879093179551
  0
ARC
  5
A26
  8
0
 10
301.27845842105461
 20
430.11640248323039
 30
0.0
 40
16.135339214009608
 50
289.28390725315057
 51
293.92612946475469
  0
ARC
  5
A27
  8
0
 10
298.35453142236082
 20
435.99871633371328
 30
0.0
 40
19.902180355578022
 50
285.17042945243099
 51
288.78661120602152
  0
ARC
  5
A28
  8
0
 10
296.7846155553155
 20
445.18415833383182
 30
0.0
 40
31.866255793881159
 50
282.22184015960107
 51
285.4675589789187
  0
ARC
  5
A29
  8
0
 10
295.82595940108388
 20
445.32442738647183
 30
0.0
 40
29.56461085242125
 50
282.05671898677178
 51
285.17042945243139
  0
ARC
  5
A2A
  8
0
 10
299.72729476027291
 20
434.54982205514648
 30
0.0
 40
20.83228692536203
 50
285.4675589789191
 51
289.28390725315057
  0
ARC
  5
A2B
  8
0
 10
299.7178961433076
 20
431.9907890430211
 30
0.0
 40
15.668713156012521
 50
288.78661120602158
 51
293.12641073872311
  0
ARC
  5
A2C
  8
0
 10
307.15188739603309
 20
419.24523171445611
 30
0.0
 40
3.722524995935637
 50
306.95418426391501
 51
316.23052419291878
  0
LINE
  5
A2D
  8
0
 10
310.40102840184198
 20
417.61706339764697
 30
0.0
 11
310.35607350738491
 21
417.479556980366
 31
0.0
  0
ARC
  5
A2E
  8
0
 10
308.76252715290531
 20
418.00113971875328
 30
0.0
 40
1.676734486094166
 50
327.92078152048902
 51
341.87624064776821
  0
ARC
  5
A2F
  8
0
 10
307.86018742458299
 20
418.5667203955
 30
0.0
 40
2.7416750887654699
 50
316.23052419291872
 51
327.92078152048919
  0
LINE
  5
A30
  8
0
 10
308.99250771642397
 20
421.52043004690779
 30
0.0
 11
310.99963653902688
 21
419.45040454697278
 31
0.0
  0
LINE
  5
A31
  8
0
 10
308.99250771642397
 20
421.52043004690779
 30
0.0
 11
308.36317701014701
 21
419.59299570600791
 31
0.0
  0
LINE
  5
A32
  8
0
 10
308.36317701014701
 20
419.59299570600791
 30
0.0
 11
308.31648765403799
 21
419.46931399952359
 31
0.0
  0
LINE
  5
A33
  8
0
 10
420.99963653902682
 20
281.65326195216892
 30
0.0
 11
420.99963653902682
 21
274.52043539037572
 31
0.0
  0
ARC
  5
A34
  8
0
 10
407.93382530714052
 20
273.50841731019062
 30
0.0
 40
15.71132218850404
 50
326.20944521974349
 51
33.896044168740652
  0
LINE
  5
A35
  8
0
 10
452.89618642914928
 20
279.21375464395072
 30
0.0
 11
451.7931453758913
 21
277.90961649954062
 31
0.0
  0
LINE
  5
A36
  8
0
 10
468.6748368816817
 20
278.37687665493797
 30
0.0
 11
468.6748368816817
 21
268.6639941258133
 31
0.0
  0
LINE
  5
A37
  8
0
 10
454.4448377449815
 20
268.39611148722253
 30
0.0
 11
454.44483764972131
 21
278.64475929673017
 31
0.0
  0
LINE
  5
A38
  8
0
 10
465.6748368816817
 20
279.52043539037561
 30
0.0
 11
465.6748368816817
 21
267.52043539037572
 31
0.0
  0
LINE
  5
A39
  8
0
 10
464.44555563444362
 20
268.53629254906048
 30
0.0
 11
464.44555563444362
 21
278.50458751722789
 31
0.0
  0
ARC
  5
A3A
  8
0
 10
450.78576916191412
 20
278.50458751722789
 30
0.0
 40
13.659786472529619
 50
338.59996093118161
 51
21.400039068818561
  0
ARC
  5
A3B
  8
0
 10
468.10390490731021
 20
278.50458751722789
 30
0.0
 40
13.659786472529619
 50
158.59996093118141
 51
201.4000390688185
  0
LINE
  5
A3C
  8
0
 10
453.0875916233316
 20
276.55982096912192
 30
0.0
 11
453.08759150192782
 21
278.73671387972689
 31
0.0
  0
LINE
  5
A3D
  8
0
 10
452.08600443643309
 20
277.59951534705527
 30
0.0
 11
453.32426709906429
 21
279.00543454421557
 31
0.0
  0
LINE
  5
A3E
  8
0
 10
447.67502071911082
 20
285.02043539037572
 30
0.0
 11
447.67502071911082
 21
273.52043539037572
 31
0.0
1001
ACAD
1000
ASC_BOUNDS
1002
{
1070
    19
1002
}
  0
LINE
  5
A3F
  8
0
 10
445.67502071911082
 20
252.52043004851669
 30
0.0
 11
445.67502071911082
 21
285.52043004851669
 31
0.0
210
-1.0
220
0.0
230
0.0
1001
ACAD
1000
ASC_BOUNDS
1002
{
1070
    19
1002
}
  0
LINE
  5
A4B
  8
1
 10
473.6748368816817
 20
273.52043539037572
 30
0.0
 11
415.99963653902682
 21
273.52043539037572
 31
0.0
  0
LINE
  5
A4C
  8
0
 10
445.67502071911082
 20
252.52043004851669
 30
0.0
 11
422.90684086436181
 21
258.6211454537235
 31
0.0
210
-1.0
220
0.0
230
0.0
1001
ACAD
1000
ASC_BOUNDS
1002
{
1070
    19
1002
}
  0
LINE
  5
A4D
  8
0
 10
445.67502071911082
 20
254.52050483475901
 30
0.0
 11
420.98514256191402
 21
261.136137748203
 31
0.0
210
-1.0
220
0.0
230
0.0
1001
ACAD
1000
ASC_BOUNDS
1002
{
1070
    19
1002
}
  0
LINE
  5
A4E
  8
0
 10
420.99963653902682
 20
265.38760882858247
 30
0.0
 11
420.99963653902682
 21
272.52043539037572
 31
0.0
  0
LINE
  5
A4F
  8
0
 10
420.97502071911072
 20
264.77043004345057
 30
0.0
 11
420.98514256191402
 21
261.136137748203
 31
0.0
1001
ACAD
1000
ASC_BOUNDS
1002
{
1070
    19
1002
}
  0
LINE
  5
A50
  8
0
 10
421.23728044477929
 20
265.14996492283029
 30
0.0
 11
420.99963653902682
 21
265.38760882858259
 31
0.0
  0
LINE
  5
A51
  8
0
 10
422.90684086436153
 20
258.62114545372378
 30
0.0
 11
420.98514256191402
 21
261.136137748203
 31
0.0
1001
ACAD
1000
ASC_BOUNDS
1002
{
1070
    19
1002
}
  0
LINE
  5
A52
  8
0
 10
422.79099313247889
 20
274.52043539037572
 30
0.0
 11
422.79099313247889
 21
273.52043539037572
 31
0.0
  0
LINE
  5
A53
  8
0
 10
422.79099313247889
 20
272.52043539037572
 30
0.0
 11
422.79099313247889
 21
273.52043539037572
 31
0.0
  0
LINE
  5
A54
  8
0
 10
420.99963653902682
 20
274.52043539037572
 30
0.0
 11
422.79099313247889
 21
274.52043539037572
 31
0.0
  0
LINE
  5
A55
  8
0
 10
420.99963653902682
 20
272.52043539037572
 30
0.0
 11
422.79099313247889
 21
272.52043539037572
 31
0.0
  0
LINE
  5
A56
  8
0
 10
455.38588466720631
 20
273.52043988223397
 30
0.0
 11
463.50378940201767
 21
273.52044018405439
 31
0.0
  0
LINE
  5
A57
  8
0
 10
455.3858854829009
 20
263.54942435049031
 30
0.0
 11
463.50379021771232
 21
263.54942465231062
 31
0.0
  0
LINE
  5
A58
  8
0
 10
445.67508835173618
 20
255.9204119264094
 30
0.0
 11
445.6750712403616
 21
255.92041651138831
 31
0.0
210
-1.0
220
0.0
230
0.0
  0
LINE
  5
A59
  8
0
 10
445.67508835173618
 20
255.92041192640929
 30
0.0
 11
445.6750712403616
 21
255.92041651138831
 31
0.0
210
-1.0
220
0.0
230
0.0
  0
LINE
  5
A5A
  8
3
 10
451.38654861375699
 20
268.46601735875078
 30
0.0
 11
447.67502071911082
 21
268.46601735875072
 31
0.0
  0
LINE
  5
A5B
  8
0
 10
451.55082319990078
 20
267.52043539037572
 30
0.0
 11
447.67502071911082
 21
267.52043539037572
 31
0.0
1001
ACAD
1000
ASC_BOUNDS
1002
{
1070
    19
1002
}
  0
LINE
  5
A5C
  8
0
 10
447.67502071911082
 20
262.02043539037572
 30
0.0
 11
447.67502071911082
 21
273.52043539037572
 31
0.0
1001
ACAD
1000
ASC_BOUNDS
1002
{
1070
    19
1002
}
  0
LINE
  5
A5D
  8
0
 10
447.67502071911082
 20
267.12349497899618
 30
0.0
 11
445.67502071911082
 21
267.12349497899618
 31
0.0
  0
LINE
  5
A5E
  8
0
 10
447.67502071911082
 20
267.06099497899618
 30
0.0
 11
445.67502071911082
 21
267.06099497899618
 31
0.0
  0
LINE
  5
A5F
  8
0
 10
447.67502071911082
 20
266.99849497899618
 30
0.0
 11
445.67502071911082
 21
266.99849497899618
 31
0.0
  0
LINE
  5
A60
  8
0
 10
447.67502071911082
 20
266.93599497899618
 30
0.0
 11
445.67502071911082
 21
266.93599497899618
 31
0.0
  0
LINE
  5
A61
  8
0
 10
447.67502071911082
 20
266.87349497899618
 30
0.0
 11
445.67502071911082
 21
266.87349497899618
 31
0.0
  0
LINE
  5
A62
  8
0
 10
447.67502071911082
 20
266.81099497899618
 30
0.0
 11
445.67502071911082
 21
266.81099497899618
 31
0.0
  0
LINE
  5
A63
  8
0
 10
447.67502071911082
 20
266.74849497899618
 30
0.0
 11
445.67502071911082
 21
266.74849497899618
 31
0.0
  0
LINE
  5
A64
  8
0
 10
447.67502071911082
 20
266.68599497899618
 30
0.0
 11
445.67502071911082
 21
266.68599497899618
 31
0.0
  0
LINE
  5
A65
  8
0
 10
447.67502071911082
 20
266.62349497899618
 30
0.0
 11
445.67502071911082
 21
266.62349497899618
 31
0.0
  0
LINE
  5
A66
  8
0
 10
447.67502071911082
 20
266.56099497899618
 30
0.0
 11
445.67502071911082
 21
266.56099497899618
 31
0.0
  0
LINE
  5
A67
  8
0
 10
447.67502071911082
 20
266.49849497899618
 30
0.0
 11
445.67502071911082
 21
266.49849497899618
 31
0.0
  0
LINE
  5
A68
  8
0
 10
447.67502071911082
 20
266.43599497899618
 30
0.0
 11
445.67502071911082
 21
266.43599497899618
 31
0.0
  0
LINE
  5
A69
  8
0
 10
447.67502071911082
 20
266.37349497899618
 30
0.0
 11
445.67502071911082
 21
266.37349497899618
 31
0.0
  0
LINE
  5
A6A
  8
0
 10
447.67502071911082
 20
266.31099497899618
 30
0.0
 11
445.67502071911082
 21
266.31099497899618
 31
0.0
  0
LINE
  5
A6B
  8
0
 10
447.67502071911082
 20
266.24849497899618
 30
0.0
 11
445.67502071911082
 21
266.24849497899618
 31
0.0
  0
LINE
  5
A6C
  8
0
 10
447.67502071911082
 20
266.18599497899618
 30
0.0
 11
445.67502071911082
 21
266.18599497899618
 31
0.0
  0
LINE
  5
A6D
  8
0
 10
446.17502071911082
 20
262.02043539037572
 30
0.0
 11
447.67502071911082
 21
262.02043539037572
 31
0.0
1001
ACAD
1000
ASC_BOUNDS
1002
{
1070
    19
1002
}
  0
LINE
  5
A6E
  8
0
 10
447.67502071911082
 20
264.56099497899618
 30
0.0
 11
446.17502071911082
 21
264.56099497899618
 31
0.0
  0
LINE
  5
A6F
  8
0
 10
447.67502071911082
 20
264.49849497899618
 30
0.0
 11
446.17502071911082
 21
264.49849497899618
 31
0.0
  0
LINE
  5
A70
  8
0
 10
447.67502071911082
 20
264.43599497899618
 30
0.0
 11
446.17502071911082
 21
264.43599497899618
 31
0.0
  0
LINE
  5
A71
  8
0
 10
447.67502071911082
 20
264.37349497899618
 30
0.0
 11
446.17502071911082
 21
264.37349497899618
 31
0.0
  0
LINE
  5
A72
  8
0
 10
447.67502071911082
 20
264.31099497899618
 30
0.0
 11
446.17502071911082
 21
264.31099497899618
 31
0.0
  0
LINE
  5
A73
  8
0
 10
447.67502071911082
 20
264.24849497899618
 30
0.0
 11
446.17502071911082
 21
264.24849497899618
 31
0.0
  0
LINE
  5
A74
  8
0
 10
447.67502071911082
 20
264.18599497899618
 30
0.0
 11
446.17502071911082
 21
264.18599497899618
 31
0.0
  0
LINE
  5
A75
  8
0
 10
447.67502071911082
 20
264.12349497899618
 30
0.0
 11
446.17502071911082
 21
264.12349497899618
 31
0.0
  0
LINE
  5
A76
  8
0
 10
447.67502071911082
 20
264.06099497899618
 30
0.0
 11
446.17502071911082
 21
264.06099497899618
 31
0.0
  0
LINE
  5
A77
  8
0
 10
447.67502071911082
 20
263.99849497899618
 30
0.0
 11
446.17502071911082
 21
263.99849497899618
 31
0.0
  0
LINE
  5
A78
  8
0
 10
447.67502071911082
 20
263.93599497899618
 30
0.0
 11
446.17502071911082
 21
263.93599497899618
 31
0.0
  0
LINE
  5
A79
  8
0
 10
447.67502071911082
 20
263.87349497899618
 30
0.0
 11
446.17502071911082
 21
263.87349497899618
 31
0.0
  0
LINE
  5
A7A
  8
0
 10
447.67502071911082
 20
263.81099497899618
 30
0.0
 11
446.17502071911082
 21
263.81099497899618
 31
0.0
  0
LINE
  5
A7B
  8
0
 10
447.67502071911082
 20
263.74849497899618
 30
0.0
 11
446.17502071911082
 21
263.74849497899618
 31
0.0
  0
LINE
  5
A7C
  8
0
 10
447.67502071911082
 20
263.68599497899618
 30
0.0
 11
446.17502071911082
 21
263.68599497899618
 31
0.0
  0
LINE
  5
A7D
  8
0
 10
447.67502071911082
 20
263.62349497899618
 30
0.0
 11
446.17502071911082
 21
263.62349497899618
 31
0.0
  0
LINE
  5
A7E
  8
0
 10
447.67502071911082
 20
263.56099497899618
 30
0.0
 11
446.17502071911082
 21
263.56099497899618
 31
0.0
  0
LINE
  5
A7F
  8
0
 10
447.67502071911082
 20
263.49849497899618
 30
0.0
 11
446.17502071911082
 21
263.49849497899618
 31
0.0
  0
LINE
  5
A80
  8
0
 10
447.67502071911082
 20
263.43599497899618
 30
0.0
 11
446.17502071911082
 21
263.43599497899618
 31
0.0
  0
LINE
  5
A81
  8
0
 10
447.67502071911082
 20
263.37349497899618
 30
0.0
 11
446.17502071911082
 21
263.37349497899618
 31
0.0
  0
LINE
  5
A82
  8
0
 10
447.67502071911082
 20
263.31099497899618
 30
0.0
 11
446.17502071911082
 21
263.31099497899618
 31
0.0
  0
LINE
  5
A83
  8
0
 10
447.67502071911082
 20
263.24849497899618
 30
0.0
 11
446.17502071911082
 21
263.24849497899618
 31
0.0
  0
LINE
  5
A84
  8
0
 10
447.67502071911082
 20
263.18599497899618
 30
0.0
 11
446.17502071911082
 21
263.18599497899618
 31
0.0
  0
LINE
  5
A85
  8
0
 10
447.67502071911082
 20
263.12349497899618
 30
0.0
 11
446.17502071911082
 21
263.12349497899618
 31
0.0
  0
LINE
  5
A86
  8
0
 10
447.67502071911082
 20
263.06099497899618
 30
0.0
 11
446.17502071911082
 21
263.06099497899618
 31
0.0
  0
LINE
  5
A87
  8
0
 10
447.67502071911082
 20
262.99849497899618
 30
0.0
 11
446.17502071911082
 21
262.99849497899618
 31
0.0
  0
LINE
  5
A88
  8
0
 10
447.67502071911082
 20
262.93599497899618
 30
0.0
 11
446.17502071911082
 21
262.93599497899618
 31
0.0
  0
LINE
  5
A89
  8
0
 10
447.67502071911082
 20
262.87349497899618
 30
0.0
 11
446.17502071911082
 21
262.87349497899618
 31
0.0
  0
LINE
  5
A8A
  8
0
 10
447.67502071911082
 20
262.81099497899618
 30
0.0
 11
446.17502071911082
 21
262.81099497899618
 31
0.0
  0
LINE
  5
A8B
  8
0
 10
447.67502071911082
 20
262.74849497899618
 30
0.0
 11
446.17502071911082
 21
262.74849497899618
 31
0.0
  0
LINE
  5
A8C
  8
0
 10
447.67502071911082
 20
262.68599497899618
 30
0.0
 11
446.17502071911082
 21
262.68599497899618
 31
0.0
  0
LINE
  5
A8D
  8
0
 10
447.67502071911082
 20
262.62349497899618
 30
0.0
 11
446.17502071911082
 21
262.62349497899618
 31
0.0
  0
LINE
  5
A8E
  8
0
 10
447.67502071911082
 20
262.56099497899618
 30
0.0
 11
446.17502071911082
 21
262.56099497899618
 31
0.0
  0
LINE
  5
A8F
  8
0
 10
447.67502071911082
 20
262.49849497899618
 30
0.0
 11
446.17502071911082
 21
262.49849497899618
 31
0.0
  0
LINE
  5
A90
  8
0
 10
447.67502071911082
 20
262.43599497899618
 30
0.0
 11
446.17502071911082
 21
262.43599497899618
 31
0.0
  0
LINE
  5
A91
  8
0
 10
447.67502071911082
 20
262.37349497899618
 30
0.0
 11
446.17502071911082
 21
262.37349497899618
 31
0.0
  0
LINE
  5
A92
  8
0
 10
447.67502071911082
 20
262.31099497899618
 30
0.0
 11
446.17502071911082
 21
262.31099497899618
 31
0.0
  0
LINE
  5
A93
  8
0
 10
447.67502071911082
 20
262.24849497899618
 30
0.0
 11
446.17502071911082
 21
262.24849497899618
 31
0.0
  0
LINE
  5
A94
  8
0
 10
447.67502071911082
 20
262.18599497899618
 30
0.0
 11
446.17502071911082
 21
262.18599497899618
 31
0.0
  0
LINE
  5
A95
  8
0
 10
447.67502071911082
 20
262.12349497899618
 30
0.0
 11
446.17502071911082
 21
262.12349497899618
 31
0.0
  0
LINE
  5
A96
  8
0
 10
447.67502071911082
 20
262.06099497899618
 30
0.0
 11
446.17502071911082
 21
262.06099497899618
 31
0.0
  0
LINE
  5
A97
  8
0
 10
446.17502071911082
 20
264.62043539037569
 30
0.0
 11
446.17502071911082
 21
262.02043539037572
 31
0.0
1001
ACAD
1000
ASC_BOUNDS
1002
{
1070
    19
1002
}
  0
LINE
  5
A98
  8
0
 10
447.67502071911082
 20
266.12349497899618
 30
0.0
 11
445.67502071911082
 21
266.12349497899618
 31
0.0
  0
LINE
  5
A99
  8
0
 10
447.67502071911082
 20
266.06099497899618
 30
0.0
 11
445.67502071911082
 21
266.06099497899618
 31
0.0
  0
LINE
  5
A9A
  8
0
 10
447.67502071911082
 20
265.99849497899618
 30
0.0
 11
445.67502071911082
 21
265.99849497899618
 31
0.0
  0
LINE
  5
A9B
  8
0
 10
447.67502071911082
 20
265.93599497899618
 30
0.0
 11
445.67502071911082
 21
265.93599497899618
 31
0.0
  0
LINE
  5
A9C
  8
0
 10
447.67502071911082
 20
265.87349497899618
 30
0.0
 11
445.67502071911082
 21
265.87349497899618
 31
0.0
  0
LINE
  5
A9D
  8
0
 10
447.67502071911082
 20
265.81099497899618
 30
0.0
 11
445.67502071911082
 21
265.81099497899618
 31
0.0
  0
LINE
  5
A9E
  8
0
 10
447.67502071911082
 20
265.74849497899618
 30
0.0
 11
445.67502071911082
 21
265.74849497899618
 31
0.0
  0
LINE
  5
A9F
  8
0
 10
447.67502071911082
 20
265.68599497899618
 30
0.0
 11
445.67502071911082
 21
265.68599497899618
 31
0.0
  0
LINE
  5
AA0
  8
0
 10
447.67502071911082
 20
265.62349497899618
 30
0.0
 11
445.67502071911082
 21
265.62349497899618
 31
0.0
  0
LINE
  5
AA1
  8
0
 10
447.67502071911082
 20
265.56099497899618
 30
0.0
 11
445.67502071911082
 21
265.56099497899618
 31
0.0
  0
LINE
  5
AA2
  8
0
 10
447.67502071911082
 20
265.49849497899618
 30
0.0
 11
445.67502071911082
 21
265.49849497899618
 31
0.0
  0
LINE
  5
AA3
  8
0
 10
447.67502071911082
 20
265.43599497899618
 30
0.0
 11
445.67502071911082
 21
265.43599497899618
 31
0.0
  0
LINE
  5
AA4
  8
0
 10
447.67502071911082
 20
265.37349497899618
 30
0.0
 11
445.67502071911082
 21
265.37349497899618
 31
0.0
  0
LINE
  5
AA5
  8
0
 10
447.67502071911082
 20
265.31099497899618
 30
0.0
 11
445.67502071911082
 21
265.31099497899618
 31
0.0
  0
LINE
  5
AA6
  8
0
 10
447.67502071911082
 20
265.24849497899618
 30
0.0
 11
445.67502071911082
 21
265.24849497899618
 31
0.0
  0
LINE
  5
AA7
  8
0
 10
447.67502071911082
 20
265.18599497899618
 30
0.0
 11
445.67502071911082
 21
265.18599497899618
 31
0.0
  0
LINE
  5
AA8
  8
0
 10
447.67502071911082
 20
265.12349497899618
 30
0.0
 11
445.67502071911082
 21
265.12349497899618
 31
0.0
  0
LINE
  5
AA9
  8
0
 10
447.67502071911082
 20
265.06099497899618
 30
0.0
 11
445.67502071911082
 21
265.06099497899618
 31
0.0
  0
LINE
  5
AAA
  8
0
 10
447.67502071911082
 20
264.99849497899618
 30
0.0
 11
445.67502071911082
 21
264.99849497899618
 31
0.0
  0
LINE
  5
AAB
  8
0
 10
447.67502071911082
 20
264.93599497899618
 30
0.0
 11
445.67502071911082
 21
264.93599497899618
 31
0.0
  0
LINE
  5
AAC
  8
0
 10
447.67502071911082
 20
264.87349497899618
 30
0.0
 11
445.67502071911082
 21
264.87349497899618
 31
0.0
  0
LINE
  5
AAD
  8
0
 10
447.67502071911082
 20
264.81099497899618
 30
0.0
 11
445.67502071911082
 21
264.81099497899618
 31
0.0
  0
LINE
  5
AAE
  8
0
 10
447.67502071911082
 20
264.74849497899618
 30
0.0
 11
445.67502071911082
 21
264.74849497899618
 31
0.0
  0
LINE
  5
AAF
  8
0
 10
447.67502071911082
 20
264.68599497899618
 30
0.0
 11
445.67502071911082
 21
264.68599497899618
 31
0.0
  0
LINE
  5
AB0
  8
0
 10
447.67502071911082
 20
264.62349497899618
 30
0.0
 11
445.67502071911082
 21
264.62349497899618
 31
0.0
  0
LINE
  5
AB1
  8
0
 10
446.17502071911082
 20
264.62043539037569
 30
0.0
 11
445.67502071911082
 21
264.62043539037569
 31
0.0
1001
ACAD
1000
ASC_BOUNDS
1002
{
1070
    19
1002
}
  0
LINE
  5
AB2
  8
0
 10
447.67502071911082
 20
277.87349497899618
 30
0.0
 11
445.67502071911082
 21
277.87349497899618
 31
0.0
  0
LINE
  5
AB3
  8
0
 10
447.67502071911082
 20
277.93599497899618
 30
0.0
 11
445.67502071911082
 21
277.93599497899612
 31
0.0
  0
LINE
  5
AB4
  8
0
 10
447.67502071911082
 20
277.99849497899618
 30
0.0
 11
445.67502071911082
 21
277.99849497899618
 31
0.0
  0
LINE
  5
AB5
  8
0
 10
447.67502071911082
 20
276.31099497899618
 30
0.0
 11
445.67502071911082
 21
276.31099497899618
 31
0.0
  0
LINE
  5
AB6
  8
0
 10
447.67502071911082
 20
276.37349497899618
 30
0.0
 11
445.67502071911082
 21
276.37349497899612
 31
0.0
  0
LINE
  5
AB7
  8
0
 10
447.67502071911082
 20
276.43599497899618
 30
0.0
 11
445.67502071911082
 21
276.43599497899618
 31
0.0
  0
LINE
  5
AB8
  8
0
 10
447.67502071911082
 20
276.49849497899618
 30
0.0
 11
445.67502071911082
 21
276.49849497899618
 31
0.0
  0
LINE
  5
AB9
  8
0
 10
447.67502071911082
 20
276.56099497899618
 30
0.0
 11
445.67502071911082
 21
276.56099497899618
 31
0.0
  0
LINE
  5
ABA
  8
0
 10
447.67502071911082
 20
276.62349497899618
 30
0.0
 11
445.67502071911082
 21
276.62349497899618
 31
0.0
  0
LINE
  5
ABB
  8
0
 10
447.67502071911082
 20
276.68599497899618
 30
0.0
 11
445.67502071911082
 21
276.68599497899612
 31
0.0
  0
LINE
  5
ABC
  8
0
 10
447.67502071911082
 20
276.74849497899618
 30
0.0
 11
445.67502071911082
 21
276.74849497899618
 31
0.0
  0
LINE
  5
ABD
  8
0
 10
447.67502071911082
 20
276.81099497899618
 30
0.0
 11
445.67502071911082
 21
276.81099497899618
 31
0.0
  0
LINE
  5
ABE
  8
0
 10
447.67502071911082
 20
276.87349497899618
 30
0.0
 11
445.67502071911082
 21
276.87349497899618
 31
0.0
  0
LINE
  5
ABF
  8
0
 10
447.67502071911082
 20
276.93599497899618
 30
0.0
 11
445.67502071911082
 21
276.93599497899618
 31
0.0
  0
LINE
  5
AC0
  8
0
 10
447.67502071911082
 20
276.99849497899618
 30
0.0
 11
445.67502071911082
 21
276.99849497899612
 31
0.0
  0
LINE
  5
AC1
  8
0
 10
447.67502071911082
 20
277.06099497899618
 30
0.0
 11
445.67502071911082
 21
277.06099497899618
 31
0.0
  0
LINE
  5
AC2
  8
0
 10
447.67502071911082
 20
277.12349497899618
 30
0.0
 11
445.67502071911082
 21
277.12349497899618
 31
0.0
  0
LINE
  5
AC3
  8
0
 10
447.67502071911082
 20
277.18599497899618
 30
0.0
 11
445.67502071911082
 21
277.18599497899618
 31
0.0
  0
LINE
  5
AC4
  8
0
 10
447.67502071911082
 20
277.24849497899618
 30
0.0
 11
445.67502071911082
 21
277.24849497899618
 31
0.0
  0
LINE
  5
AC5
  8
0
 10
447.67502071911082
 20
277.31099497899618
 30
0.0
 11
445.67502071911082
 21
277.31099497899612
 31
0.0
  0
LINE
  5
AC6
  8
0
 10
447.67502071911082
 20
277.37349497899618
 30
0.0
 11
445.67502071911082
 21
277.37349497899618
 31
0.0
  0
LINE
  5
AC7
  8
0
 10
447.67502071911082
 20
277.43599497899618
 30
0.0
 11
445.67502071911082
 21
277.43599497899618
 31
0.0
  0
LINE
  5
AC8
  8
0
 10
447.67502071911082
 20
277.49849497899618
 30
0.0
 11
445.67502071911082
 21
277.49849497899618
 31
0.0
  0
LINE
  5
AC9
  8
0
 10
447.67502071911082
 20
277.56099497899618
 30
0.0
 11
445.67502071911082
 21
277.56099497899618
 31
0.0
  0
LINE
  5
ACA
  8
0
 10
447.67502071911082
 20
277.62349497899618
 30
0.0
 11
445.67502071911082
 21
277.62349497899612
 31
0.0
  0
LINE
  5
ACB
  8
0
 10
447.67502071911082
 20
277.68599497899618
 30
0.0
 11
445.67502071911082
 21
277.68599497899618
 31
0.0
  0
LINE
  5
ACC
  8
0
 10
447.67502071911082
 20
277.74849497899618
 30
0.0
 11
445.67502071911082
 21
277.74849497899618
 31
0.0
  0
LINE
  5
ACD
  8
0
 10
447.67502071911082
 20
277.81099497899618
 30
0.0
 11
445.67502071911082
 21
277.81099497899618
 31
0.0
  0
LINE
  5
ACE
  8
0
 10
447.67502071911082
 20
273.49849497899618
 30
0.0
 11
445.67502071911082
 21
273.49849497899618
 31
0.0
  0
LINE
  5
ACF
  8
0
 10
447.67502071911082
 20
273.43599497899618
 30
0.0
 11
445.67502071911082
 21
273.43599497899618
 31
0.0
  0
LINE
  5
AD0
  8
0
 10
447.67502071911082
 20
273.37349497899618
 30
0.0
 11
445.67502071911082
 21
273.37349497899612
 31
0.0
  0
LINE
  5
AD1
  8
0
 10
447.67502071911082
 20
273.31099497899618
 30
0.0
 11
445.67502071911082
 21
273.31099497899612
 31
0.0
  0
LINE
  5
AD2
  8
0
 10
447.67502071911082
 20
273.24849497899618
 30
0.0
 11
445.67502071911082
 21
273.24849497899629
 31
0.0
  0
LINE
  5
AD3
  8
0
 10
447.67502071911082
 20
273.18599497899618
 30
0.0
 11
445.67502071911082
 21
273.18599497899618
 31
0.0
  0
LINE
  5
AD4
  8
0
 10
447.67502071911082
 20
273.12349497899618
 30
0.0
 11
445.67502071911082
 21
273.12349497899618
 31
0.0
  0
LINE
  5
AD5
  8
0
 10
447.67502071911082
 20
273.06099497899618
 30
0.0
 11
445.67502071911082
 21
273.06099497899612
 31
0.0
  0
LINE
  5
AD6
  8
0
 10
447.67502071911082
 20
272.99849497899618
 30
0.0
 11
445.67502071911082
 21
272.99849497899618
 31
0.0
  0
LINE
  5
AD7
  8
0
 10
447.67502071911082
 20
272.93599497899618
 30
0.0
 11
445.67502071911082
 21
272.93599497899618
 31
0.0
  0
LINE
  5
AD8
  8
0
 10
447.67502071911082
 20
272.87349497899618
 30
0.0
 11
445.67502071911082
 21
272.87349497899618
 31
0.0
  0
LINE
  5
AD9
  8
0
 10
447.67502071911082
 20
272.81099497899618
 30
0.0
 11
445.67502071911082
 21
272.81099497899618
 31
0.0
  0
LINE
  5
ADA
  8
0
 10
447.67502071911082
 20
272.74849497899618
 30
0.0
 11
445.67502071911082
 21
272.74849497899612
 31
0.0
  0
LINE
  5
ADB
  8
0
 10
447.67502071911082
 20
272.68599497899618
 30
0.0
 11
445.67502071911082
 21
272.68599497899618
 31
0.0
  0
LINE
  5
ADC
  8
0
 10
447.67502071911082
 20
272.62349497899618
 30
0.0
 11
445.67502071911082
 21
272.62349497899618
 31
0.0
  0
LINE
  5
ADD
  8
0
 10
447.67502071911082
 20
272.56099497899618
 30
0.0
 11
445.67502071911082
 21
272.56099497899618
 31
0.0
  0
LINE
  5
ADE
  8
0
 10
447.67502071911082
 20
272.49849497899618
 30
0.0
 11
445.67502071911082
 21
272.49849497899618
 31
0.0
  0
LINE
  5
ADF
  8
0
 10
447.67502071911082
 20
272.43599497899618
 30
0.0
 11
445.67502071911082
 21
272.43599497899612
 31
0.0
  0
LINE
  5
AE0
  8
0
 10
447.67502071911082
 20
272.37349497899618
 30
0.0
 11
445.67502071911082
 21
272.37349497899629
 31
0.0
  0
LINE
  5
AE1
  8
0
 10
447.67502071911082
 20
272.31099497899618
 30
0.0
 11
445.67502071911082
 21
272.31099497899618
 31
0.0
  0
LINE
  5
AE2
  8
0
 10
447.67502071911082
 20
272.24849497899618
 30
0.0
 11
445.67502071911082
 21
272.24849497899618
 31
0.0
  0
LINE
  5
AE3
  8
0
 10
447.67502071911082
 20
272.18599497899618
 30
0.0
 11
445.67502071911082
 21
272.18599497899618
 31
0.0
  0
LINE
  5
AE4
  8
0
 10
447.67502071911082
 20
272.12349497899618
 30
0.0
 11
445.67502071911082
 21
272.12349497899612
 31
0.0
  0
LINE
  5
AE5
  8
0
 10
447.67502071911082
 20
272.06099497899618
 30
0.0
 11
445.67502071911082
 21
272.06099497899618
 31
0.0
  0
LINE
  5
AE6
  8
0
 10
447.67502071911082
 20
273.56099497899618
 30
0.0
 11
445.67502071911082
 21
273.56099497899618
 31
0.0
  0
LINE
  5
AE7
  8
0
 10
447.67502071911082
 20
273.62349497899618
 30
0.0
 11
445.67502071911082
 21
273.62349497899612
 31
0.0
  0
LINE
  5
AE8
  8
0
 10
447.67502071911082
 20
273.68599497899618
 30
0.0
 11
445.67502071911082
 21
273.68599497899618
 31
0.0
  0
LINE
  5
AE9
  8
0
 10
447.67502071911082
 20
273.74849497899618
 30
0.0
 11
445.67502071911082
 21
273.74849497899618
 31
0.0
  0
LINE
  5
AEA
  8
0
 10
447.67502071911082
 20
273.81099497899618
 30
0.0
 11
445.67502071911082
 21
273.81099497899618
 31
0.0
  0
LINE
  5
AEB
  8
0
 10
447.67502071911082
 20
273.87349497899618
 30
0.0
 11
445.67502071911082
 21
273.87349497899618
 31
0.0
  0
LINE
  5
AEC
  8
0
 10
447.67502071911082
 20
273.93599497899618
 30
0.0
 11
445.67502071911082
 21
273.93599497899612
 31
0.0
  0
LINE
  5
AED
  8
0
 10
447.67502071911082
 20
273.99849497899618
 30
0.0
 11
445.67502071911082
 21
273.99849497899618
 31
0.0
  0
LINE
  5
AEE
  8
0
 10
447.67502071911082
 20
274.06099497899618
 30
0.0
 11
445.67502071911082
 21
274.06099497899618
 31
0.0
  0
LINE
  5
AEF
  8
0
 10
447.67502071911082
 20
274.12349497899618
 30
0.0
 11
445.67502071911082
 21
274.12349497899618
 31
0.0
  0
LINE
  5
AF0
  8
0
 10
447.67502071911082
 20
274.18599497899618
 30
0.0
 11
445.67502071911082
 21
274.18599497899618
 31
0.0
  0
LINE
  5
AF1
  8
0
 10
447.67502071911082
 20
274.24849497899618
 30
0.0
 11
445.67502071911082
 21
274.24849497899612
 31
0.0
  0
LINE
  5
AF2
  8
0
 10
447.67502071911082
 20
274.31099497899618
 30
0.0
 11
445.67502071911082
 21
274.31099497899618
 31
0.0
  0
LINE
  5
AF3
  8
0
 10
447.67502071911082
 20
274.37349497899618
 30
0.0
 11
445.67502071911082
 21
274.37349497899618
 31
0.0
  0
LINE
  5
AF4
  8
0
 10
447.67502071911082
 20
274.43599497899618
 30
0.0
 11
445.67502071911082
 21
274.43599497899618
 31
0.0
  0
LINE
  5
AF5
  8
0
 10
447.67502071911082
 20
274.49849497899618
 30
0.0
 11
445.67502071911082
 21
274.49849497899618
 31
0.0
  0
LINE
  5
AF6
  8
0
 10
447.67502071911082
 20
274.56099497899618
 30
0.0
 11
445.67502071911082
 21
274.56099497899612
 31
0.0
  0
LINE
  5
AF7
  8
0
 10
447.67502071911082
 20
274.62349497899618
 30
0.0
 11
445.67502071911082
 21
274.62349497899618
 31
0.0
  0
LINE
  5
AF8
  8
0
 10
447.67502071911082
 20
274.68599497899618
 30
0.0
 11
445.67502071911082
 21
274.68599497899618
 31
0.0
  0
LINE
  5
AF9
  8
0
 10
447.67502071911082
 20
274.74849497899618
 30
0.0
 11
445.67502071911082
 21
274.74849497899618
 31
0.0
  0
LINE
  5
AFA
  8
0
 10
447.67502071911082
 20
274.81099497899618
 30
0.0
 11
445.67502071911082
 21
274.81099497899629
 31
0.0
  0
LINE
  5
AFB
  8
0
 10
447.67502071911082
 20
274.87349497899618
 30
0.0
 11
445.67502071911082
 21
274.87349497899612
 31
0.0
  0
LINE
  5
AFC
  8
0
 10
447.67502071911082
 20
274.93599497899618
 30
0.0
 11
445.67502071911082
 21
274.93599497899618
 31
0.0
  0
LINE
  5
AFD
  8
0
 10
447.67502071911082
 20
274.99849497899618
 30
0.0
 11
445.67502071911082
 21
274.99849497899618
 31
0.0
  0
LINE
  5
AFE
  8
0
 10
447.67502071911082
 20
275.06099497899618
 30
0.0
 11
445.67502071911082
 21
275.06099497899618
 31
0.0
  0
LINE
  5
AFF
  8
0
 10
447.67502071911082
 20
275.12349497899618
 30
0.0
 11
445.67502071911082
 21
275.12349497899618
 31
0.0
  0
LINE
  5
B00
  8
0
 10
447.67502071911082
 20
275.18599497899618
 30
0.0
 11
445.67502071911082
 21
275.18599497899612
 31
0.0
  0
LINE
  5
B01
  8
0
 10
447.67502071911082
 20
275.24849497899618
 30
0.0
 11
445.67502071911082
 21
275.24849497899618
 31
0.0
  0
LINE
  5
B02
  8
0
 10
447.67502071911082
 20
275.31099497899618
 30
0.0
 11
445.67502071911082
 21
275.31099497899618
 31
0.0
  0
LINE
  5
B03
  8
0
 10
447.67502071911082
 20
275.37349497899618
 30
0.0
 11
445.67502071911082
 21
275.37349497899618
 31
0.0
  0
LINE
  5
B04
  8
0
 10
447.67502071911082
 20
275.43599497899618
 30
0.0
 11
445.67502071911082
 21
275.43599497899618
 31
0.0
  0
LINE
  5
B05
  8
0
 10
447.67502071911082
 20
275.49849497899618
 30
0.0
 11
445.67502071911082
 21
275.49849497899612
 31
0.0
  0
LINE
  5
B06
  8
0
 10
447.67502071911082
 20
275.56099497899618
 30
0.0
 11
445.67502071911082
 21
275.56099497899618
 31
0.0
  0
LINE
  5
B07
  8
0
 10
447.67502071911082
 20
275.62349497899618
 30
0.0
 11
445.67502071911082
 21
275.62349497899618
 31
0.0
  0
LINE
  5
B08
  8
0
 10
447.67502071911082
 20
275.68599497899618
 30
0.0
 11
445.67502071911082
 21
275.68599497899618
 31
0.0
  0
LINE
  5
B09
  8
0
 10
447.67502071911082
 20
275.74849497899618
 30
0.0
 11
445.67502071911082
 21
275.74849497899612
 31
0.0
  0
LINE
  5
B0A
  8
0
 10
447.67502071911082
 20
275.81099497899618
 30
0.0
 11
445.67502071911082
 21
275.81099497899612
 31
0.0
  0
LINE
  5
B0B
  8
0
 10
447.67502071911082
 20
275.87349497899618
 30
0.0
 11
445.67502071911082
 21
275.87349497899618
 31
0.0
  0
LINE
  5
B0C
  8
0
 10
447.67502071911082
 20
275.93599497899618
 30
0.0
 11
445.67502071911082
 21
275.93599497899618
 31
0.0
  0
LINE
  5
B0D
  8
0
 10
447.67502071911082
 20
275.99849497899618
 30
0.0
 11
445.67502071911082
 21
275.99849497899618
 31
0.0
  0
LINE
  5
B0E
  8
0
 10
447.67502071911082
 20
276.06099497899618
 30
0.0
 11
445.67502071911082
 21
276.06099497899612
 31
0.0
  0
LINE
  5
B0F
  8
0
 10
447.67502071911082
 20
276.12349497899618
 30
0.0
 11
445.67502071911082
 21
276.12349497899618
 31
0.0
  0
LINE
  5
B10
  8
0
 10
447.67502071911082
 20
276.18599497899618
 30
0.0
 11
445.67502071911082
 21
276.18599497899618
 31
0.0
  0
LINE
  5
B11
  8
0
 10
447.67502071911082
 20
276.24849497899618
 30
0.0
 11
445.67502071911082
 21
276.24849497899618
 31
0.0
  0
LINE
  5
B12
  8
0
 10
447.67502071911082
 20
271.99849497899618
 30
0.0
 11
445.67502071911082
 21
271.99849497899618
 31
0.0
  0
LINE
  5
B13
  8
0
 10
447.67502071911082
 20
271.93599497899618
 30
0.0
 11
445.67502071911082
 21
271.93599497899618
 31
0.0
  0
LINE
  5
B14
  8
0
 10
447.67502071911082
 20
271.87349497899618
 30
0.0
 11
445.67502071911082
 21
271.87349497899618
 31
0.0
  0
LINE
  5
B15
  8
0
 10
447.67502071911082
 20
271.81099497899618
 30
0.0
 11
445.67502071911082
 21
271.81099497899612
 31
0.0
  0
LINE
  5
B16
  8
0
 10
447.67502071911082
 20
271.74849497899618
 30
0.0
 11
445.67502071911082
 21
271.74849497899618
 31
0.0
  0
LINE
  5
B17
  8
0
 10
447.67502071911082
 20
271.68599497899618
 30
0.0
 11
445.67502071911082
 21
271.68599497899618
 31
0.0
  0
LINE
  5
B18
  8
0
 10
447.67502071911082
 20
271.62349497899618
 30
0.0
 11
445.67502071911082
 21
271.62349497899618
 31
0.0
  0
LINE
  5
B19
  8
0
 10
447.67502071911082
 20
271.56099497899618
 30
0.0
 11
445.67502071911082
 21
271.56099497899618
 31
0.0
  0
LINE
  5
B1A
  8
0
 10
447.67502071911082
 20
271.49849497899618
 30
0.0
 11
445.67502071911082
 21
271.49849497899612
 31
0.0
  0
LINE
  5
B1B
  8
0
 10
447.67502071911082
 20
271.43599497899618
 30
0.0
 11
445.67502071911082
 21
271.43599497899618
 31
0.0
  0
LINE
  5
B1C
  8
0
 10
447.67502071911082
 20
271.37349497899618
 30
0.0
 11
445.67502071911082
 21
271.37349497899618
 31
0.0
  0
LINE
  5
B1D
  8
0
 10
447.67502071911082
 20
271.31099497899618
 30
0.0
 11
445.67502071911082
 21
271.31099497899618
 31
0.0
  0
LINE
  5
B1E
  8
0
 10
447.67502071911082
 20
271.24849497899618
 30
0.0
 11
445.67502071911082
 21
271.24849497899618
 31
0.0
  0
LINE
  5
B1F
  8
0
 10
447.67502071911082
 20
271.18599497899618
 30
0.0
 11
445.67502071911082
 21
271.18599497899612
 31
0.0
  0
LINE
  5
B20
  8
0
 10
447.67502071911082
 20
271.12349497899618
 30
0.0
 11
445.67502071911082
 21
271.12349497899618
 31
0.0
  0
LINE
  5
B21
  8
0
 10
447.67502071911082
 20
271.06099497899618
 30
0.0
 11
445.67502071911082
 21
271.06099497899618
 31
0.0
  0
LINE
  5
B22
  8
0
 10
447.67502071911082
 20
270.99849497899618
 30
0.0
 11
445.67502071911082
 21
270.99849497899618
 31
0.0
  0
LINE
  5
B23
  8
0
 10
447.67502071911082
 20
270.93599497899618
 30
0.0
 11
445.67502071911082
 21
270.93599497899612
 31
0.0
  0
LINE
  5
B24
  8
0
 10
447.67502071911082
 20
270.87349497899618
 30
0.0
 11
445.67502071911082
 21
270.87349497899612
 31
0.0
  0
LINE
  5
B25
  8
0
 10
447.67502071911082
 20
270.81099497899618
 30
0.0
 11
445.67502071911082
 21
270.81099497899629
 31
0.0
  0
LINE
  5
B26
  8
0
 10
447.67502071911082
 20
270.74849497899618
 30
0.0
 11
445.67502071911082
 21
270.74849497899618
 31
0.0
  0
LINE
  5
B27
  8
0
 10
447.67502071911082
 20
270.68599497899618
 30
0.0
 11
445.67502071911082
 21
270.68599497899618
 31
0.0
  0
LINE
  5
B28
  8
0
 10
447.67502071911082
 20
270.62349497899618
 30
0.0
 11
445.67502071911082
 21
270.62349497899612
 31
0.0
  0
LINE
  5
B29
  8
0
 10
447.67502071911082
 20
270.56099497899618
 30
0.0
 11
445.67502071911082
 21
270.56099497899629
 31
0.0
  0
LINE
  5
B2A
  8
0
 10
447.67502071911082
 20
270.49849497899618
 30
0.0
 11
445.67502071911082
 21
270.49849497899618
 31
0.0
  0
LINE
  5
B2B
  8
0
 10
447.67502071911082
 20
270.43599497899618
 30
0.0
 11
445.67502071911082
 21
270.43599497899618
 31
0.0
  0
LINE
  5
B2C
  8
0
 10
447.67502071911082
 20
270.24849497899618
 30
0.0
 11
445.67502071911082
 21
270.24849497899618
 31
0.0
  0
LINE
  5
B2D
  8
0
 10
447.67502071911082
 20
270.18599497899618
 30
0.0
 11
445.67502071911082
 21
270.18599497899618
 31
0.0
  0
LINE
  5
B2E
  8
0
 10
447.67502071911082
 20
270.12349497899618
 30
0.0
 11
445.67502071911082
 21
270.12349497899618
 31
0.0
  0
LINE
  5
B2F
  8
0
 10
447.67502071911082
 20
270.06099497899618
 30
0.0
 11
445.67502071911082
 21
270.06099497899618
 31
0.0
  0
LINE
  5
B30
  8
0
 10
447.67502071911082
 20
269.99849497899618
 30
0.0
 11
445.67502071911082
 21
269.99849497899618
 31
0.0
  0
LINE
  5
B31
  8
0
 10
447.67502071911082
 20
269.93599497899618
 30
0.0
 11
445.67502071911082
 21
269.93599497899618
 31
0.0
  0
LINE
  5
B32
  8
0
 10
447.67502071911082
 20
269.87349497899618
 30
0.0
 11
445.67502071911082
 21
269.87349497899618
 31
0.0
  0
LINE
  5
B33
  8
0
 10
447.67502071911082
 20
269.81099497899618
 30
0.0
 11
445.67502071911082
 21
269.81099497899618
 31
0.0
  0
LINE
  5
B34
  8
0
 10
447.67502071911082
 20
269.74849497899618
 30
0.0
 11
445.67502071911082
 21
269.74849497899618
 31
0.0
  0
LINE
  5
B35
  8
0
 10
447.67502071911082
 20
269.68599497899618
 30
0.0
 11
445.67502071911082
 21
269.68599497899618
 31
0.0
  0
LINE
  5
B36
  8
0
 10
447.67502071911082
 20
269.62349497899618
 30
0.0
 11
445.67502071911082
 21
269.62349497899618
 31
0.0
  0
LINE
  5
B37
  8
0
 10
447.67502071911082
 20
269.56099497899618
 30
0.0
 11
445.67502071911082
 21
269.56099497899618
 31
0.0
  0
LINE
  5
B38
  8
0
 10
447.67502071911082
 20
269.49849497899618
 30
0.0
 11
445.67502071911082
 21
269.49849497899618
 31
0.0
  0
LINE
  5
B39
  8
0
 10
447.67502071911082
 20
269.43599497899618
 30
0.0
 11
445.67502071911082
 21
269.43599497899618
 31
0.0
  0
LINE
  5
B3A
  8
0
 10
447.67502071911082
 20
269.37349497899618
 30
0.0
 11
445.67502071911082
 21
269.37349497899618
 31
0.0
  0
LINE
  5
B3B
  8
0
 10
447.67502071911082
 20
269.31099497899618
 30
0.0
 11
445.67502071911082
 21
269.31099497899618
 31
0.0
  0
LINE
  5
B3C
  8
0
 10
447.67502071911082
 20
269.24849497899618
 30
0.0
 11
445.67502071911082
 21
269.24849497899618
 31
0.0
  0
LINE
  5
B3D
  8
0
 10
447.67502071911082
 20
269.18599497899618
 30
0.0
 11
445.67502071911082
 21
269.18599497899618
 31
0.0
  0
LINE
  5
B3E
  8
0
 10
447.67502071911082
 20
269.12349497899618
 30
0.0
 11
445.67502071911082
 21
269.12349497899618
 31
0.0
  0
LINE
  5
B3F
  8
0
 10
447.67502071911082
 20
269.06099497899618
 30
0.0
 11
445.67502071911082
 21
269.06099497899618
 31
0.0
  0
LINE
  5
B40
  8
0
 10
447.67502071911082
 20
268.99849497899618
 30
0.0
 11
445.67502071911082
 21
268.99849497899618
 31
0.0
  0
LINE
  5
B41
  8
0
 10
447.67502071911082
 20
268.93599497899618
 30
0.0
 11
445.67502071911082
 21
268.93599497899618
 31
0.0
  0
LINE
  5
B42
  8
0
 10
447.67502071911082
 20
268.87349497899618
 30
0.0
 11
445.67502071911082
 21
268.87349497899618
 31
0.0
  0
LINE
  5
B43
  8
0
 10
447.67502071911082
 20
268.81099497899618
 30
0.0
 11
445.67502071911082
 21
268.81099497899618
 31
0.0
  0
LINE
  5
B44
  8
0
 10
447.67502071911082
 20
268.74849497899618
 30
0.0
 11
445.67502071911082
 21
268.74849497899618
 31
0.0
  0
LINE
  5
B45
  8
0
 10
447.67502071911082
 20
268.68599497899618
 30
0.0
 11
445.67502071911082
 21
268.68599497899618
 31
0.0
  0
LINE
  5
B46
  8
0
 10
447.67502071911082
 20
268.62349497899618
 30
0.0
 11
445.67502071911082
 21
268.62349497899618
 31
0.0
  0
LINE
  5
B47
  8
0
 10
447.67502071911082
 20
268.56099497899618
 30
0.0
 11
445.67502071911082
 21
268.56099497899618
 31
0.0
  0
LINE
  5
B48
  8
0
 10
447.67502071911082
 20
268.49849497899618
 30
0.0
 11
445.67502071911082
 21
268.49849497899618
 31
0.0
  0
LINE
  5
B49
  8
0
 10
447.67502071911082
 20
268.43599497899618
 30
0.0
 11
445.67502071911082
 21
268.43599497899618
 31
0.0
  0
LINE
  5
B4A
  8
0
 10
447.67502071911082
 20
268.37349497899618
 30
0.0
 11
445.67502071911082
 21
268.37349497899618
 31
0.0
  0
LINE
  5
B4B
  8
0
 10
447.67502071911082
 20
268.31099497899618
 30
0.0
 11
445.67502071911082
 21
268.31099497899618
 31
0.0
  0
LINE
  5
B4C
  8
0
 10
447.67502071911082
 20
268.24849497899618
 30
0.0
 11
445.67502071911082
 21
268.24849497899618
 31
0.0
  0
LINE
  5
B4D
  8
0
 10
447.67502071911082
 20
268.18599497899618
 30
0.0
 11
445.67502071911082
 21
268.18599497899618
 31
0.0
  0
LINE
  5
B4E
  8
0
 10
447.67502071911082
 20
268.12349497899618
 30
0.0
 11
445.67502071911082
 21
268.12349497899618
 31
0.0
  0
LINE
  5
B4F
  8
0
 10
447.67502071911082
 20
268.06099497899618
 30
0.0
 11
445.67502071911082
 21
268.06099497899618
 31
0.0
  0
LINE
  5
B50
  8
0
 10
447.67502071911082
 20
267.99849497899618
 30
0.0
 11
445.67502071911082
 21
267.99849497899618
 31
0.0
  0
LINE
  5
B51
  8
0
 10
447.67502071911082
 20
267.93599497899618
 30
0.0
 11
445.67502071911082
 21
267.93599497899618
 31
0.0
  0
LINE
  5
B52
  8
0
 10
447.67502071911082
 20
267.87349497899618
 30
0.0
 11
445.67502071911082
 21
267.87349497899618
 31
0.0
  0
LINE
  5
B53
  8
0
 10
447.67502071911082
 20
267.81099497899618
 30
0.0
 11
445.67502071911082
 21
267.81099497899618
 31
0.0
  0
LINE
  5
B54
  8
0
 10
447.67502071911082
 20
267.74849497899618
 30
0.0
 11
445.67502071911082
 21
267.74849497899618
 31
0.0
  0
LINE
  5
B55
  8
0
 10
447.67502071911082
 20
267.68599497899618
 30
0.0
 11
445.67502071911082
 21
267.68599497899618
 31
0.0
  0
LINE
  5
B56
  8
0
 10
447.67502071911082
 20
267.62349497899618
 30
0.0
 11
445.67502071911082
 21
267.62349497899618
 31
0.0
  0
LINE
  5
B57
  8
0
 10
447.67502071911082
 20
267.56099497899618
 30
0.0
 11
445.67502071911082
 21
267.56099497899618
 31
0.0
  0
LINE
  5
B58
  8
0
 10
447.67502071911082
 20
267.49849497899618
 30
0.0
 11
445.67502071911082
 21
267.49849497899618
 31
0.0
  0
LINE
  5
B59
  8
0
 10
447.67502071911082
 20
267.43599497899618
 30
0.0
 11
445.67502071911082
 21
267.43599497899618
 31
0.0
  0
LINE
  5
B5A
  8
0
 10
447.67502071911082
 20
267.37349497899618
 30
0.0
 11
445.67502071911082
 21
267.37349497899618
 31
0.0
  0
LINE
  5
B5B
  8
0
 10
447.67502071911082
 20
267.31099497899618
 30
0.0
 11
445.67502071911082
 21
267.31099497899618
 31
0.0
  0
LINE
  5
B5C
  8
0
 10
447.67502071911082
 20
267.24849497899618
 30
0.0
 11
445.67502071911082
 21
267.24849497899618
 31
0.0
  0
LINE
  5
B5D
  8
0
 10
447.67502071911082
 20
267.18599497899618
 30
0.0
 11
445.67502071911082
 21
267.18599497899618
 31
0.0
  0
LINE
  5
B5E
  8
0
 10
447.67502071911082
 20
270.37349497899618
 30
0.0
 11
445.67502071911082
 21
270.37349497899618
 31
0.0
  0
LINE
  5
B5F
  8
0
 10
447.67502071911082
 20
270.31099497899618
 30
0.0
 11
445.67502071911082
 21
270.31099497899612
 31
0.0
  0
LINE
  5
B60
  8
0
 10
454.41224709675498
 20
266.50249766964168
 30
0.0
 11
451.46871358478683
 21
268.58901625387642
 31
0.0
  0
ARC
  5
B61
  8
0
 10
468.10390490731021
 20
268.53629254906048
 30
0.0
 40
13.659786472529619
 50
158.5999609311815
 51
201.40003906881859
  0
LINE
  5
B62
  8
0
 10
452.31274505179448
 20
263.17728012385072
 30
0.0
 11
452.31274485649652
 21
267.37954299518623
 31
0.0
  0
LINE
  5
B63
  8
0
 10
451.21065698615121
 20
268.16075605578749
 30
0.0
 11
454.15419049015821
 21
266.07423747635011
 31
0.0
  0
LINE
  5
B64
  8
0
 10
451.35743186290028
 20
268.0567149409456
 30
0.0
 11
452.31283559078469
 21
265.40735385916582
 31
0.0
  0
LINE
  5
B65
  8
0
 10
453.08759236966762
 20
263.17728014661702
 30
0.0
 11
453.08759225313588
 21
265.26680818889031
 31
0.0
  0
LINE
  5
B66
  8
0
 10
453.08759236966762
 20
263.17728017542561
 30
0.0
 11
452.31274505179448
 21
263.17728014661702
 31
0.0
  0
LINE
  5
B67
  8
0
 10
452.31274499557111
 20
264.38704925958308
 30
0.0
 11
453.93535690614181
 21
266.22935727989022
 31
0.0
  0
LINE
  5
B68
  8
0
 10
454.15419049015821
 20
266.07423747635011
 30
0.0
 11
454.41224709675498
 21
266.50249766964168
 31
0.0
  0
LINE
  5
B69
  8
0
 10
453.55248925871177
 20
266.50075234257258
 30
0.0
 11
452.31274496545842
 21
265.03498838268092
 31
0.0
  0
LINE
  5
B6A
  8
3
 10
454.44429920755698
 20
268.46601735875078
 30
0.0
 11
453.07317617267461
 21
268.46601735875078
 31
0.0
  0
LINE
  5
B6B
  8
0
 10
451.46871358478683
 20
268.58901625387642
 30
0.0
 11
451.21065698615121
 21
268.16075605578749
 31
0.0
  0
LINE
  5
B6C
  8
0
 10
452.3127444768827
 20
275.54776277462628
 30
0.0
 11
452.31274442577711
 21
276.64741209580478
 31
0.0
  0
LINE
  5
B6D
  8
0
 10
451.40805021270683
 20
277.59079016815059
 30
0.0
 11
453.90536921304857
 21
274.98668819586118
 31
0.0
  0
LINE
  5
B6E
  8
0
 10
452.8069531936045
 20
276.13207143374029
 30
0.0
 11
451.83398741555482
 21
274.98172278568921
 31
0.0
  0
LINE
  5
B6F
  8
0
 10
454.21331449657811
 20
272.27694067755499
 30
0.0
 11
451.79185681265278
 21
274.95172889784379
 31
0.0
  0
LINE
  5
B70
  8
0
 10
451.79185681265278
 20
274.95172889784379
 30
0.0
 11
451.44713031021649
 21
274.58956368156191
 31
0.0
  0
LINE
  5
B71
  8
0
 10
453.08759179283629
 20
273.52043539037572
 30
0.0
 11
453.08759166809779
 21
275.75712161433961
 31
0.0
  0
LINE
  5
B72
  8
0
 10
452.31274462210808
 20
272.42292056518812
 30
0.0
 11
452.31274456585231
 21
273.63338970811247
 31
0.0
  0
LINE
  5
B73
  8
0
 10
453.90536921304857
 20
274.98668819586118
 30
0.0
 11
454.23954638527891
 21
275.35860972377588
 31
0.0
  0
LINE
  5
B74
  8
0
 10
452.31274453132369
 20
274.37634641511733
 30
0.0
 11
452.31274450803909
 21
274.87736279574091
 31
0.0
  0
LINE
  5
B75
  8
0
 10
452.08907805079508
 20
274.62341266424602
 30
0.0
 11
453.12538121403719
 21
275.8000277357076
 31
0.0
  0
LINE
  5
B76
  8
0
 10
452.31274439229742
 20
277.36779992635979
 30
0.0
 11
452.31274436956409
 21
277.85695509257289
 31
0.0
  0
LINE
  5
B77
  8
0
 10
452.31274475785898
 20
269.50194136976478
 30
0.0
 11
452.31274471066581
 21
270.51741055742309
 31
0.0
  0
LINE
  5
B78
  8
0
 10
454.12150827790077
 20
269.08758738694019
 30
0.0
 11
451.8418893278847
 21
271.88424374430048
 31
0.0
  0
LINE
  5
B79
  8
0
 10
451.47886130885661
 20
271.54042596877548
 30
0.0
 11
453.75848025248132
 21
268.74376961816381
 31
0.0
  0
LINE
  5
B7A
  8
0
 10
452.73425511739993
 20
270.00029792369151
 30
0.0
 11
451.51365038209951
 21
268.55716288365733
 31
0.0
  0
LINE
  5
B7B
  8
0
 10
451.86479359374658
 20
268.314370711084
 30
0.0
 11
453.0300564915733
 21
269.63740622465758
 31
0.0
  0
LINE
  5
B7C
  8
0
 10
453.08759213185601
 20
267.44147702582109
 30
0.0
 11
453.08759201332703
 21
269.5668211460644
 31
0.0
  0
LINE
  5
B7D
  8
0
 10
454.4819446699496
 20
267.52043539037572
 30
0.0
 11
453.08759212745258
 21
267.52043539037572
 31
0.0
  0
LINE
  5
B7E
  8
0
 10
454.4819446699488
 20
267.52043539037572
 30
0.0
 11
453.89938045321247
 21
267.52043539037572
 31
0.0
  0
LINE
  5
B7F
  8
0
 10
454.4819446699484
 20
267.52043539037572
 30
0.0
 11
453.10200741299798
 21
267.52043539037572
 31
0.0
  0
LINE
  5
B80
  8
0
 10
453.75848025248132
 20
268.74376961816381
 30
0.0
 11
454.12150827790077
 21
269.08758738694019
 31
0.0
  0
LINE
  5
B81
  8
0
 10
452.31274482809209
 20
267.99072618254871
 30
0.0
 11
452.31274478941378
 21
268.82297296841199
 31
0.0
  0
LINE
  5
B82
  8
0
 10
451.8418893278847
 20
271.88424374430048
 30
0.0
 11
451.47886130885661
 21
271.54042596877548
 31
0.0
  0
LINE
  5
B83
  8
0
 10
452.31274467398879
 20
271.30659430992051
 30
0.0
 11
452.31274465320269
 21
271.75385159452401
 31
0.0
  0
LINE
  5
B84
  8
0
 10
453.0875919693147
 20
270.3560049079324
 30
0.0
 11
453.08759184229399
 21
272.63361044608649
 31
0.0
  0
LINE
  5
B85
  8
0
 10
451.44713031021649
 20
274.58956368156191
 30
0.0
 11
453.86858798740923
 21
271.91477546768152
 31
0.0
  0
LINE
  5
B86
  8
0
 10
452.8248905614501
 20
273.02843660924458
 30
0.0
 11
451.86235823332692
 21
271.89042354923589
 31
0.0
  0
LINE
  5
B87
  8
0
 10
453.86858798740923
 20
271.91477546768152
 30
0.0
 11
454.21331449657811
 21
272.27694067755499
 31
0.0
  0
LINE
  5
B88
  8
0
 10
452.12340579158399
 20
271.53887689783681
 30
0.0
 11
453.13430639669889
 21
272.68664999157761
 31
0.0
  0
LINE
  5
B89
  8
0
 10
454.23954638527891
 20
275.35860972377588
 30
0.0
 11
451.7422273780233
 21
277.9627117022776
 31
0.0
  0
LINE
  5
B8A
  8
0
 10
451.7422273780233
 20
277.9627117022776
 30
0.0
 11
451.40805021270683
 21
277.59079016815059
 31
0.0
  0
ARC
  5
B8B
  8
0
 10
450.78576916191412
 20
268.53629254906048
 30
0.0
 40
13.659786472529619
 50
338.59996093118139
 51
21.400039068818511
  0
LINE
  5
B8C
  8
3
 10
468.15546670612167
 20
268.46601735875089
 30
0.0
 11
464.44537486166729
 21
268.46601735875078
 31
0.0
  0
LINE
  5
B8D
  8
0
 10
468.6748368816817
 20
268.66399412581342
 30
0.0
 11
465.6748368816817
 21
267.52043539037572
 31
0.0
  0
LINE
  5
B8E
  8
0
 10
465.67483688168193
 20
267.52043539037572
 30
0.0
 11
464.4077293992753
 21
267.52043539037572
 31
0.0
  0
LINE
  5
B90
  8
0
 10
426.37502071911081
 20
285.52043004851669
 30
0.0
 11
426.37502071911081
 21
388.5204300535828
 31
0.0
210
-1.0
220
0.0
230
0.0
  0
LINE
  5
B91
  8
0
 10
445.67502071911082
 20
367.52043004851669
 30
0.0
 11
445.67502071911082
 21
347.5204300485168
 31
0.0
210
-1.0
220
0.0
230
0.0
  0
LINE
  5
B92
  8
0
 10
445.67502071911082
 20
367.52043004851691
 30
0.0
 11
445.67502071911082
 21
347.5204300485168
 31
0.0
  0
LINE
  5
B93
  8
1
 10
450.0674552649707
 20
337.0204300485168
 30
0.0
 11
421.37502071911081
 21
337.0204300485168
 31
0.0
  0
LINE
  5
B94
  8
0
 10
426.37502071911081
 20
285.5204300445377
 30
0.0
 11
420.97502071911072
 21
285.42791819933109
 31
0.0
1001
ACAD
1000
ASC_BOUNDS
1002
{
1070
    19
1002
}
  0
LINE
  5
B95
  8
0
 10
421.23728044477929
 20
281.8909058579211
 30
0.0
 11
420.99963653902682
 21
281.65326195216892
 31
0.0
  0
LINE
  5
B96
  8
0
 10
420.97502071911072
 20
285.42791819933109
 30
0.0
 11
420.97502071911072
 21
282.27043004345069
 31
0.0
1001
ACAD
1000
ASC_BOUNDS
1002
{
1070
    19
1002
}
  0
LINE
  5
B97
  8
0
 10
445.67502071911082
 20
306.52043004851669
 30
0.0
 11
445.67502071911082
 21
326.5204300485168
 31
0.0
210
-1.0
220
0.0
230
0.0
  0
LINE
  5
B98
  8
0
 10
445.67502071911082
 20
326.5204300485168
 30
0.0
 11
445.67502071911082
 21
306.52043004851669
 31
0.0
  0
LINE
  5
B99
  8
0
 10
455.38588466720631
 20
283.48873515222181
 30
0.0
 11
463.50378940201767
 21
283.48873545404211
 31
0.0
  0
LINE
  5
B9A
  8
0
 10
445.0674552649707
 20
306.52043004851669
 30
0.0
 11
445.0674552649707
 21
285.5257321919093
 31
0.0
  0
LINE
  5
B9B
  8
0
 10
435.67502071911082
 20
287.59032114761419
 30
0.0
 11
435.67502071911082
 21
304.45053894941918
 31
0.0
210
-1.0
220
0.0
230
0.0
  0
LINE
  5
B9C
  8
0
 10
442.56745526497082
 20
306.52043004851669
 30
0.0
 11
442.56745526497082
 21
285.54224721799369
 31
0.0
  0
LINE
  5
B9D
  8
3
 10
452.33797954442838
 20
278.57485342200061
 30
0.0
 11
447.67502071911082
 21
278.57485342200061
 31
0.0
  0
LINE
  5
B9E
  8
0
 10
452.23707020329653
 20
279.52043539037572
 30
0.0
 11
447.67502071911082
 21
279.52043539037572
 31
0.0
1001
ACAD
1000
ASC_BOUNDS
1002
{
1070
    19
1002
}
  0
LINE
  5
B9F
  8
0
 10
445.67502071911082
 20
285.52043004851669
 30
0.0
 11
437.65756764811408
 21
285.59039730148589
 31
0.0
210
-1.0
220
0.0
230
0.0
  0
ARC
  5
BA0
  8
CONTORNO
 10
-437.67479728315197
 20
287.59029455008073
 30
0.0
 40
1.999807807308849
210
0.0
220
0.0
230
-1.0
 50
316.59519209500962
 51
328.26444451663372
  0
ARC
  5
BA1
  8
CONTORNO
 10
-437.67610092640348
 20
287.59119658340398
 30
0.0
 40
2.0013894479760168
210
0.0
220
0.0
230
-1.0
 50
323.10656676054907
 51
329.4115351074816
  0
ARC
  5
BA2
  8
CONTORNO
 10
-437.66802612171909
 20
287.58934700107937
 30
0.0
 40
1.992954734182248
210
0.0
220
0.0
230
-1.0
 50
347.36831242913968
 51
354.04509869991102
  0
ARC
  5
BA3
  8
CONTORNO
 10
-437.67736521370119
 20
287.59032114761419
 30
0.0
 40
2.0023444945905071
210
0.0
220
0.0
230
-1.0
 50
353.68425964108599
 51
0.0
  0
ARC
  5
BA4
  8
CONTORNO
 10
-437.67191798970981
 20
287.58851379292793
 30
0.0
 40
1.9964223344077949
210
0.0
220
0.0
230
-1.0
 50
328.26444451663281
 51
334.67550411981978
  0
ARC
  5
BA5
  8
CONTORNO
 10
-437.67949802017591
 20
287.5917631185867
 30
0.0
 40
2.0046783035198281
210
0.0
220
0.0
230
-1.0
 50
335.80744751676792
 51
348.10665047566641
  0
ARC
  5
BA6
  8
CONTORNO
 10
-437.66982089200411
 20
287.5874842877447
 30
0.0
 40
1.9940942460515709
210
0.0
220
0.0
230
-1.0
 50
329.4115351074812
 51
335.80744751677258
  0
ARC
  5
BA7
  8
CONTORNO
 10
-437.6768624607667
 20
287.59085362048319
 30
0.0
 40
2.0018924886123188
210
0.0
220
0.0
230
-1.0
 50
334.67550411974759
 51
341.02313776965008
  0
ARC
  5
BA8
  8
CONTORNO
 10
-437.67503695043979
 20
287.59218107370828
 30
0.0
 40
2.0018599969170641
210
0.0
220
0.0
230
-1.0
 50
270.50000000000063
 51
277.14826659736991
  0
ARC
  5
BA9
  8
CONTORNO
 10
-437.6756760867404
 20
287.59098425049717
 30
0.0
 40
2.0009249386402028
210
0.0
220
0.0
230
-1.0
 50
315.45522326424731
 51
321.8745573510347
  0
ARC
  5
BAA
  8
CONTORNO
 10
-437.67438405729558
 20
287.58928429949088
 30
0.0
 40
1.9987969657992151
210
0.0
220
0.0
230
-1.0
 50
303.5582597375415
 51
310.15378746894982
  0
ARC
  5
BAB
  8
CONTORNO
 10
-437.67649857179288
 20
287.59453509379063
 30
0.0
 40
2.0044445528252881
210
0.0
220
0.0
230
-1.0
 50
283.34099589871693
 51
290.37598155306688
  0
ARC
  5
BAC
  8
CONTORNO
 10
-437.67550948337322
 20
287.59187209883021
 30
0.0
 40
2.001603806785671
210
0.0
220
0.0
230
-1.0
 50
289.75352504484749
 51
296.99513068160491
  0
ARC
  5
BAD
  8
CONTORNO
 10
-437.6735530031346
 20
287.5880314832973
 30
0.0
 40
1.99729356983226
210
0.0
220
0.0
230
-1.0
 50
296.17474023086493
 51
303.5582597375406
  0
ARC
  5
BAE
  8
CONTORNO
 10
-437.67471754190149
 20
287.58972044800117
 30
0.0
 40
1.999342481470533
210
0.0
220
0.0
230
-1.0
 50
302.61256550464088
 51
309.0455603936702
  0
ARC
  5
BAF
  8
CONTORNO
 10
-437.67657062392328
 20
287.59187598888019
 30
0.0
 40
2.0021878252046581
210
0.0
220
0.0
230
-1.0
 50
309.04556039366531
 51
316.59519209500678
  0
ARC
  5
BB0
  8
CONTORNO
 10
-437.67410967768382
 20
287.58478727079319
 30
0.0
 40
1.9944082752158849
210
0.0
220
0.0
230
-1.0
 50
276.92280236939939
 51
283.77005719800201
  0
LINE
  5
BB1
  8
0
 10
446.17502071911082
 20
285.02043539037572
 30
0.0
 11
447.67502071911082
 21
285.02043539037572
 31
0.0
1001
ACAD
1000
ASC_BOUNDS
1002
{
1070
    19
1002
}
  0
LINE
  5
BB2
  8
0
 10
447.67502071911082
 20
283.74849497899618
 30
0.0
 11
446.17502071911082
 21
283.74849497899618
 31
0.0
  0
LINE
  5
BB3
  8
0
 10
447.67502071911082
 20
283.81099497899618
 30
0.0
 11
446.17502071911082
 21
283.81099497899618
 31
0.0
  0
LINE
  5
BB4
  8
0
 10
447.67502071911082
 20
283.87349497899618
 30
0.0
 11
446.17502071911082
 21
283.87349497899618
 31
0.0
  0
LINE
  5
BB5
  8
0
 10
447.67502071911082
 20
283.93599497899618
 30
0.0
 11
446.17502071911082
 21
283.93599497899618
 31
0.0
  0
LINE
  5
BB6
  8
0
 10
447.67502071911082
 20
283.99849497899612
 30
0.0
 11
446.17502071911082
 21
283.99849497899612
 31
0.0
  0
LINE
  5
BB7
  8
0
 10
447.67502071911082
 20
284.06099497899618
 30
0.0
 11
446.17502071911082
 21
284.06099497899618
 31
0.0
  0
LINE
  5
BB8
  8
0
 10
447.67502071911082
 20
284.12349497899618
 30
0.0
 11
446.17502071911082
 21
284.12349497899618
 31
0.0
  0
LINE
  5
BB9
  8
0
 10
447.67502071911082
 20
284.18599497899618
 30
0.0
 11
446.17502071911082
 21
284.18599497899618
 31
0.0
  0
LINE
  5
BBA
  8
0
 10
447.67502071911082
 20
284.24849497899618
 30
0.0
 11
446.17502071911082
 21
284.24849497899618
 31
0.0
  0
LINE
  5
BBB
  8
0
 10
447.67502071911082
 20
284.31099497899618
 30
0.0
 11
446.17502071911082
 21
284.31099497899618
 31
0.0
  0
LINE
  5
BBC
  8
0
 10
447.67502071911082
 20
284.37349497899618
 30
0.0
 11
446.17502071911082
 21
284.37349497899618
 31
0.0
  0
LINE
  5
BBD
  8
0
 10
447.67502071911082
 20
284.43599497899618
 30
0.0
 11
446.17502071911082
 21
284.43599497899618
 31
0.0
  0
LINE
  5
BBE
  8
0
 10
447.67502071911082
 20
284.49849497899618
 30
0.0
 11
446.17502071911082
 21
284.49849497899618
 31
0.0
  0
LINE
  5
BBF
  8
0
 10
447.67502071911082
 20
284.56099497899618
 30
0.0
 11
446.17502071911082
 21
284.56099497899618
 31
0.0
  0
LINE
  5
BC0
  8
0
 10
447.67502071911082
 20
284.62349497899618
 30
0.0
 11
446.17502071911082
 21
284.62349497899618
 31
0.0
  0
LINE
  5
BC1
  8
0
 10
447.67502071911082
 20
284.68599497899618
 30
0.0
 11
446.17502071911082
 21
284.68599497899618
 31
0.0
  0
LINE
  5
BC2
  8
0
 10
447.67502071911082
 20
284.74849497899618
 30
0.0
 11
446.17502071911082
 21
284.74849497899618
 31
0.0
  0
LINE
  5
BC3
  8
0
 10
447.67502071911082
 20
284.81099497899618
 30
0.0
 11
446.17502071911082
 21
284.81099497899618
 31
0.0
  0
LINE
  5
BC4
  8
0
 10
447.67502071911082
 20
284.87349497899618
 30
0.0
 11
446.17502071911082
 21
284.87349497899618
 31
0.0
  0
LINE
  5
BC5
  8
0
 10
447.67502071911082
 20
284.93599497899618
 30
0.0
 11
446.17502071911082
 21
284.93599497899618
 31
0.0
  0
LINE
  5
BC6
  8
0
 10
447.67502071911082
 20
284.99849497899618
 30
0.0
 11
446.17502071911082
 21
284.99849497899618
 31
0.0
  0
LINE
  5
BC7
  8
0
 10
447.67502071911082
 20
282.43599497899629
 30
0.0
 11
446.17502071911082
 21
282.43599497899612
 31
0.0
  0
LINE
  5
BC8
  8
0
 10
447.67502071911082
 20
282.49849497899618
 30
0.0
 11
446.17502071911082
 21
282.49849497899618
 31
0.0
  0
LINE
  5
BC9
  8
0
 10
447.67502071911082
 20
282.56099497899618
 30
0.0
 11
446.17502071911082
 21
282.56099497899618
 31
0.0
  0
LINE
  5
BCA
  8
0
 10
447.67502071911082
 20
282.62349497899629
 30
0.0
 11
446.17502071911082
 21
282.62349497899618
 31
0.0
  0
LINE
  5
BCB
  8
0
 10
447.67502071911082
 20
282.68599497899618
 30
0.0
 11
446.17502071911082
 21
282.68599497899618
 31
0.0
  0
LINE
  5
BCC
  8
0
 10
447.67502071911082
 20
282.74849497899618
 30
0.0
 11
446.17502071911082
 21
282.74849497899612
 31
0.0
  0
LINE
  5
BCD
  8
0
 10
447.67502071911082
 20
282.81099497899618
 30
0.0
 11
446.17502071911082
 21
282.81099497899618
 31
0.0
  0
LINE
  5
BCE
  8
0
 10
447.67502071911082
 20
282.87349497899618
 30
0.0
 11
446.17502071911082
 21
282.87349497899618
 31
0.0
  0
LINE
  5
BCF
  8
0
 10
447.67502071911082
 20
282.93599497899618
 30
0.0
 11
446.17502071911082
 21
282.93599497899618
 31
0.0
  0
LINE
  5
BD0
  8
0
 10
447.67502071911082
 20
282.99849497899618
 30
0.0
 11
446.17502071911082
 21
282.99849497899618
 31
0.0
  0
LINE
  5
BD1
  8
0
 10
447.67502071911082
 20
283.06099497899629
 30
0.0
 11
446.17502071911082
 21
283.06099497899618
 31
0.0
  0
LINE
  5
BD2
  8
0
 10
447.67502071911082
 20
283.12349497899618
 30
0.0
 11
446.17502071911082
 21
283.12349497899618
 31
0.0
  0
LINE
  5
BD3
  8
0
 10
447.67502071911082
 20
283.18599497899618
 30
0.0
 11
446.17502071911082
 21
283.18599497899618
 31
0.0
  0
LINE
  5
BD4
  8
0
 10
447.67502071911082
 20
283.24849497899618
 30
0.0
 11
446.17502071911082
 21
283.24849497899618
 31
0.0
  0
LINE
  5
BD5
  8
0
 10
447.67502071911082
 20
283.31099497899618
 30
0.0
 11
446.17502071911082
 21
283.31099497899618
 31
0.0
  0
LINE
  5
BD6
  8
0
 10
447.67502071911082
 20
283.37349497899618
 30
0.0
 11
446.17502071911082
 21
283.37349497899618
 31
0.0
  0
LINE
  5
BD7
  8
0
 10
447.67502071911082
 20
283.43599497899618
 30
0.0
 11
446.17502071911082
 21
283.43599497899618
 31
0.0
  0
LINE
  5
BD8
  8
0
 10
447.67502071911082
 20
283.49849497899618
 30
0.0
 11
446.17502071911082
 21
283.49849497899618
 31
0.0
  0
LINE
  5
BD9
  8
0
 10
447.67502071911082
 20
283.56099497899618
 30
0.0
 11
446.17502071911082
 21
283.56099497899618
 31
0.0
  0
LINE
  5
BDA
  8
0
 10
447.67502071911082
 20
283.62349497899618
 30
0.0
 11
446.17502071911082
 21
283.62349497899618
 31
0.0
  0
LINE
  5
BDB
  8
0
 10
447.67502071911082
 20
283.68599497899618
 30
0.0
 11
446.17502071911082
 21
283.68599497899618
 31
0.0
  0
LINE
  5
BDC
  8
0
 10
447.67502071911082
 20
282.12349497899618
 30
0.0
 11
445.67502071911082
 21
282.12349497899618
 31
0.0
  0
LINE
  5
BDD
  8
0
 10
447.67502071911082
 20
282.18599497899629
 30
0.0
 11
445.67502071911082
 21
282.18599497899612
 31
0.0
  0
LINE
  5
BDE
  8
0
 10
447.67502071911082
 20
282.24849497899618
 30
0.0
 11
445.67502071911082
 21
282.24849497899618
 31
0.0
  0
LINE
  5
BDF
  8
0
 10
447.67502071911082
 20
282.31099497899618
 30
0.0
 11
445.67502071911082
 21
282.31099497899618
 31
0.0
  0
LINE
  5
BE0
  8
0
 10
447.67502071911082
 20
282.37349497899618
 30
0.0
 11
445.67502071911082
 21
282.37349497899618
 31
0.0
  0
LINE
  5
BE1
  8
0
 10
447.67502071911082
 20
278.06099497899618
 30
0.0
 11
445.67502071911082
 21
278.06099497899618
 31
0.0
  0
LINE
  5
BE2
  8
0
 10
447.67502071911082
 20
278.12349497899618
 30
0.0
 11
445.67502071911082
 21
278.12349497899618
 31
0.0
  0
LINE
  5
BE3
  8
0
 10
447.67502071911082
 20
278.18599497899618
 30
0.0
 11
445.67502071911082
 21
278.18599497899612
 31
0.0
  0
LINE
  5
BE4
  8
0
 10
447.67502071911082
 20
278.24849497899618
 30
0.0
 11
445.67502071911082
 21
278.24849497899612
 31
0.0
  0
LINE
  5
BE5
  8
0
 10
447.67502071911082
 20
278.31099497899618
 30
0.0
 11
445.67502071911082
 21
278.31099497899618
 31
0.0
  0
LINE
  5
BE6
  8
0
 10
447.67502071911082
 20
278.37349497899618
 30
0.0
 11
445.67502071911082
 21
278.37349497899618
 31
0.0
  0
LINE
  5
BE7
  8
0
 10
447.67502071911082
 20
278.43599497899618
 30
0.0
 11
445.67502071911082
 21
278.43599497899618
 31
0.0
  0
LINE
  5
BE8
  8
0
 10
447.67502071911082
 20
278.49849497899618
 30
0.0
 11
445.67502071911082
 21
278.49849497899612
 31
0.0
  0
LINE
  5
BE9
  8
0
 10
447.67502071911082
 20
278.56099497899618
 30
0.0
 11
445.67502071911082
 21
278.56099497899618
 31
0.0
  0
LINE
  5
BEA
  8
0
 10
447.67502071911082
 20
278.62349497899618
 30
0.0
 11
445.67502071911082
 21
278.62349497899618
 31
0.0
  0
LINE
  5
BEB
  8
0
 10
447.67502071911082
 20
278.68599497899618
 30
0.0
 11
445.67502071911082
 21
278.68599497899618
 31
0.0
  0
LINE
  5
BEC
  8
0
 10
447.67502071911082
 20
278.74849497899618
 30
0.0
 11
445.67502071911082
 21
278.74849497899618
 31
0.0
  0
LINE
  5
BED
  8
0
 10
447.67502071911082
 20
278.81099497899618
 30
0.0
 11
445.67502071911082
 21
278.81099497899612
 31
0.0
  0
LINE
  5
BEE
  8
0
 10
447.67502071911082
 20
278.87349497899618
 30
0.0
 11
445.67502071911082
 21
278.87349497899618
 31
0.0
  0
LINE
  5
BEF
  8
0
 10
447.67502071911082
 20
278.93599497899618
 30
0.0
 11
445.67502071911082
 21
278.93599497899618
 31
0.0
  0
LINE
  5
BF0
  8
0
 10
447.67502071911082
 20
278.99849497899618
 30
0.0
 11
445.67502071911082
 21
278.99849497899618
 31
0.0
  0
LINE
  5
BF1
  8
0
 10
447.67502071911082
 20
279.06099497899618
 30
0.0
 11
445.67502071911082
 21
279.06099497899629
 31
0.0
  0
LINE
  5
BF2
  8
0
 10
447.67502071911082
 20
279.12349497899618
 30
0.0
 11
445.67502071911082
 21
279.12349497899612
 31
0.0
  0
LINE
  5
BF3
  8
0
 10
447.67502071911082
 20
279.18599497899618
 30
0.0
 11
445.67502071911082
 21
279.18599497899618
 31
0.0
  0
LINE
  5
BF4
  8
0
 10
447.67502071911082
 20
279.24849497899618
 30
0.0
 11
445.67502071911082
 21
279.24849497899618
 31
0.0
  0
LINE
  5
BF5
  8
0
 10
447.67502071911082
 20
279.31099497899618
 30
0.0
 11
445.67502071911082
 21
279.31099497899618
 31
0.0
  0
LINE
  5
BF6
  8
0
 10
447.67502071911082
 20
279.37349497899618
 30
0.0
 11
445.67502071911082
 21
279.37349497899618
 31
0.0
  0
LINE
  5
BF7
  8
0
 10
447.67502071911082
 20
279.43599497899618
 30
0.0
 11
445.67502071911082
 21
279.43599497899612
 31
0.0
  0
LINE
  5
BF8
  8
0
 10
447.67502071911082
 20
279.49849497899618
 30
0.0
 11
445.67502071911082
 21
279.49849497899618
 31
0.0
  0
LINE
  5
BF9
  8
0
 10
447.67502071911082
 20
279.56099497899618
 30
0.0
 11
445.67502071911082
 21
279.56099497899618
 31
0.0
  0
LINE
  5
BFA
  8
0
 10
447.67502071911082
 20
279.62349497899618
 30
0.0
 11
445.67502071911082
 21
279.62349497899618
 31
0.0
  0
LINE
  5
BFB
  8
0
 10
447.67502071911082
 20
279.68599497899618
 30
0.0
 11
445.67502071911082
 21
279.68599497899618
 31
0.0
  0
LINE
  5
BFC
  8
0
 10
447.67502071911082
 20
279.74849497899618
 30
0.0
 11
445.67502071911082
 21
279.74849497899612
 31
0.0
  0
LINE
  5
BFD
  8
0
 10
447.67502071911082
 20
279.81099497899618
 30
0.0
 11
445.67502071911082
 21
279.81099497899618
 31
0.0
  0
LINE
  5
BFE
  8
0
 10
447.67502071911082
 20
279.87349497899618
 30
0.0
 11
445.67502071911082
 21
279.87349497899618
 31
0.0
  0
LINE
  5
BFF
  8
0
 10
447.67502071911082
 20
279.93599497899618
 30
0.0
 11
445.67502071911082
 21
279.93599497899618
 31
0.0
  0
LINE
  5
C00
  8
0
 10
447.67502071911082
 20
279.99849497899618
 30
0.0
 11
445.67502071911082
 21
279.99849497899618
 31
0.0
  0
LINE
  5
C01
  8
0
 10
447.67502071911082
 20
280.06099497899618
 30
0.0
 11
445.67502071911082
 21
280.06099497899612
 31
0.0
  0
LINE
  5
C02
  8
0
 10
447.67502071911082
 20
280.12349497899618
 30
0.0
 11
445.67502071911082
 21
280.12349497899618
 31
0.0
  0
LINE
  5
C03
  8
0
 10
447.67502071911082
 20
280.18599497899618
 30
0.0
 11
445.67502071911082
 21
280.18599497899618
 31
0.0
  0
LINE
  5
C04
  8
0
 10
447.67502071911082
 20
280.24849497899618
 30
0.0
 11
445.67502071911082
 21
280.24849497899618
 31
0.0
  0
LINE
  5
C05
  8
0
 10
447.67502071911082
 20
280.31099497899618
 30
0.0
 11
445.67502071911082
 21
280.31099497899618
 31
0.0
  0
LINE
  5
C06
  8
0
 10
447.67502071911082
 20
280.37349497899618
 30
0.0
 11
445.67502071911082
 21
280.37349497899612
 31
0.0
  0
LINE
  5
C07
  8
0
 10
447.67502071911082
 20
280.43599497899618
 30
0.0
 11
445.67502071911082
 21
280.43599497899618
 31
0.0
  0
LINE
  5
C08
  8
0
 10
447.67502071911082
 20
280.49849497899618
 30
0.0
 11
445.67502071911082
 21
280.49849497899618
 31
0.0
  0
LINE
  5
C09
  8
0
 10
447.67502071911082
 20
280.56099497899618
 30
0.0
 11
445.67502071911082
 21
280.56099497899618
 31
0.0
  0
LINE
  5
C0A
  8
0
 10
447.67502071911082
 20
280.62349497899618
 30
0.0
 11
445.67502071911082
 21
280.62349497899629
 31
0.0
  0
LINE
  5
C0B
  8
0
 10
447.67502071911082
 20
280.68599497899618
 30
0.0
 11
445.67502071911082
 21
280.68599497899612
 31
0.0
  0
LINE
  5
C0C
  8
0
 10
447.67502071911082
 20
280.74849497899618
 30
0.0
 11
445.67502071911082
 21
280.74849497899618
 31
0.0
  0
LINE
  5
C0D
  8
0
 10
447.67502071911082
 20
280.81099497899618
 30
0.0
 11
445.67502071911082
 21
280.81099497899618
 31
0.0
  0
LINE
  5
C0E
  8
0
 10
447.67502071911082
 20
280.87349497899612
 30
0.0
 11
445.67502071911082
 21
280.87349497899629
 31
0.0
  0
LINE
  5
C0F
  8
0
 10
447.67502071911082
 20
280.93599497899618
 30
0.0
 11
445.67502071911082
 21
280.93599497899612
 31
0.0
  0
LINE
  5
C10
  8
0
 10
447.67502071911082
 20
280.99849497899618
 30
0.0
 11
445.67502071911082
 21
280.99849497899618
 31
0.0
  0
LINE
  5
C11
  8
0
 10
447.67502071911082
 20
281.06099497899618
 30
0.0
 11
445.67502071911082
 21
281.06099497899618
 31
0.0
  0
LINE
  5
C12
  8
0
 10
447.67502071911082
 20
281.12349497899618
 30
0.0
 11
445.67502071911082
 21
281.12349497899618
 31
0.0
  0
LINE
  5
C13
  8
0
 10
447.67502071911082
 20
281.18599497899618
 30
0.0
 11
445.67502071911082
 21
281.18599497899618
 31
0.0
  0
LINE
  5
C14
  8
0
 10
447.67502071911082
 20
281.24849497899618
 30
0.0
 11
445.67502071911082
 21
281.24849497899612
 31
0.0
  0
LINE
  5
C15
  8
0
 10
447.67502071911082
 20
281.31099497899618
 30
0.0
 11
445.67502071911082
 21
281.31099497899618
 31
0.0
  0
LINE
  5
C16
  8
0
 10
447.67502071911082
 20
281.37349497899618
 30
0.0
 11
445.67502071911082
 21
281.37349497899618
 31
0.0
  0
LINE
  5
C17
  8
0
 10
447.67502071911082
 20
281.43599497899618
 30
0.0
 11
445.67502071911082
 21
281.43599497899618
 31
0.0
  0
LINE
  5
C18
  8
0
 10
447.67502071911082
 20
281.49849497899618
 30
0.0
 11
445.67502071911082
 21
281.49849497899629
 31
0.0
  0
LINE
  5
C19
  8
0
 10
447.67502071911082
 20
281.56099497899618
 30
0.0
 11
445.67502071911082
 21
281.56099497899612
 31
0.0
  0
LINE
  5
C1A
  8
0
 10
447.67502071911082
 20
281.62349497899618
 30
0.0
 11
445.67502071911082
 21
281.62349497899618
 31
0.0
  0
LINE
  5
C1B
  8
0
 10
447.67502071911082
 20
281.68599497899618
 30
0.0
 11
445.67502071911082
 21
281.68599497899618
 31
0.0
  0
LINE
  5
C1C
  8
0
 10
447.67502071911082
 20
281.74849497899618
 30
0.0
 11
445.67502071911082
 21
281.74849497899618
 31
0.0
  0
LINE
  5
C1D
  8
0
 10
447.67502071911082
 20
281.81099497899618
 30
0.0
 11
445.67502071911082
 21
281.81099497899618
 31
0.0
  0
LINE
  5
C1E
  8
0
 10
447.67502071911082
 20
281.87349497899618
 30
0.0
 11
445.67502071911082
 21
281.87349497899612
 31
0.0
  0
LINE
  5
C1F
  8
0
 10
447.67502071911082
 20
281.93599497899618
 30
0.0
 11
445.67502071911082
 21
281.93599497899618
 31
0.0
  0
LINE
  5
C20
  8
0
 10
447.67502071911082
 20
281.99849497899618
 30
0.0
 11
445.67502071911082
 21
281.99849497899618
 31
0.0
  0
LINE
  5
C21
  8
0
 10
447.67502071911082
 20
282.06099497899618
 30
0.0
 11
445.67502071911082
 21
282.06099497899618
 31
0.0
  0
LINE
  5
C22
  8
0
 10
446.17502071911082
 20
282.4204353903757
 30
0.0
 11
445.67502071911082
 21
282.4204353903757
 31
0.0
1001
ACAD
1000
ASC_BOUNDS
1002
{
1070
    19
1002
}
  0
LINE
  5
C23
  8
0
 10
446.17502071911082
 20
282.4204353903757
 30
0.0
 11
446.17502071911082
 21
285.02043539037572
 31
0.0
1001
ACAD
1000
ASC_BOUNDS
1002
{
1070
    19
1002
}
  0
LINE
  5
C24
  8
3
 10
454.44429915978827
 20
278.5748534220005
 30
0.0
 11
453.10200741299798
 21
278.5748534220005
 31
0.0
  0
LINE
  5
C25
  8
0
 10
454.53752442303272
 20
278.96954369869792
 30
0.0
 11
451.29324139837053
 21
280.54833342324179
 31
0.0
  0
LINE
  5
C26
  8
0
 10
451.10844644455409
 20
280.08373593034031
 30
0.0
 11
454.35272946057938
 21
278.50494620923172
 31
0.0
  0
LINE
  5
C27
  8
0
 10
451.29324139837053
 20
280.54833342324179
 30
0.0
 11
451.10844644455409
 21
280.08373593034031
 31
0.0
  0
LINE
  5
C28
  8
0
 10
453.08759144959259
 20
279.67513543109089
 30
0.0
 11
453.08759122639538
 21
283.67728021376951
 31
0.0
  0
LINE
  5
C29
  8
0
 10
452.3127442187116
 20
281.10287755178831
 30
0.0
 11
452.31274409906757
 21
283.67728012385061
 31
0.0
  0
LINE
  5
C2A
  8
0
 10
453.08759132957931
 20
281.82709154834822
 30
0.0
 11
451.58228703315399
 21
280.4201527790571
 31
0.0
  0
LINE
  5
C2B
  8
0
 10
454.53752442303272
 20
278.96954369869792
 30
0.0
 11
453.08759135450663
 21
281.38011990160078
 31
0.0
  0
LINE
  5
C2C
  8
0
 10
454.48194397748381
 20
279.52043539037572
 30
0.0
 11
454.26967264609482
 21
279.52043539037572
 31
0.0
  0
LINE
  5
C2D
  8
0
 10
454.48194397748341
 20
279.52043539037572
 30
0.0
 11
453.53977649133878
 21
279.52043539037572
 31
0.0
  0
LINE
  5
C2E
  8
0
 10
454.35272946057938
 20
278.50494620923172
 30
0.0
 11
454.53752442303272
 21
278.96954369869792
 31
0.0
  0
LINE
  5
C2F
  8
0
 10
452.31274433856618
 20
278.52394433894312
 30
0.0
 11
452.31274429331228
 21
279.49767945641958
 31
0.0
  0
LINE
  5
C30
  8
0
 10
451.99256405274042
 20
280.20801680706899
 30
0.0
 11
453.08759136504528
 21
281.19115246791688
 31
0.0
  0
LINE
  5
C31
  8
0
 10
453.08759122639538
 20
283.67728019352398
 30
0.0
 11
452.31274409906757
 21
283.67728012385061
 31
0.0
  0
LINE
  5
C32
  8
0
 10
437.65756764811408
 20
306.45046279554748
 30
0.0
 11
445.67502071911082
 21
306.52043004851669
 31
0.0
210
-1.0
220
0.0
230
0.0
  0
ARC
  5
C33
  8
CONTORNO
 10
-437.67610092640399
 20
304.4496635136291
 30
0.0
 40
2.0013894479767251
210
0.0
220
0.0
230
-1.0
 50
30.58846489355064
 51
36.893433240473549
  0
ARC
  5
C34
  8
CONTORNO
 10
-437.6748960279358
 20
304.45056796106297
 30
0.0
 40
1.999882860614757
210
0.0
220
0.0
230
-1.0
 50
31.7355554844384
 51
43.404807906116872
  0
ARC
  5
C35
  8
CONTORNO
 10
-437.67727330466778
 20
304.45053894941918
 30
0.0
 40
2.0022525855570432
210
0.0
220
0.0
230
-1.0
 50
0.0
 51
6.3157403591807659
  0
ARC
  5
C36
  8
CONTORNO
 10
-437.668335017723
 20
304.45152823102529
 30
0.0
 40
1.993259718850348
210
0.0
220
0.0
230
-1.0
 50
5.9549013003078723
 51
12.631687571412961
  0
ARC
  5
C37
  8
CONTORNO
 10
-437.67686246076579
 20
304.45000647655058
 30
0.0
 40
2.0018924886112961
210
0.0
220
0.0
230
-1.0
 50
18.97686223117736
 51
25.324495881070309
  0
ARC
  5
C38
  8
CONTORNO
 10
-437.6801129524336
 20
304.44888871058492
 30
0.0
 40
2.0053297981460041
210
0.0
220
0.0
230
-1.0
 50
12.63168757141017
 51
18.97686223105843
  0
ARC
  5
C39
  8
CONTORNO
 10
-437.67893946062259
 20
304.44927918663973
 30
0.0
 40
2.004090775988415
210
0.0
220
0.0
230
-1.0
 50
18.066888604010749
 51
24.19255248388755
  0
ARC
  5
C3A
  8
CONTORNO
 10
-437.6794980201762
 20
304.44909697844668
 30
0.0
 40
2.0046783035201301
210
0.0
220
0.0
230
-1.0
 50
11.89334952476746
 51
18.066888604009829
  0
ARC
  5
C3B
  8
CONTORNO
 10
-437.67191798970867
 20
304.4523463041063
 30
0.0
 40
1.996422334406444
210
0.0
220
0.0
230
-1.0
 50
25.324495881068561
 51
31.735555484437072
  0
ARC
  5
C3C
  8
CONTORNO
 10
-437.66982089200383
 20
304.45337580928913
 30
0.0
 40
1.994094246051205
210
0.0
220
0.0
230
-1.0
 50
24.192552483968608
 51
30.588464893496742
  0
ARC
  5
C3D
  8
CONTORNO
 10
-437.67503952952609
 20
304.44838348930432
 30
0.0
 40
2.0021555421913781
210
0.0
220
0.0
230
-1.0
 50
82.851733402958303
 51
90.0
  0
ARC
  5
C3E
  8
CONTORNO
 10
-437.67567608674068
 20
304.44987584653609
 30
0.0
 40
2.000924938640579
210
0.0
220
0.0
230
-1.0
 50
38.125442650010072
 51
44.544776736955498
  0
ARC
  5
C3F
  8
CONTORNO
 10
-437.67669434910982
 20
304.44557681469888
 30
0.0
 40
2.005214351644637
210
0.0
220
0.0
230
-1.0
 50
69.624018447885263
 51
76.659004101905936
  0
ARC
  5
C40
  8
CONTORNO
 10
-437.67471754190183
 20
304.45113964903169
 30
0.0
 40
1.999342481471104
210
0.0
220
0.0
230
-1.0
 50
50.95443960744641
 51
57.387434496445159
  0
ARC
  5
C41
  8
CONTORNO
 10
-437.67340685995032
 20
304.45318811536578
 30
0.0
 40
1.9969105888954699
210
0.0
220
0.0
230
-1.0
 50
56.441740263703537
 51
63.82525977011008
  0
ARC
  5
C42
  8
CONTORNO
 10
-437.6754642133551
 20
304.44900236388571
 30
0.0
 40
2.0015746234671798
210
0.0
220
0.0
230
-1.0
 50
63.004869319528233
 51
70.246474955926715
  0
ARC
  5
C43
  8
CONTORNO
 10
-437.67438405729467
 20
304.4515757975438
 30
0.0
 40
1.9987969657976521
210
0.0
220
0.0
230
-1.0
 50
49.846212532250078
 51
56.441740263703871
  0
ARC
  5
C44
  8
CONTORNO
 10
-437.67600594266833
 20
304.44955119090719
 30
0.0
 40
2.0013877628083261
210
0.0
220
0.0
230
-1.0
 50
44.544776736954667
 51
50.954439607444932
  0
ARC
  5
C45
  8
CONTORNO
 10
-437.67657062392368
 20
304.44898410815267
 30
0.0
 40
2.0021878252053451
210
0.0
220
0.0
230
-1.0
 50
43.404807906116361
 51
49.846212532299553
  0
ARC
  5
C46
  8
CONTORNO
 10
-437.67400167494111
 20
304.45693133312483
 30
0.0
 40
1.9935449222299759
210
0.0
220
0.0
230
-1.0
 50
76.229942802750287
 51
83.077197630931067
  0
LINE
  5
C47
  8
3
 10
468.15546670612167
 20
278.5748534220005
 30
0.0
 11
464.44537490943571
 21
278.5748534220005
 31
0.0
  0
LINE
  5
C48
  8
0
 10
468.6748368816817
 20
278.37687665493797
 30
0.0
 11
465.6748368816817
 21
279.52043539037561
 31
0.0
  0
LINE
  5
C49
  8
0
 10
465.6748368816817
 20
279.52043539037572
 30
0.0
 11
464.40773009174058
 21
279.52043539037572
 31
0.0
  0
LINE
  5
C4A
  8
0
 10
435.67502071911082
 20
345.45053894941918
 30
0.0
 11
435.67502071911082
 21
337.0204300485168
 31
0.0
210
-1.0
220
0.0
230
0.0
  0
LINE
  5
C4B
  8
0
 10
445.0674552649707
 20
347.5204300485168
 30
0.0
 11
445.0674552649707
 21
326.52573219190941
 31
0.0
  0
LINE
  5
C4C
  8
0
 10
442.56745526497082
 20
347.5204300485168
 30
0.0
 11
442.56745526497082
 21
326.54224721799369
 31
0.0
  0
LINE
  5
C4D
  8
0
 10
435.67502071911082
 20
328.5903211476143
 30
0.0
 11
435.67502071911082
 21
337.0204300485168
 31
0.0
210
-1.0
220
0.0
230
0.0
  0
LINE
  5
C4E
  8
0
 10
445.67502071911082
 20
326.5204300485168
 30
0.0
 11
437.65756764811408
 21
326.59039730148601
 31
0.0
210
-1.0
220
0.0
230
0.0
  0
ARC
  5
C4F
  8
0
 10
437.67502071911082
 20
328.5903211476143
 30
0.0
 40
2.0
 50
180.00000000000011
 51
269.50000000000011
  0
LINE
  5
C50
  8
0
 10
445.67502071911082
 20
347.5204300485168
 30
0.0
 11
437.65756764811408
 21
347.45046279554759
 31
0.0
210
-1.0
220
0.0
230
0.0
  0
ARC
  5
C51
  8
CONTORNO
 10
-437.67479728315288
 20
345.45056554695208
 30
0.0
 40
1.9998078073099701
210
0.0
220
0.0
230
-1.0
 50
31.7355554843184
 51
43.404807905972142
  0
ARC
  5
C52
  8
CONTORNO
 10
-437.67610092640399
 20
345.4496635136291
 30
0.0
 40
2.0013894479767411
210
0.0
220
0.0
230
-1.0
 50
30.588464893400211
 51
36.893433240380219
  0
ARC
  5
C53
  8
CONTORNO
 10
-437.66802612171858
 20
345.45151309595423
 30
0.0
 40
1.9929547341817211
210
0.0
220
0.0
230
-1.0
 50
5.9549013003130629
 51
12.631687571379731
  0
ARC
  5
C54
  8
CONTORNO
 10
-437.67736521370148
 20
345.45053894941918
 30
0.0
 40
2.0023444945907838
210
0.0
220
0.0
230
-1.0
 50
0.0
 51
6.3157403591941002
  0
ARC
  5
C55
  8
CONTORNO
 10
-437.66982089200371
 20
345.45337580928918
 30
0.0
 40
1.9940942460509761
210
0.0
220
0.0
230
-1.0
 50
24.192552483912621
 51
30.588464893400321
  0
ARC
  5
C56
  8
CONTORNO
 10
-437.6768624607663
 20
345.45000647655041
 30
0.0
 40
2.0018924886119298
210
0.0
220
0.0
230
-1.0
 50
18.976862231152271
 51
25.324495881095292
  0
ARC
  5
C57
  8
CONTORNO
 10
-437.67949802017591
 20
345.44909697844668
 30
0.0
 40
2.0046783035198561
210
0.0
220
0.0
230
-1.0
 50
11.893349524778859
 51
24.192552483913911
  0
ARC
  5
C58
  8
CONTORNO
 10
-437.67191798970902
 20
345.45234630410607
 30
0.0
 40
1.9964223344068841
210
0.0
220
0.0
230
-1.0
 50
25.324495881187961
 51
31.735555484318802
  0
ARC
  5
C59
  8
CONTORNO
 10
-437.67503695044002
 20
345.44867902332322
 30
0.0
 40
2.001859996918967
210
0.0
220
0.0
230
-1.0
 50
82.851733402909289
 51
89.500000000001606
  0
ARC
  5
C5A
  8
CONTORNO
 10
-437.67649857179208
 20
345.44632500324502
 30
0.0
 40
2.0044445528230672
210
0.0
220
0.0
230
-1.0
 50
69.624018447656823
 51
76.659004102015146
  0
ARC
  5
C5B
  8
CONTORNO
 10
-437.67550948337328
 20
345.44898799820271
 30
0.0
 40
2.001603806786286
210
0.0
220
0.0
230
-1.0
 50
63.004869319371899
 51
70.246474956001876
  0
ARC
  5
C5C
  8
CONTORNO
 10
-437.67567608674091
 20
345.44987584653597
 30
0.0
 40
2.000924938640686
210
0.0
220
0.0
230
-1.0
 50
38.125442650171237
 51
44.544776736834997
  0
ARC
  5
C5D
  8
CONTORNO
 10
-437.67438405729558
 20
345.4515757975426
 30
0.0
 40
1.9987969657991811
210
0.0
220
0.0
230
-1.0
 50
49.846212532072478
 51
56.441740263445922
  0
ARC
  5
C5E
  8
CONTORNO
 10
-437.67657062392328
 20
345.44898410815318
 30
0.0
 40
2.0021878252047269
210
0.0
220
0.0
230
-1.0
 50
43.404807905972952
 51
50.954439607449658
  0
ARC
  5
C5F
  8
CONTORNO
 10
-437.67471754190183
 20
345.45113964903157
 30
0.0
 40
1.9993424814712899
210
0.0
220
0.0
230
-1.0
 50
50.954439607623748
 51
57.387434496343701
  0
ARC
  5
C60
  8
CONTORNO
 10
-437.67355300313523
 20
345.45282861373562
 30
0.0
 40
1.997293569833021
210
0.0
220
0.0
230
-1.0
 50
56.441740263446221
 51
63.825259770012551
  0
ARC
  5
C61
  8
CONTORNO
 10
-437.67410967768359
 20
345.45607282624161
 30
0.0
 40
1.994408275214457
210
0.0
220
0.0
230
-1.0
 50
76.229942802513293
 51
83.077197630906838
  0
LINE
  5
C62
  8
1
 10
473.6748368816817
 20
400.52042470665759
 30
0.0
 11
415.99963653902682
 21
400.52042470665771
 31
0.0
  0
LINE
  5
C63
  8
0
 10
445.67502071911082
 20
421.52043004851669
 30
0.0
 11
422.90684086436181
 21
415.41971464330999
 31
0.0
210
-1.0
220
0.0
230
0.0
1001
ACAD
1000
ASC_BOUNDS
1002
{
1070
    19
1002
}
  0
LINE
  5
C64
  8
0
 10
445.67502071911082
 20
419.52035526227439
 30
0.0
 11
420.98514256191402
 21
412.90472234883049
 31
0.0
210
-1.0
220
0.0
230
0.0
1001
ACAD
1000
ASC_BOUNDS
1002
{
1070
    19
1002
}
  0
ARC
  5
C65
  8
0
 10
407.93382530714052
 20
400.53244278684281
 30
0.0
 40
15.71132218850404
 50
326.10395583125933
 51
33.790554780256521
  0
LINE
  5
C66
  8
0
 10
420.99963653902682
 20
408.6532512684509
 30
0.0
 11
420.99963653902682
 21
401.52042470665759
 31
0.0
  0
LINE
  5
C67
  8
0
 10
420.99963653902682
 20
392.38759814486451
 30
0.0
 11
420.99963653902682
 21
399.52042470665771
 31
0.0
  0
LINE
  5
C68
  8
0
 10
426.37502071911081
 20
388.5204300535828
 30
0.0
 11
420.97502071911072
 21
388.61294189770251
 31
0.0
210
-1.0
220
0.0
230
0.0
1001
ACAD
1000
ASC_BOUNDS
1002
{
1070
    19
1002
}
  0
LINE
  5
C69
  8
0
 10
421.23728044477929
 20
392.14995423911239
 30
0.0
 11
420.99963653902682
 21
392.38759814486463
 31
0.0
  0
LINE
  5
C6A
  8
0
 10
420.97502071911072
 20
391.77043005358291
 30
0.0
 11
420.97502071911072
 21
388.61294189770251
 31
0.0
1001
ACAD
1000
ASC_BOUNDS
1002
{
1070
    19
1002
}
  0
LINE
  5
C6B
  8
0
 10
422.79099313247889
 20
399.52042470665771
 30
0.0
 11
422.79099313247889
 21
400.52042470665759
 31
0.0
  0
LINE
  5
C6C
  8
0
 10
422.79099313247889
 20
401.52042470665759
 30
0.0
 11
422.79099313247889
 21
400.52042470665759
 31
0.0
  0
LINE
  5
C6D
  8
0
 10
420.99963653902682
 20
399.52042470665771
 30
0.0
 11
422.79099313247889
 21
399.52042470665771
 31
0.0
  0
LINE
  5
C6E
  8
0
 10
420.99963653902682
 20
401.52042470665759
 30
0.0
 11
422.79099313247889
 21
401.52042470665759
 31
0.0
  0
LINE
  5
C6F
  8
0
 10
421.23728044477929
 20
408.89089517420302
 30
0.0
 11
420.99963653902682
 21
408.6532512684509
 31
0.0
  0
LINE
  5
C70
  8
0
 10
420.9911306737668
 20
409.2704300535795
 30
0.0
 11
420.98759466482068
 21
412.90793149977151
 31
0.0
1001
ACAD
1000
ASC_BOUNDS
1002
{
1070
    19
1002
}
  0
LINE
  5
C71
  8
0
 10
422.90684086436153
 20
415.41971464330959
 30
0.0
 11
420.98514256191402
 21
412.90472234883049
 31
0.0
1001
ACAD
1000
ASC_BOUNDS
1002
{
1070
    19
1002
}
  0
LINE
  5
C72
  8
0
 10
452.31274505179448
 20
410.86357997318271
 30
0.0
 11
452.31274485649652
 21
406.6613171018472
 31
0.0
  0
LINE
  5
C73
  8
0
 10
452.31274499557111
 20
409.65381083745029
 30
0.0
 11
453.93535690614181
 21
407.81150281714332
 31
0.0
  0
LINE
  5
C74
  8
0
 10
453.55248925871177
 20
407.54010775446079
 30
0.0
 11
452.31274496545842
 21
409.00587171435251
 31
0.0
  0
ARC
  5
C75
  8
0
 10
468.10390490731021
 20
405.5045675479729
 30
0.0
 40
13.659786472529619
 50
158.5999609311813
 51
201.40003906881859
  0
LINE
  5
C76
  8
0
 10
451.35743186290028
 20
405.98414515608778
 30
0.0
 11
452.31283559078469
 21
408.63350623786772
 31
0.0
  0
ARC
  5
C77
  8
0
 10
450.78576916191412
 20
405.5045675479729
 30
0.0
 40
13.659786472529619
 50
338.59996093118139
 51
21.400039068818661
  0
LINE
  5
C78
  8
0
 10
445.67502071911082
 20
421.52043004851669
 30
0.0
 11
445.67502071911082
 21
388.5204300485168
 31
0.0
210
-1.0
220
0.0
230
0.0
1001
ACAD
1000
ASC_BOUNDS
1002
{
1070
    19
1002
}
  0
LINE
  5
C79
  8
0
 10
447.67502071911082
 20
412.02042470665771
 30
0.0
 11
447.67502071911082
 21
400.52042470665759
 31
0.0
1001
ACAD
1000
ASC_BOUNDS
1002
{
1070
    19
1002
}
  0
LINE
  5
C7A
  8
0
 10
455.38588466720631
 20
400.5204202147994
 30
0.0
 11
463.50378940201767
 21
400.52041991297898
 31
0.0
  0
LINE
  5
C7B
  8
0
 10
455.38588466720631
 20
390.55212494481168
 30
0.0
 11
463.50378940201767
 21
390.55212464299137
 31
0.0
  0
LINE
  5
C7C
  8
0
 10
445.0674552649707
 20
388.5204300485168
 30
0.0
 11
445.0674552649707
 21
367.52573219190941
 31
0.0
  0
LINE
  5
C7D
  8
0
 10
442.56745526497082
 20
388.5204300485168
 30
0.0
 11
442.56745526497082
 21
367.54224721799369
 31
0.0
  0
ARC
  5
C7E
  8
CONTORNO
 10
-437.67736521370119
 20
386.45053894941918
 30
0.0
 40
2.0023444945905071
210
0.0
220
0.0
230
-1.0
 50
0.0
 51
6.3157403589140078
  0
LINE
  5
C7F
  8
0
 10
435.67502071911082
 20
386.45053894941918
 30
0.0
 11
435.67502071911082
 21
369.5903211476143
 31
0.0
210
-1.0
220
0.0
230
0.0
  0
LINE
  5
C80
  8
0
 10
437.65756764811408
 20
367.59039730148601
 30
0.0
 11
445.67502071911082
 21
367.52043004851691
 31
0.0
210
-1.0
220
0.0
230
0.0
  0
ARC
  5
C81
  8
CONTORNO
 10
-437.6748960279358
 20
369.59029213597051
 30
0.0
 40
1.999882860614757
210
0.0
220
0.0
230
-1.0
 50
316.5951920938831
 51
328.26444451556159
  0
ARC
  5
C82
  8
CONTORNO
 10
-437.67610092640399
 20
369.59119658340438
 30
0.0
 40
2.0013894479767251
210
0.0
220
0.0
230
-1.0
 50
323.1065667595264
 51
329.41153510644938
  0
ARC
  5
C83
  8
CONTORNO
 10
-437.668335017723
 20
369.58933186600831
 30
0.0
 40
1.993259718850348
210
0.0
220
0.0
230
-1.0
 50
347.36831242858699
 51
354.04509869969212
  0
ARC
  5
C84
  8
CONTORNO
 10
-437.67727330466778
 20
369.5903211476143
 30
0.0
 40
2.0022525855570432
210
0.0
220
0.0
230
-1.0
 50
353.68425964081922
 51
0.0
  0
ARC
  5
C85
  8
CONTORNO
 10
-437.66982089200383
 20
369.58748428774447
 30
0.0
 40
1.994094246051205
210
0.0
220
0.0
230
-1.0
 50
329.41153510650321
 51
335.8074475160314
  0
ARC
  5
C86
  8
CONTORNO
 10
-437.67191798970867
 20
369.58851379292719
 30
0.0
 40
1.996422334406444
210
0.0
220
0.0
230
-1.0
 50
328.26444451556301
 51
334.67550411893143
  0
ARC
  5
C87
  8
CONTORNO
 10
-437.6794980201762
 20
369.59176311858693
 30
0.0
 40
2.0046783035201301
210
0.0
220
0.0
230
-1.0
 50
341.93311139599018
 51
348.10665047523253
  0
ARC
  5
C88
  8
CONTORNO
 10
-437.6801129524336
 20
369.59197138644868
 30
0.0
 40
2.0053297981460041
210
0.0
220
0.0
230
-1.0
 50
341.02313776894158
 51
347.36831242858977
  0
ARC
  5
C89
  8
CONTORNO
 10
-437.67893946062259
 20
369.5915809103937
 30
0.0
 40
2.004090775988415
210
0.0
220
0.0
230
-1.0
 50
335.8074475161124
 51
341.93311139598927
  0
ARC
  5
C8A
  8
CONTORNO
 10
-437.67686246076579
 20
369.5908536204829
 30
0.0
 40
2.0018924886112961
210
0.0
220
0.0
230
-1.0
 50
334.67550411892972
 51
341.02313776882272
  0
ARC
  5
C8B
  8
CONTORNO
 10
-437.67503952952609
 20
369.59247660772922
 30
0.0
 40
2.0021555421913781
210
0.0
220
0.0
230
-1.0
 50
270.0
 51
277.14826659704181
  0
ARC
  5
C8C
  8
CONTORNO
 10
-437.67567608674068
 20
369.5909842504974
 30
0.0
 40
2.000924938640579
210
0.0
220
0.0
230
-1.0
 50
315.4552232630445
 51
321.87455734998991
  0
ARC
  5
C8D
  8
CONTORNO
 10
-437.67438405729467
 20
369.58928429948958
 30
0.0
 40
1.9987969657976521
210
0.0
220
0.0
230
-1.0
 50
303.55825973629612
 51
310.15378746774991
  0
ARC
  5
C8E
  8
CONTORNO
 10
-437.6754642133551
 20
369.59185773314778
 30
0.0
 40
2.0015746234671798
210
0.0
220
0.0
230
-1.0
 50
289.75352504407329
 51
296.99513068047179
  0
ARC
  5
C8F
  8
CONTORNO
 10
-437.67340685995032
 20
369.58767198166771
 30
0.0
 40
1.9969105888954699
210
0.0
220
0.0
230
-1.0
 50
296.17474022989859
 51
303.55825973629652
  0
ARC
  5
C90
  8
CONTORNO
 10
-437.67471754190183
 20
369.58972044800169
 30
0.0
 40
1.999342481471104
210
0.0
220
0.0
230
-1.0
 50
302.61256550355489
 51
309.04556039255363
  0
ARC
  5
C91
  8
CONTORNO
 10
-437.67669434910982
 20
369.59528328233472
 30
0.0
 40
2.005214351644637
210
0.0
220
0.0
230
-1.0
 50
283.34099589809398
 51
290.37598155211481
  0
ARC
  5
C92
  8
CONTORNO
 10
-437.67657062392368
 20
369.59187598888082
 30
0.0
 40
2.0021878252053451
210
0.0
220
0.0
230
-1.0
 50
310.15378746770051
 51
316.59519209388361
  0
ARC
  5
C93
  8
CONTORNO
 10
-437.67600594266833
 20
369.59130890612619
 30
0.0
 40
2.0013877628083261
210
0.0
220
0.0
230
-1.0
 50
309.04556039255499
 51
315.4552232630453
  0
ARC
  5
C94
  8
CONTORNO
 10
-437.67400167494111
 20
369.58392876390877
 30
0.0
 40
1.9935449222299759
210
0.0
220
0.0
230
-1.0
 50
276.9228023690689
 51
283.77005719724968
  0
LINE
  5
C95
  8
3
 10
451.38654861375699
 20
405.57484273828271
 30
0.0
 11
447.67502071911082
 21
405.57484273828271
 31
0.0
  0
LINE
  5
C96
  8
3
 10
452.33797954442838
 20
395.46600667503282
 30
0.0
 11
447.67502071911082
 21
395.46600667503282
 31
0.0
  0
LINE
  5
C97
  8
0
 10
452.23707020329653
 20
394.52042470665771
 30
0.0
 11
447.67502071911082
 21
394.52042470665782
 31
0.0
1001
ACAD
1000
ASC_BOUNDS
1002
{
1070
    19
1002
}
  0
LINE
  5
C98
  8
0
 10
451.55082319990078
 20
406.52042470665771
 30
0.0
 11
447.67502071911082
 21
406.52042470665771
 31
0.0
1001
ACAD
1000
ASC_BOUNDS
1002
{
1070
    19
1002
}
  0
LINE
  5
C99
  8
0
 10
447.67502071911082
 20
389.02042470665771
 30
0.0
 11
447.67502071911082
 21
400.52042470665759
 31
0.0
1001
ACAD
1000
ASC_BOUNDS
1002
{
1070
    19
1002
}
  0
LINE
  5
C9A
  8
0
 10
445.67502071911082
 20
388.5204300485168
 30
0.0
 11
437.65756764811408
 21
388.45046279554748
 31
0.0
210
-1.0
220
0.0
230
0.0
  0
ARC
  5
C9B
  8
CONTORNO
 10
-437.67479728315197
 20
386.45056554695282
 30
0.0
 40
1.999807807308849
210
0.0
220
0.0
230
-1.0
 50
31.735555483366369
 51
43.404807904990449
  0
ARC
  5
C9C
  8
CONTORNO
 10
-437.67610092640348
 20
386.44966351362962
 30
0.0
 40
2.0013894479760168
210
0.0
220
0.0
230
-1.0
 50
30.58846489251842
 51
36.893433239450893
  0
ARC
  5
C9D
  8
CONTORNO
 10
-437.66802612171909
 20
386.451513095954
 30
0.0
 40
1.992954734182248
210
0.0
220
0.0
230
-1.0
 50
5.9549013000890501
 51
12.63168757086031
  0
ARC
  5
C9E
  8
CONTORNO
 10
-437.6768624607667
 20
386.45000647655019
 30
0.0
 40
2.0018924886123188
210
0.0
220
0.0
230
-1.0
 50
18.976862230349901
 51
25.324495880252321
  0
ARC
  5
C9F
  8
CONTORNO
 10
-437.67949802017591
 20
386.44909697844668
 30
0.0
 40
2.0046783035198281
210
0.0
220
0.0
230
-1.0
 50
11.89334952433363
 51
24.192552483232149
  0
ARC
  5
CA0
  8
CONTORNO
 10
-437.67191798970981
 20
386.45234630410562
 30
0.0
 40
1.9964223344077949
210
0.0
220
0.0
230
-1.0
 50
25.324495880180251
 51
31.73555548336719
  0
ARC
  5
CA1
  8
CONTORNO
 10
-437.66982089200411
 20
386.4533758092889
 30
0.0
 40
1.9940942460515709
210
0.0
220
0.0
230
-1.0
 50
24.19255248322731
 51
30.588464892518871
  0
ARC
  5
CA2
  8
CONTORNO
 10
-437.67503695043979
 20
386.44867902332521
 30
0.0
 40
2.0018599969170641
210
0.0
220
0.0
230
-1.0
 50
82.851733402630117
 51
89.499999999999417
  0
ARC
  5
CA3
  8
CONTORNO
 10
-437.6756760867404
 20
386.44987584653637
 30
0.0
 40
2.0009249386402028
210
0.0
220
0.0
230
-1.0
 50
38.125442648965333
 51
44.544776735752698
  0
ARC
  5
CA4
  8
CONTORNO
 10
-437.67471754190149
 20
386.45113964903231
 30
0.0
 40
1.999342481470533
210
0.0
220
0.0
230
-1.0
 50
50.9544396063298
 51
57.387434495359102
  0
ARC
  5
CA5
  8
CONTORNO
 10
-437.6735530031346
 20
386.45282861373607
 30
0.0
 40
1.99729356983226
210
0.0
220
0.0
230
-1.0
 50
56.441740262459383
 51
63.825259769126419
  0
ARC
  5
CA6
  8
CONTORNO
 10
-437.67550948337322
 20
386.44898799820328
 30
0.0
 40
2.001603806785671
210
0.0
220
0.0
230
-1.0
 50
63.004869318395151
 51
70.246474955152493
  0
ARC
  5
CA7
  8
CONTORNO
 10
-437.67649857179288
 20
386.44632500324292
 30
0.0
 40
2.0044445528252881
210
0.0
220
0.0
230
-1.0
 50
69.624018446933022
 51
76.659004101283145
  0
ARC
  5
CA8
  8
CONTORNO
 10
-437.67438405729558
 20
386.45157579754249
 30
0.0
 40
1.9987969657992151
210
0.0
220
0.0
230
-1.0
 50
49.84621253105022
 51
56.44174026245846
  0
ARC
  5
CA9
  8
CONTORNO
 10
-437.67657062392328
 20
386.4489841081533
 30
0.0
 40
2.0021878252046581
210
0.0
220
0.0
230
-1.0
 50
43.404807904993142
 51
50.954439606334731
  0
ARC
  5
CAA
  8
CONTORNO
 10
-437.67410967768382
 20
386.45607282624019
 30
0.0
 40
1.9944082752158849
210
0.0
220
0.0
230
-1.0
 50
76.229942801997993
 51
83.077197630600594
  0
LINE
  5
CAB
  8
0
 10
447.67502071911082
 20
395.93599497899618
 30
0.0
 11
445.67502071911082
 21
395.93599497899618
 31
0.0
  0
LINE
  5
CAC
  8
0
 10
447.67502071911082
 20
395.87349497899618
 30
0.0
 11
445.67502071911082
 21
395.87349497899618
 31
0.0
  0
LINE
  5
CAD
  8
0
 10
447.67502071911082
 20
395.81099497899618
 30
0.0
 11
445.67502071911082
 21
395.81099497899618
 31
0.0
  0
LINE
  5
CAE
  8
0
 10
447.67502071911082
 20
395.74849497899618
 30
0.0
 11
445.67502071911082
 21
395.74849497899618
 31
0.0
  0
LINE
  5
CAF
  8
0
 10
447.67502071911082
 20
395.68599497899618
 30
0.0
 11
445.67502071911082
 21
395.68599497899618
 31
0.0
  0
LINE
  5
CB0
  8
0
 10
447.67502071911082
 20
395.62349497899618
 30
0.0
 11
445.67502071911082
 21
395.62349497899618
 31
0.0
  0
LINE
  5
CB1
  8
0
 10
447.67502071911082
 20
395.56099497899618
 30
0.0
 11
445.67502071911082
 21
395.56099497899618
 31
0.0
  0
LINE
  5
CB2
  8
0
 10
447.67502071911082
 20
395.49849497899618
 30
0.0
 11
445.67502071911082
 21
395.49849497899618
 31
0.0
  0
LINE
  5
CB3
  8
0
 10
447.67502071911082
 20
395.43599497899618
 30
0.0
 11
445.67502071911082
 21
395.43599497899618
 31
0.0
  0
LINE
  5
CB4
  8
0
 10
447.67502071911082
 20
395.37349497899618
 30
0.0
 11
445.67502071911082
 21
395.37349497899618
 31
0.0
  0
LINE
  5
CB5
  8
0
 10
447.67502071911082
 20
395.31099497899618
 30
0.0
 11
445.67502071911082
 21
395.31099497899618
 31
0.0
  0
LINE
  5
CB6
  8
0
 10
447.67502071911082
 20
395.24849497899618
 30
0.0
 11
445.67502071911082
 21
395.24849497899618
 31
0.0
  0
LINE
  5
CB7
  8
0
 10
447.67502071911082
 20
395.18599497899618
 30
0.0
 11
445.67502071911082
 21
395.18599497899618
 31
0.0
  0
LINE
  5
CB8
  8
0
 10
447.67502071911082
 20
395.12349497899618
 30
0.0
 11
445.67502071911082
 21
395.12349497899618
 31
0.0
  0
LINE
  5
CB9
  8
0
 10
447.67502071911082
 20
395.06099497899618
 30
0.0
 11
445.67502071911082
 21
395.06099497899618
 31
0.0
  0
LINE
  5
CBA
  8
0
 10
447.67502071911082
 20
394.99849497899618
 30
0.0
 11
445.67502071911082
 21
394.99849497899618
 31
0.0
  0
LINE
  5
CBB
  8
0
 10
447.67502071911082
 20
394.93599497899618
 30
0.0
 11
445.67502071911082
 21
394.93599497899618
 31
0.0
  0
LINE
  5
CBC
  8
0
 10
447.67502071911082
 20
397.43599497899618
 30
0.0
 11
445.67502071911082
 21
397.43599497899618
 31
0.0
  0
LINE
  5
CBD
  8
0
 10
447.67502071911082
 20
397.37349497899618
 30
0.0
 11
445.67502071911082
 21
397.37349497899618
 31
0.0
  0
LINE
  5
CBE
  8
0
 10
447.67502071911082
 20
397.31099497899618
 30
0.0
 11
445.67502071911082
 21
397.31099497899618
 31
0.0
  0
LINE
  5
CBF
  8
0
 10
447.67502071911082
 20
397.24849497899618
 30
0.0
 11
445.67502071911082
 21
397.24849497899618
 31
0.0
  0
LINE
  5
CC0
  8
0
 10
447.67502071911082
 20
397.18599497899618
 30
0.0
 11
445.67502071911082
 21
397.18599497899618
 31
0.0
  0
LINE
  5
CC1
  8
0
 10
447.67502071911082
 20
397.12349497899618
 30
0.0
 11
445.67502071911082
 21
397.12349497899618
 31
0.0
  0
LINE
  5
CC2
  8
0
 10
447.67502071911082
 20
397.06099497899618
 30
0.0
 11
445.67502071911082
 21
397.06099497899618
 31
0.0
  0
LINE
  5
CC3
  8
0
 10
447.67502071911082
 20
396.99849497899618
 30
0.0
 11
445.67502071911082
 21
396.99849497899618
 31
0.0
  0
LINE
  5
CC4
  8
0
 10
447.67502071911082
 20
396.93599497899618
 30
0.0
 11
445.67502071911082
 21
396.93599497899618
 31
0.0
  0
LINE
  5
CC5
  8
0
 10
447.67502071911082
 20
396.87349497899618
 30
0.0
 11
445.67502071911082
 21
396.87349497899618
 31
0.0
  0
LINE
  5
CC6
  8
0
 10
447.67502071911082
 20
396.81099497899618
 30
0.0
 11
445.67502071911082
 21
396.81099497899618
 31
0.0
  0
LINE
  5
CC7
  8
0
 10
447.67502071911082
 20
396.74849497899618
 30
0.0
 11
445.67502071911082
 21
396.74849497899618
 31
0.0
  0
LINE
  5
CC8
  8
0
 10
447.67502071911082
 20
396.68599497899618
 30
0.0
 11
445.67502071911082
 21
396.68599497899618
 31
0.0
  0
LINE
  5
CC9
  8
0
 10
447.67502071911082
 20
396.62349497899618
 30
0.0
 11
445.67502071911082
 21
396.62349497899618
 31
0.0
  0
LINE
  5
CCA
  8
0
 10
447.67502071911082
 20
396.56099497899618
 30
0.0
 11
445.67502071911082
 21
396.56099497899618
 31
0.0
  0
LINE
  5
CCB
  8
0
 10
447.67502071911082
 20
396.49849497899618
 30
0.0
 11
445.67502071911082
 21
396.49849497899618
 31
0.0
  0
LINE
  5
CCC
  8
0
 10
447.67502071911082
 20
396.43599497899618
 30
0.0
 11
445.67502071911082
 21
396.43599497899618
 31
0.0
  0
LINE
  5
CCD
  8
0
 10
447.67502071911082
 20
396.37349497899618
 30
0.0
 11
445.67502071911082
 21
396.37349497899618
 31
0.0
  0
LINE
  5
CCE
  8
0
 10
447.67502071911082
 20
396.31099497899618
 30
0.0
 11
445.67502071911082
 21
396.31099497899618
 31
0.0
  0
LINE
  5
CCF
  8
0
 10
447.67502071911082
 20
396.24849497899618
 30
0.0
 11
445.67502071911082
 21
396.24849497899618
 31
0.0
  0
LINE
  5
CD0
  8
0
 10
447.67502071911082
 20
396.18599497899618
 30
0.0
 11
445.67502071911082
 21
396.18599497899618
 31
0.0
  0
LINE
  5
CD1
  8
0
 10
447.67502071911082
 20
396.12349497899618
 30
0.0
 11
445.67502071911082
 21
396.12349497899618
 31
0.0
  0
LINE
  5
CD2
  8
0
 10
447.67502071911082
 20
396.06099497899618
 30
0.0
 11
445.67502071911082
 21
396.06099497899618
 31
0.0
  0
LINE
  5
CD3
  8
0
 10
447.67502071911082
 20
395.99849497899618
 30
0.0
 11
445.67502071911082
 21
395.99849497899618
 31
0.0
  0
LINE
  5
CD4
  8
0
 10
447.67502071911082
 20
391.56099497899629
 30
0.0
 11
446.17502071911082
 21
391.56099497899618
 31
0.0
  0
LINE
  5
CD5
  8
0
 10
447.67502071911082
 20
391.49849497899618
 30
0.0
 11
446.17502071911082
 21
391.49849497899618
 31
0.0
  0
LINE
  5
CD6
  8
0
 10
447.67502071911082
 20
391.43599497899618
 30
0.0
 11
446.17502071911082
 21
391.43599497899618
 31
0.0
  0
LINE
  5
CD7
  8
0
 10
447.67502071911082
 20
391.37349497899618
 30
0.0
 11
446.17502071911082
 21
391.37349497899618
 31
0.0
  0
LINE
  5
CD8
  8
0
 10
447.67502071911082
 20
391.31099497899618
 30
0.0
 11
446.17502071911082
 21
391.31099497899618
 31
0.0
  0
LINE
  5
CD9
  8
0
 10
447.67502071911082
 20
391.24849497899618
 30
0.0
 11
446.17502071911082
 21
391.24849497899618
 31
0.0
  0
LINE
  5
CDA
  8
0
 10
447.67502071911082
 20
391.18599497899618
 30
0.0
 11
446.17502071911082
 21
391.18599497899618
 31
0.0
  0
LINE
  5
CDB
  8
0
 10
447.67502071911082
 20
391.12349497899618
 30
0.0
 11
446.17502071911082
 21
391.12349497899618
 31
0.0
  0
LINE
  5
CDC
  8
0
 10
447.67502071911082
 20
391.06099497899618
 30
0.0
 11
446.17502071911082
 21
391.06099497899618
 31
0.0
  0
LINE
  5
CDD
  8
0
 10
447.67502071911082
 20
390.99849497899618
 30
0.0
 11
446.17502071911082
 21
390.99849497899618
 31
0.0
  0
LINE
  5
CDE
  8
0
 10
447.67502071911082
 20
390.93599497899618
 30
0.0
 11
446.17502071911082
 21
390.93599497899618
 31
0.0
  0
LINE
  5
CDF
  8
0
 10
447.67502071911082
 20
390.87349497899629
 30
0.0
 11
446.17502071911082
 21
390.87349497899618
 31
0.0
  0
LINE
  5
CE0
  8
0
 10
447.67502071911082
 20
390.81099497899618
 30
0.0
 11
446.17502071911082
 21
390.81099497899618
 31
0.0
  0
LINE
  5
CE1
  8
0
 10
447.67502071911082
 20
390.74849497899618
 30
0.0
 11
446.17502071911082
 21
390.74849497899618
 31
0.0
  0
LINE
  5
CE2
  8
0
 10
447.67502071911082
 20
390.68599497899618
 30
0.0
 11
446.17502071911082
 21
390.68599497899618
 31
0.0
  0
LINE
  5
CE3
  8
0
 10
447.67502071911082
 20
390.62349497899618
 30
0.0
 11
446.17502071911082
 21
390.62349497899618
 31
0.0
  0
LINE
  5
CE4
  8
0
 10
447.67502071911082
 20
390.56099497899618
 30
0.0
 11
446.17502071911082
 21
390.56099497899618
 31
0.0
  0
LINE
  5
CE5
  8
0
 10
447.67502071911082
 20
390.49849497899618
 30
0.0
 11
446.17502071911082
 21
390.49849497899618
 31
0.0
  0
LINE
  5
CE6
  8
0
 10
447.67502071911082
 20
390.43599497899629
 30
0.0
 11
446.17502071911082
 21
390.43599497899618
 31
0.0
  0
LINE
  5
CE7
  8
0
 10
447.67502071911082
 20
390.37349497899618
 30
0.0
 11
446.17502071911082
 21
390.37349497899618
 31
0.0
  0
LINE
  5
CE8
  8
0
 10
447.67502071911082
 20
390.31099497899618
 30
0.0
 11
446.17502071911082
 21
390.31099497899618
 31
0.0
  0
LINE
  5
CE9
  8
0
 10
447.67502071911082
 20
390.24849497899629
 30
0.0
 11
446.17502071911082
 21
390.24849497899618
 31
0.0
  0
LINE
  5
CEA
  8
0
 10
447.67502071911082
 20
390.18599497899629
 30
0.0
 11
446.17502071911082
 21
390.18599497899618
 31
0.0
  0
LINE
  5
CEB
  8
0
 10
447.67502071911082
 20
390.12349497899618
 30
0.0
 11
446.17502071911082
 21
390.12349497899618
 31
0.0
  0
LINE
  5
CEC
  8
0
 10
447.67502071911082
 20
390.06099497899618
 30
0.0
 11
446.17502071911082
 21
390.06099497899618
 31
0.0
  0
LINE
  5
CED
  8
0
 10
447.67502071911082
 20
389.99849497899629
 30
0.0
 11
446.17502071911082
 21
389.99849497899618
 31
0.0
  0
LINE
  5
CEE
  8
0
 10
447.67502071911082
 20
389.93599497899618
 30
0.0
 11
446.17502071911082
 21
389.93599497899618
 31
0.0
  0
LINE
  5
CEF
  8
0
 10
447.67502071911082
 20
389.87349497899618
 30
0.0
 11
446.17502071911082
 21
389.87349497899618
 31
0.0
  0
LINE
  5
CF0
  8
0
 10
447.67502071911082
 20
389.81099497899618
 30
0.0
 11
446.17502071911082
 21
389.81099497899618
 31
0.0
  0
LINE
  5
CF1
  8
0
 10
447.67502071911082
 20
389.74849497899618
 30
0.0
 11
446.17502071911082
 21
389.74849497899618
 31
0.0
  0
LINE
  5
CF2
  8
0
 10
447.67502071911082
 20
389.68599497899618
 30
0.0
 11
446.17502071911082
 21
389.68599497899618
 31
0.0
  0
LINE
  5
CF3
  8
0
 10
447.67502071911082
 20
389.62349497899618
 30
0.0
 11
446.17502071911082
 21
389.62349497899618
 31
0.0
  0
LINE
  5
CF4
  8
0
 10
447.67502071911082
 20
389.56099497899618
 30
0.0
 11
446.17502071911082
 21
389.56099497899618
 31
0.0
  0
LINE
  5
CF5
  8
0
 10
447.67502071911082
 20
389.49849497899618
 30
0.0
 11
446.17502071911082
 21
389.49849497899618
 31
0.0
  0
LINE
  5
CF6
  8
0
 10
447.67502071911082
 20
389.43599497899618
 30
0.0
 11
446.17502071911082
 21
389.43599497899618
 31
0.0
  0
LINE
  5
CF7
  8
0
 10
447.67502071911082
 20
389.37349497899618
 30
0.0
 11
446.17502071911082
 21
389.37349497899618
 31
0.0
  0
LINE
  5
CF8
  8
0
 10
447.67502071911082
 20
389.31099497899618
 30
0.0
 11
446.17502071911082
 21
389.31099497899618
 31
0.0
  0
LINE
  5
CF9
  8
0
 10
447.67502071911082
 20
389.24849497899618
 30
0.0
 11
446.17502071911082
 21
389.24849497899618
 31
0.0
  0
LINE
  5
CFA
  8
0
 10
447.67502071911082
 20
389.18599497899618
 30
0.0
 11
446.17502071911082
 21
389.18599497899618
 31
0.0
  0
LINE
  5
CFB
  8
0
 10
447.67502071911082
 20
389.12349497899618
 30
0.0
 11
446.17502071911082
 21
389.12349497899618
 31
0.0
  0
LINE
  5
CFC
  8
0
 10
447.67502071911082
 20
389.06099497899618
 30
0.0
 11
446.17502071911082
 21
389.06099497899618
 31
0.0
  0
LINE
  5
CFD
  8
0
 10
447.67502071911082
 20
394.87349497899618
 30
0.0
 11
445.67502071911082
 21
394.87349497899618
 31
0.0
  0
LINE
  5
CFE
  8
0
 10
447.67502071911082
 20
394.81099497899618
 30
0.0
 11
445.67502071911082
 21
394.81099497899618
 31
0.0
  0
LINE
  5
CFF
  8
0
 10
447.67502071911082
 20
394.74849497899618
 30
0.0
 11
445.67502071911082
 21
394.74849497899618
 31
0.0
  0
LINE
  5
D00
  8
0
 10
447.67502071911082
 20
394.68599497899618
 30
0.0
 11
445.67502071911082
 21
394.68599497899618
 31
0.0
  0
LINE
  5
D01
  8
0
 10
447.67502071911082
 20
394.62349497899618
 30
0.0
 11
445.67502071911082
 21
394.62349497899618
 31
0.0
  0
LINE
  5
D02
  8
0
 10
447.67502071911082
 20
394.56099497899618
 30
0.0
 11
445.67502071911082
 21
394.56099497899618
 31
0.0
  0
LINE
  5
D03
  8
0
 10
447.67502071911082
 20
394.49849497899618
 30
0.0
 11
445.67502071911082
 21
394.49849497899618
 31
0.0
  0
LINE
  5
D04
  8
0
 10
447.67502071911082
 20
394.43599497899618
 30
0.0
 11
445.67502071911082
 21
394.43599497899618
 31
0.0
  0
LINE
  5
D05
  8
0
 10
447.67502071911082
 20
394.37349497899618
 30
0.0
 11
445.67502071911082
 21
394.37349497899618
 31
0.0
  0
LINE
  5
D06
  8
0
 10
447.67502071911082
 20
394.31099497899618
 30
0.0
 11
445.67502071911082
 21
394.31099497899618
 31
0.0
  0
LINE
  5
D07
  8
0
 10
447.67502071911082
 20
394.24849497899618
 30
0.0
 11
445.67502071911082
 21
394.24849497899618
 31
0.0
  0
LINE
  5
D08
  8
0
 10
447.67502071911082
 20
394.18599497899618
 30
0.0
 11
445.67502071911082
 21
394.18599497899618
 31
0.0
  0
LINE
  5
D09
  8
0
 10
447.67502071911082
 20
394.12349497899618
 30
0.0
 11
445.67502071911082
 21
394.12349497899618
 31
0.0
  0
LINE
  5
D0A
  8
0
 10
447.67502071911082
 20
394.06099497899618
 30
0.0
 11
445.67502071911082
 21
394.06099497899618
 31
0.0
  0
LINE
  5
D0B
  8
0
 10
447.67502071911082
 20
393.99849497899612
 30
0.0
 11
445.67502071911082
 21
393.99849497899618
 31
0.0
  0
LINE
  5
D0C
  8
0
 10
447.67502071911082
 20
393.93599497899612
 30
0.0
 11
445.67502071911082
 21
393.93599497899618
 31
0.0
  0
LINE
  5
D0D
  8
0
 10
447.67502071911082
 20
393.87349497899612
 30
0.0
 11
445.67502071911082
 21
393.87349497899618
 31
0.0
  0
LINE
  5
D0E
  8
0
 10
447.67502071911082
 20
393.81099497899612
 30
0.0
 11
445.67502071911082
 21
393.81099497899618
 31
0.0
  0
LINE
  5
D0F
  8
0
 10
447.67502071911082
 20
393.74849497899612
 30
0.0
 11
445.67502071911082
 21
393.74849497899618
 31
0.0
  0
LINE
  5
D10
  8
0
 10
447.67502071911082
 20
393.68599497899612
 30
0.0
 11
445.67502071911082
 21
393.68599497899618
 31
0.0
  0
LINE
  5
D11
  8
0
 10
447.67502071911082
 20
393.62349497899612
 30
0.0
 11
445.67502071911082
 21
393.62349497899618
 31
0.0
  0
LINE
  5
D12
  8
0
 10
447.67502071911082
 20
393.56099497899612
 30
0.0
 11
445.67502071911082
 21
393.56099497899618
 31
0.0
  0
LINE
  5
D13
  8
0
 10
447.67502071911082
 20
393.49849497899612
 30
0.0
 11
445.67502071911082
 21
393.49849497899618
 31
0.0
  0
LINE
  5
D14
  8
0
 10
447.67502071911082
 20
393.43599497899612
 30
0.0
 11
445.67502071911082
 21
393.43599497899618
 31
0.0
  0
LINE
  5
D15
  8
0
 10
447.67502071911082
 20
393.37349497899612
 30
0.0
 11
445.67502071911082
 21
393.37349497899618
 31
0.0
  0
LINE
  5
D16
  8
0
 10
447.67502071911082
 20
393.31099497899612
 30
0.0
 11
445.67502071911082
 21
393.31099497899618
 31
0.0
  0
LINE
  5
D17
  8
0
 10
447.67502071911082
 20
393.24849497899612
 30
0.0
 11
445.67502071911082
 21
393.24849497899618
 31
0.0
  0
LINE
  5
D18
  8
0
 10
447.67502071911082
 20
393.18599497899612
 30
0.0
 11
445.67502071911082
 21
393.18599497899618
 31
0.0
  0
LINE
  5
D19
  8
0
 10
447.67502071911082
 20
393.12349497899612
 30
0.0
 11
445.67502071911082
 21
393.12349497899618
 31
0.0
  0
LINE
  5
D1A
  8
0
 10
447.67502071911082
 20
393.06099497899612
 30
0.0
 11
445.67502071911082
 21
393.06099497899618
 31
0.0
  0
LINE
  5
D1B
  8
0
 10
447.67502071911082
 20
392.99849497899612
 30
0.0
 11
445.67502071911082
 21
392.99849497899618
 31
0.0
  0
LINE
  5
D1C
  8
0
 10
447.67502071911082
 20
392.93599497899612
 30
0.0
 11
445.67502071911082
 21
392.93599497899618
 31
0.0
  0
LINE
  5
D1D
  8
0
 10
447.67502071911082
 20
392.87349497899612
 30
0.0
 11
445.67502071911082
 21
392.87349497899618
 31
0.0
  0
LINE
  5
D1E
  8
0
 10
447.67502071911082
 20
392.81099497899612
 30
0.0
 11
445.67502071911082
 21
392.81099497899618
 31
0.0
  0
LINE
  5
D1F
  8
0
 10
447.67502071911082
 20
392.74849497899612
 30
0.0
 11
445.67502071911082
 21
392.74849497899618
 31
0.0
  0
LINE
  5
D20
  8
0
 10
447.67502071911082
 20
392.68599497899612
 30
0.0
 11
445.67502071911082
 21
392.68599497899618
 31
0.0
  0
LINE
  5
D21
  8
0
 10
447.67502071911082
 20
392.62349497899612
 30
0.0
 11
445.67502071911082
 21
392.62349497899618
 31
0.0
  0
LINE
  5
D22
  8
0
 10
447.67502071911082
 20
392.56099497899612
 30
0.0
 11
445.67502071911082
 21
392.56099497899618
 31
0.0
  0
LINE
  5
D23
  8
0
 10
447.67502071911082
 20
392.49849497899612
 30
0.0
 11
445.67502071911082
 21
392.49849497899618
 31
0.0
  0
LINE
  5
D24
  8
0
 10
447.67502071911082
 20
392.43599497899612
 30
0.0
 11
445.67502071911082
 21
392.43599497899618
 31
0.0
  0
LINE
  5
D25
  8
0
 10
447.67502071911082
 20
392.37349497899612
 30
0.0
 11
445.67502071911082
 21
392.37349497899618
 31
0.0
  0
LINE
  5
D26
  8
0
 10
447.67502071911082
 20
392.31099497899612
 30
0.0
 11
445.67502071911082
 21
392.31099497899618
 31
0.0
  0
LINE
  5
D27
  8
0
 10
447.67502071911082
 20
392.24849497899612
 30
0.0
 11
445.67502071911082
 21
392.24849497899618
 31
0.0
  0
LINE
  5
D28
  8
0
 10
447.67502071911082
 20
392.18599497899612
 30
0.0
 11
445.67502071911082
 21
392.18599497899618
 31
0.0
  0
LINE
  5
D29
  8
0
 10
447.67502071911082
 20
392.12349497899612
 30
0.0
 11
445.67502071911082
 21
392.12349497899618
 31
0.0
  0
LINE
  5
D2A
  8
0
 10
447.67502071911082
 20
392.06099497899612
 30
0.0
 11
445.67502071911082
 21
392.06099497899618
 31
0.0
  0
LINE
  5
D2B
  8
0
 10
447.67502071911082
 20
391.99849497899612
 30
0.0
 11
445.67502071911082
 21
391.99849497899618
 31
0.0
  0
LINE
  5
D2C
  8
0
 10
447.67502071911082
 20
391.93599497899612
 30
0.0
 11
445.67502071911082
 21
391.93599497899618
 31
0.0
  0
LINE
  5
D2D
  8
0
 10
447.67502071911082
 20
391.87349497899612
 30
0.0
 11
445.67502071911082
 21
391.87349497899618
 31
0.0
  0
LINE
  5
D2E
  8
0
 10
447.67502071911082
 20
391.81099497899612
 30
0.0
 11
445.67502071911082
 21
391.81099497899618
 31
0.0
  0
LINE
  5
D2F
  8
0
 10
447.67502071911082
 20
391.74849497899629
 30
0.0
 11
445.67502071911082
 21
391.74849497899618
 31
0.0
  0
LINE
  5
D30
  8
0
 10
447.67502071911082
 20
391.68599497899618
 30
0.0
 11
445.67502071911082
 21
391.68599497899618
 31
0.0
  0
LINE
  5
D31
  8
0
 10
447.67502071911082
 20
391.62349497899618
 30
0.0
 11
445.67502071911082
 21
391.62349497899618
 31
0.0
  0
LINE
  5
D32
  8
0
 10
446.17502071911082
 20
391.62042470665779
 30
0.0
 11
445.67502071911082
 21
391.62042470665779
 31
0.0
1001
ACAD
1000
ASC_BOUNDS
1002
{
1070
    19
1002
}
  0
LINE
  5
D33
  8
0
 10
446.17502071911082
 20
389.02042470665771
 30
0.0
 11
447.67502071911082
 21
389.02042470665771
 31
0.0
1001
ACAD
1000
ASC_BOUNDS
1002
{
1070
    19
1002
}
  0
LINE
  5
D34
  8
0
 10
446.17502071911082
 20
391.62042470665779
 30
0.0
 11
446.17502071911082
 21
389.02042470665771
 31
0.0
1001
ACAD
1000
ASC_BOUNDS
1002
{
1070
    19
1002
}
  0
LINE
  5
D35
  8
0
 10
447.67502071911082
 20
406.62349497899618
 30
0.0
 11
445.67502071911082
 21
406.62349497899612
 31
0.0
  0
LINE
  5
D36
  8
0
 10
447.67502071911082
 20
406.68599497899618
 30
0.0
 11
445.67502071911082
 21
406.68599497899618
 31
0.0
  0
LINE
  5
D37
  8
0
 10
447.67502071911082
 20
406.74849497899618
 30
0.0
 11
445.67502071911082
 21
406.74849497899612
 31
0.0
  0
LINE
  5
D38
  8
0
 10
447.67502071911082
 20
406.81099497899612
 30
0.0
 11
445.67502071911082
 21
406.81099497899612
 31
0.0
  0
LINE
  5
D39
  8
0
 10
447.67502071911082
 20
406.87349497899618
 30
0.0
 11
445.67502071911082
 21
406.87349497899612
 31
0.0
  0
LINE
  5
D3A
  8
0
 10
447.67502071911082
 20
406.93599497899618
 30
0.0
 11
445.67502071911082
 21
406.93599497899612
 31
0.0
  0
LINE
  5
D3B
  8
0
 10
447.67502071911082
 20
406.99849497899618
 30
0.0
 11
445.67502071911082
 21
406.99849497899618
 31
0.0
  0
LINE
  5
D3C
  8
0
 10
447.67502071911082
 20
407.06099497899618
 30
0.0
 11
445.67502071911082
 21
407.06099497899612
 31
0.0
  0
LINE
  5
D3D
  8
0
 10
447.67502071911082
 20
407.12349497899618
 30
0.0
 11
445.67502071911082
 21
407.12349497899612
 31
0.0
  0
LINE
  5
D3E
  8
0
 10
447.67502071911082
 20
407.18599497899618
 30
0.0
 11
445.67502071911082
 21
407.18599497899618
 31
0.0
  0
LINE
  5
D3F
  8
0
 10
447.67502071911082
 20
407.24849497899618
 30
0.0
 11
445.67502071911082
 21
407.24849497899612
 31
0.0
  0
LINE
  5
D40
  8
0
 10
447.67502071911082
 20
407.31099497899618
 30
0.0
 11
445.67502071911082
 21
407.31099497899612
 31
0.0
  0
LINE
  5
D41
  8
0
 10
447.67502071911082
 20
407.37349497899618
 30
0.0
 11
445.67502071911082
 21
407.37349497899618
 31
0.0
  0
LINE
  5
D42
  8
0
 10
447.67502071911082
 20
407.43599497899618
 30
0.0
 11
445.67502071911082
 21
407.43599497899612
 31
0.0
  0
LINE
  5
D43
  8
0
 10
447.67502071911082
 20
407.49849497899618
 30
0.0
 11
445.67502071911082
 21
407.49849497899612
 31
0.0
  0
LINE
  5
D44
  8
0
 10
447.67502071911082
 20
407.56099497899618
 30
0.0
 11
445.67502071911082
 21
407.56099497899618
 31
0.0
  0
LINE
  5
D45
  8
0
 10
447.67502071911082
 20
407.62349497899618
 30
0.0
 11
445.67502071911082
 21
407.62349497899612
 31
0.0
  0
LINE
  5
D46
  8
0
 10
447.67502071911082
 20
407.68599497899618
 30
0.0
 11
445.67502071911082
 21
407.68599497899618
 31
0.0
  0
LINE
  5
D47
  8
0
 10
447.67502071911082
 20
407.74849497899618
 30
0.0
 11
445.67502071911082
 21
407.74849497899612
 31
0.0
  0
LINE
  5
D48
  8
0
 10
447.67502071911082
 20
407.81099497899601
 30
0.0
 11
445.67502071911082
 21
407.81099497899612
 31
0.0
  0
LINE
  5
D49
  8
0
 10
447.67502071911082
 20
407.87349497899612
 30
0.0
 11
445.67502071911082
 21
407.87349497899618
 31
0.0
  0
LINE
  5
D4A
  8
0
 10
447.67502071911082
 20
407.93599497899612
 30
0.0
 11
445.67502071911082
 21
407.93599497899612
 31
0.0
  0
LINE
  5
D4B
  8
0
 10
447.67502071911082
 20
407.99849497899601
 30
0.0
 11
445.67502071911082
 21
407.99849497899612
 31
0.0
  0
LINE
  5
D4C
  8
0
 10
447.67502071911082
 20
408.06099497899612
 30
0.0
 11
445.67502071911082
 21
408.06099497899618
 31
0.0
  0
LINE
  5
D4D
  8
0
 10
447.67502071911082
 20
408.12349497899612
 30
0.0
 11
445.67502071911082
 21
408.12349497899612
 31
0.0
  0
LINE
  5
D4E
  8
0
 10
447.67502071911082
 20
408.18599497899612
 30
0.0
 11
445.67502071911082
 21
408.18599497899612
 31
0.0
  0
LINE
  5
D4F
  8
0
 10
447.67502071911082
 20
408.24849497899612
 30
0.0
 11
445.67502071911082
 21
408.24849497899618
 31
0.0
  0
LINE
  5
D50
  8
0
 10
447.67502071911082
 20
408.31099497899612
 30
0.0
 11
445.67502071911082
 21
408.31099497899612
 31
0.0
  0
LINE
  5
D51
  8
0
 10
447.67502071911082
 20
405.06099497899612
 30
0.0
 11
445.67502071911082
 21
405.06099497899612
 31
0.0
  0
LINE
  5
D52
  8
0
 10
447.67502071911082
 20
405.12349497899618
 30
0.0
 11
445.67502071911082
 21
405.12349497899618
 31
0.0
  0
LINE
  5
D53
  8
0
 10
447.67502071911082
 20
405.18599497899612
 30
0.0
 11
445.67502071911082
 21
405.18599497899612
 31
0.0
  0
LINE
  5
D54
  8
0
 10
447.67502071911082
 20
405.24849497899612
 30
0.0
 11
445.67502071911082
 21
405.24849497899612
 31
0.0
  0
LINE
  5
D55
  8
0
 10
447.67502071911082
 20
405.31099497899612
 30
0.0
 11
445.67502071911082
 21
405.31099497899612
 31
0.0
  0
LINE
  5
D56
  8
0
 10
447.67502071911082
 20
405.37349497899612
 30
0.0
 11
445.67502071911082
 21
405.37349497899612
 31
0.0
  0
LINE
  5
D57
  8
0
 10
447.67502071911082
 20
405.43599497899618
 30
0.0
 11
445.67502071911082
 21
405.43599497899618
 31
0.0
  0
LINE
  5
D58
  8
0
 10
447.67502071911082
 20
405.49849497899612
 30
0.0
 11
445.67502071911082
 21
405.49849497899612
 31
0.0
  0
LINE
  5
D59
  8
0
 10
447.67502071911082
 20
405.56099497899618
 30
0.0
 11
445.67502071911082
 21
405.56099497899612
 31
0.0
  0
LINE
  5
D5A
  8
0
 10
447.67502071911082
 20
405.62349497899618
 30
0.0
 11
445.67502071911082
 21
405.62349497899618
 31
0.0
  0
LINE
  5
D5B
  8
0
 10
447.67502071911082
 20
405.68599497899618
 30
0.0
 11
445.67502071911082
 21
405.68599497899612
 31
0.0
  0
LINE
  5
D5C
  8
0
 10
447.67502071911082
 20
405.74849497899618
 30
0.0
 11
445.67502071911082
 21
405.74849497899612
 31
0.0
  0
LINE
  5
D5D
  8
0
 10
447.67502071911082
 20
405.81099497899618
 30
0.0
 11
445.67502071911082
 21
405.81099497899618
 31
0.0
  0
LINE
  5
D5E
  8
0
 10
447.67502071911082
 20
405.87349497899618
 30
0.0
 11
445.67502071911082
 21
405.87349497899612
 31
0.0
  0
LINE
  5
D5F
  8
0
 10
447.67502071911082
 20
405.93599497899618
 30
0.0
 11
445.67502071911082
 21
405.93599497899612
 31
0.0
  0
LINE
  5
D60
  8
0
 10
447.67502071911082
 20
405.99849497899618
 30
0.0
 11
445.67502071911082
 21
405.99849497899618
 31
0.0
  0
LINE
  5
D61
  8
0
 10
447.67502071911082
 20
406.06099497899618
 30
0.0
 11
445.67502071911082
 21
406.06099497899612
 31
0.0
  0
LINE
  5
D62
  8
0
 10
447.67502071911082
 20
406.12349497899618
 30
0.0
 11
445.67502071911082
 21
406.12349497899618
 31
0.0
  0
LINE
  5
D63
  8
0
 10
447.67502071911082
 20
406.18599497899618
 30
0.0
 11
445.67502071911082
 21
406.18599497899612
 31
0.0
  0
LINE
  5
D64
  8
0
 10
447.67502071911082
 20
406.24849497899618
 30
0.0
 11
445.67502071911082
 21
406.24849497899612
 31
0.0
  0
LINE
  5
D65
  8
0
 10
447.67502071911082
 20
406.31099497899618
 30
0.0
 11
445.67502071911082
 21
406.31099497899618
 31
0.0
  0
LINE
  5
D66
  8
0
 10
447.67502071911082
 20
406.37349497899618
 30
0.0
 11
445.67502071911082
 21
406.37349497899612
 31
0.0
  0
LINE
  5
D67
  8
0
 10
447.67502071911082
 20
406.43599497899618
 30
0.0
 11
445.67502071911082
 21
406.43599497899612
 31
0.0
  0
LINE
  5
D68
  8
0
 10
447.67502071911082
 20
406.49849497899618
 30
0.0
 11
445.67502071911082
 21
406.49849497899618
 31
0.0
  0
LINE
  5
D69
  8
0
 10
447.67502071911082
 20
406.56099497899618
 30
0.0
 11
445.67502071911082
 21
406.56099497899612
 31
0.0
  0
LINE
  5
D6A
  8
0
 10
447.67502071911082
 20
400.81099497899612
 30
0.0
 11
445.67502071911082
 21
400.81099497899612
 31
0.0
  0
LINE
  5
D6B
  8
0
 10
447.67502071911082
 20
400.87349497899612
 30
0.0
 11
445.67502071911082
 21
400.87349497899612
 31
0.0
  0
LINE
  5
D6C
  8
0
 10
447.67502071911082
 20
400.93599497899618
 30
0.0
 11
445.67502071911082
 21
400.93599497899618
 31
0.0
  0
LINE
  5
D6D
  8
0
 10
447.67502071911082
 20
400.99849497899612
 30
0.0
 11
445.67502071911082
 21
400.99849497899612
 31
0.0
  0
LINE
  5
D6E
  8
0
 10
447.67502071911082
 20
401.06099497899612
 30
0.0
 11
445.67502071911082
 21
401.06099497899612
 31
0.0
  0
LINE
  5
D6F
  8
0
 10
447.67502071911082
 20
401.12349497899618
 30
0.0
 11
445.67502071911082
 21
401.12349497899618
 31
0.0
  0
LINE
  5
D70
  8
0
 10
447.67502071911082
 20
401.18599497899612
 30
0.0
 11
445.67502071911082
 21
401.18599497899612
 31
0.0
  0
LINE
  5
D71
  8
0
 10
447.67502071911082
 20
401.24849497899612
 30
0.0
 11
445.67502071911082
 21
401.24849497899612
 31
0.0
  0
LINE
  5
D72
  8
0
 10
447.67502071911082
 20
401.31099497899618
 30
0.0
 11
445.67502071911082
 21
401.31099497899618
 31
0.0
  0
LINE
  5
D73
  8
0
 10
447.67502071911082
 20
401.37349497899612
 30
0.0
 11
445.67502071911082
 21
401.37349497899612
 31
0.0
  0
LINE
  5
D74
  8
0
 10
447.67502071911082
 20
401.43599497899618
 30
0.0
 11
445.67502071911082
 21
401.43599497899618
 31
0.0
  0
LINE
  5
D75
  8
0
 10
447.67502071911082
 20
401.49849497899612
 30
0.0
 11
445.67502071911082
 21
401.49849497899612
 31
0.0
  0
LINE
  5
D76
  8
0
 10
447.67502071911082
 20
401.56099497899612
 30
0.0
 11
445.67502071911082
 21
401.56099497899612
 31
0.0
  0
LINE
  5
D77
  8
0
 10
447.67502071911082
 20
401.62349497899618
 30
0.0
 11
445.67502071911082
 21
401.62349497899618
 31
0.0
  0
LINE
  5
D78
  8
0
 10
447.67502071911082
 20
401.68599497899612
 30
0.0
 11
445.67502071911082
 21
401.68599497899612
 31
0.0
  0
LINE
  5
D79
  8
0
 10
447.67502071911082
 20
401.74849497899612
 30
0.0
 11
445.67502071911082
 21
401.74849497899612
 31
0.0
  0
LINE
  5
D7A
  8
0
 10
447.67502071911082
 20
401.81099497899618
 30
0.0
 11
445.67502071911082
 21
401.81099497899618
 31
0.0
  0
LINE
  5
D7B
  8
0
 10
447.67502071911082
 20
401.87349497899612
 30
0.0
 11
445.67502071911082
 21
401.87349497899612
 31
0.0
  0
LINE
  5
D7C
  8
0
 10
447.67502071911082
 20
401.93599497899612
 30
0.0
 11
445.67502071911082
 21
401.93599497899612
 31
0.0
  0
LINE
  5
D7D
  8
0
 10
447.67502071911082
 20
401.99849497899618
 30
0.0
 11
445.67502071911082
 21
401.99849497899618
 31
0.0
  0
LINE
  5
D7E
  8
0
 10
447.67502071911082
 20
402.06099497899612
 30
0.0
 11
445.67502071911082
 21
402.06099497899612
 31
0.0
  0
LINE
  5
D7F
  8
0
 10
447.67502071911082
 20
402.12349497899612
 30
0.0
 11
445.67502071911082
 21
402.12349497899612
 31
0.0
  0
LINE
  5
D80
  8
0
 10
447.67502071911082
 20
402.18599497899612
 30
0.0
 11
445.67502071911082
 21
402.18599497899612
 31
0.0
  0
LINE
  5
D81
  8
0
 10
447.67502071911082
 20
402.24849497899612
 30
0.0
 11
445.67502071911082
 21
402.24849497899612
 31
0.0
  0
LINE
  5
D82
  8
0
 10
447.67502071911082
 20
402.31099497899618
 30
0.0
 11
445.67502071911082
 21
402.31099497899618
 31
0.0
  0
LINE
  5
D83
  8
0
 10
447.67502071911082
 20
402.37349497899612
 30
0.0
 11
445.67502071911082
 21
402.37349497899612
 31
0.0
  0
LINE
  5
D84
  8
0
 10
447.67502071911082
 20
402.43599497899612
 30
0.0
 11
445.67502071911082
 21
402.43599497899612
 31
0.0
  0
LINE
  5
D85
  8
0
 10
447.67502071911082
 20
402.49849497899618
 30
0.0
 11
445.67502071911082
 21
402.49849497899618
 31
0.0
  0
LINE
  5
D86
  8
0
 10
447.67502071911082
 20
402.56099497899612
 30
0.0
 11
445.67502071911082
 21
402.56099497899612
 31
0.0
  0
LINE
  5
D87
  8
0
 10
447.67502071911082
 20
402.62349497899612
 30
0.0
 11
445.67502071911082
 21
402.62349497899612
 31
0.0
  0
LINE
  5
D88
  8
0
 10
447.67502071911082
 20
402.68599497899618
 30
0.0
 11
445.67502071911082
 21
402.68599497899618
 31
0.0
  0
LINE
  5
D89
  8
0
 10
447.67502071911082
 20
402.74849497899612
 30
0.0
 11
445.67502071911082
 21
402.74849497899612
 31
0.0
  0
LINE
  5
D8A
  8
0
 10
447.67502071911082
 20
402.81099497899612
 30
0.0
 11
445.67502071911082
 21
402.81099497899612
 31
0.0
  0
LINE
  5
D8B
  8
0
 10
447.67502071911082
 20
402.87349497899618
 30
0.0
 11
445.67502071911082
 21
402.87349497899618
 31
0.0
  0
LINE
  5
D8C
  8
0
 10
447.67502071911082
 20
402.93599497899612
 30
0.0
 11
445.67502071911082
 21
402.93599497899612
 31
0.0
  0
LINE
  5
D8D
  8
0
 10
447.67502071911082
 20
402.99849497899618
 30
0.0
 11
445.67502071911082
 21
402.99849497899618
 31
0.0
  0
LINE
  5
D8E
  8
0
 10
447.67502071911082
 20
403.06099497899612
 30
0.0
 11
445.67502071911082
 21
403.06099497899612
 31
0.0
  0
LINE
  5
D8F
  8
0
 10
447.67502071911082
 20
403.12349497899612
 30
0.0
 11
445.67502071911082
 21
403.12349497899612
 31
0.0
  0
LINE
  5
D90
  8
0
 10
447.67502071911082
 20
403.18599497899618
 30
0.0
 11
445.67502071911082
 21
403.18599497899618
 31
0.0
  0
LINE
  5
D91
  8
0
 10
447.67502071911082
 20
403.24849497899612
 30
0.0
 11
445.67502071911082
 21
403.24849497899612
 31
0.0
  0
LINE
  5
D92
  8
0
 10
447.67502071911082
 20
403.31099497899612
 30
0.0
 11
445.67502071911082
 21
403.31099497899612
 31
0.0
  0
LINE
  5
D93
  8
0
 10
447.67502071911082
 20
403.37349497899618
 30
0.0
 11
445.67502071911082
 21
403.37349497899618
 31
0.0
  0
LINE
  5
D94
  8
0
 10
447.67502071911082
 20
403.43599497899612
 30
0.0
 11
445.67502071911082
 21
403.43599497899612
 31
0.0
  0
LINE
  5
D95
  8
0
 10
447.67502071911082
 20
403.49849497899612
 30
0.0
 11
445.67502071911082
 21
403.49849497899612
 31
0.0
  0
LINE
  5
D96
  8
0
 10
447.67502071911082
 20
403.56099497899618
 30
0.0
 11
445.67502071911082
 21
403.56099497899618
 31
0.0
  0
LINE
  5
D97
  8
0
 10
447.67502071911082
 20
403.62349497899612
 30
0.0
 11
445.67502071911082
 21
403.62349497899612
 31
0.0
  0
LINE
  5
D98
  8
0
 10
447.67502071911082
 20
403.68599497899612
 30
0.0
 11
445.67502071911082
 21
403.68599497899612
 31
0.0
  0
LINE
  5
D99
  8
0
 10
447.67502071911082
 20
403.74849497899612
 30
0.0
 11
445.67502071911082
 21
403.74849497899612
 31
0.0
  0
LINE
  5
D9A
  8
0
 10
447.67502071911082
 20
403.81099497899612
 30
0.0
 11
445.67502071911082
 21
403.81099497899612
 31
0.0
  0
LINE
  5
D9B
  8
0
 10
447.67502071911082
 20
403.87349497899618
 30
0.0
 11
445.67502071911082
 21
403.87349497899618
 31
0.0
  0
LINE
  5
D9C
  8
0
 10
447.67502071911082
 20
403.93599497899612
 30
0.0
 11
445.67502071911082
 21
403.93599497899612
 31
0.0
  0
LINE
  5
D9D
  8
0
 10
447.67502071911082
 20
403.99849497899612
 30
0.0
 11
445.67502071911082
 21
403.99849497899612
 31
0.0
  0
LINE
  5
D9E
  8
0
 10
447.67502071911082
 20
404.06099497899618
 30
0.0
 11
445.67502071911082
 21
404.06099497899618
 31
0.0
  0
LINE
  5
D9F
  8
0
 10
447.67502071911082
 20
404.12349497899612
 30
0.0
 11
445.67502071911082
 21
404.12349497899612
 31
0.0
  0
LINE
  5
DA0
  8
0
 10
447.67502071911082
 20
404.18599497899612
 30
0.0
 11
445.67502071911082
 21
404.18599497899612
 31
0.0
  0
LINE
  5
DA1
  8
0
 10
447.67502071911082
 20
404.24849497899618
 30
0.0
 11
445.67502071911082
 21
404.24849497899618
 31
0.0
  0
LINE
  5
DA2
  8
0
 10
447.67502071911082
 20
404.31099497899612
 30
0.0
 11
445.67502071911082
 21
404.31099497899612
 31
0.0
  0
LINE
  5
DA3
  8
0
 10
447.67502071911082
 20
404.37349497899612
 30
0.0
 11
445.67502071911082
 21
404.37349497899612
 31
0.0
  0
LINE
  5
DA4
  8
0
 10
447.67502071911082
 20
404.43599497899618
 30
0.0
 11
445.67502071911082
 21
404.43599497899618
 31
0.0
  0
LINE
  5
DA5
  8
0
 10
447.67502071911082
 20
404.49849497899612
 30
0.0
 11
445.67502071911082
 21
404.49849497899612
 31
0.0
  0
LINE
  5
DA6
  8
0
 10
447.67502071911082
 20
404.56099497899618
 30
0.0
 11
445.67502071911082
 21
404.56099497899618
 31
0.0
  0
LINE
  5
DA7
  8
0
 10
447.67502071911082
 20
404.62349497899612
 30
0.0
 11
445.67502071911082
 21
404.62349497899612
 31
0.0
  0
LINE
  5
DA8
  8
0
 10
447.67502071911082
 20
404.68599497899612
 30
0.0
 11
445.67502071911082
 21
404.68599497899612
 31
0.0
  0
LINE
  5
DA9
  8
0
 10
447.67502071911082
 20
404.74849497899618
 30
0.0
 11
445.67502071911082
 21
404.74849497899618
 31
0.0
  0
LINE
  5
DAA
  8
0
 10
447.67502071911082
 20
404.81099497899612
 30
0.0
 11
445.67502071911082
 21
404.81099497899612
 31
0.0
  0
LINE
  5
DAB
  8
0
 10
447.67502071911082
 20
404.87349497899612
 30
0.0
 11
445.67502071911082
 21
404.87349497899612
 31
0.0
  0
LINE
  5
DAC
  8
0
 10
447.67502071911082
 20
404.93599497899618
 30
0.0
 11
445.67502071911082
 21
404.93599497899618
 31
0.0
  0
LINE
  5
DAD
  8
0
 10
447.67502071911082
 20
404.99849497899612
 30
0.0
 11
445.67502071911082
 21
404.99849497899612
 31
0.0
  0
LINE
  5
DAE
  8
0
 10
447.67502071911082
 20
400.49849497899612
 30
0.0
 11
445.67502071911082
 21
400.49849497899612
 31
0.0
  0
LINE
  5
DAF
  8
0
 10
447.67502071911082
 20
400.43599497899618
 30
0.0
 11
445.67502071911082
 21
400.43599497899618
 31
0.0
  0
LINE
  5
DB0
  8
0
 10
447.67502071911082
 20
400.37349497899612
 30
0.0
 11
445.67502071911082
 21
400.37349497899612
 31
0.0
  0
LINE
  5
DB1
  8
0
 10
447.67502071911082
 20
400.31099497899612
 30
0.0
 11
445.67502071911082
 21
400.31099497899612
 31
0.0
  0
LINE
  5
DB2
  8
0
 10
447.67502071911082
 20
400.24849497899618
 30
0.0
 11
445.67502071911082
 21
400.24849497899618
 31
0.0
  0
LINE
  5
DB3
  8
0
 10
447.67502071911082
 20
400.18599497899612
 30
0.0
 11
445.67502071911082
 21
400.18599497899612
 31
0.0
  0
LINE
  5
DB4
  8
0
 10
447.67502071911082
 20
400.12349497899612
 30
0.0
 11
445.67502071911082
 21
400.12349497899612
 31
0.0
  0
LINE
  5
DB5
  8
0
 10
447.67502071911082
 20
400.06099497899618
 30
0.0
 11
445.67502071911082
 21
400.06099497899618
 31
0.0
  0
LINE
  5
DB6
  8
0
 10
447.67502071911082
 20
399.99849497899618
 30
0.0
 11
445.67502071911082
 21
399.99849497899618
 31
0.0
  0
LINE
  5
DB7
  8
0
 10
447.67502071911082
 20
399.93599497899618
 30
0.0
 11
445.67502071911082
 21
399.93599497899618
 31
0.0
  0
LINE
  5
DB8
  8
0
 10
447.67502071911082
 20
399.87349497899618
 30
0.0
 11
445.67502071911082
 21
399.87349497899618
 31
0.0
  0
LINE
  5
DB9
  8
0
 10
447.67502071911082
 20
399.81099497899618
 30
0.0
 11
445.67502071911082
 21
399.81099497899618
 31
0.0
  0
LINE
  5
DBA
  8
0
 10
447.67502071911082
 20
399.74849497899618
 30
0.0
 11
445.67502071911082
 21
399.74849497899618
 31
0.0
  0
LINE
  5
DBB
  8
0
 10
447.67502071911082
 20
399.68599497899618
 30
0.0
 11
445.67502071911082
 21
399.68599497899618
 31
0.0
  0
LINE
  5
DBC
  8
0
 10
447.67502071911082
 20
399.62349497899618
 30
0.0
 11
445.67502071911082
 21
399.62349497899618
 31
0.0
  0
LINE
  5
DBD
  8
0
 10
447.67502071911082
 20
399.56099497899618
 30
0.0
 11
445.67502071911082
 21
399.56099497899618
 31
0.0
  0
LINE
  5
DBE
  8
0
 10
447.67502071911082
 20
399.49849497899618
 30
0.0
 11
445.67502071911082
 21
399.49849497899618
 31
0.0
  0
LINE
  5
DBF
  8
0
 10
447.67502071911082
 20
399.43599497899618
 30
0.0
 11
445.67502071911082
 21
399.43599497899618
 31
0.0
  0
LINE
  5
DC0
  8
0
 10
447.67502071911082
 20
399.37349497899618
 30
0.0
 11
445.67502071911082
 21
399.37349497899618
 31
0.0
  0
LINE
  5
DC1
  8
0
 10
447.67502071911082
 20
399.31099497899618
 30
0.0
 11
445.67502071911082
 21
399.31099497899618
 31
0.0
  0
LINE
  5
DC2
  8
0
 10
447.67502071911082
 20
399.24849497899618
 30
0.0
 11
445.67502071911082
 21
399.24849497899618
 31
0.0
  0
LINE
  5
DC3
  8
0
 10
447.67502071911082
 20
399.18599497899618
 30
0.0
 11
445.67502071911082
 21
399.18599497899618
 31
0.0
  0
LINE
  5
DC4
  8
0
 10
447.67502071911082
 20
400.56099497899612
 30
0.0
 11
445.67502071911082
 21
400.56099497899612
 31
0.0
  0
LINE
  5
DC5
  8
0
 10
447.67502071911082
 20
400.62349497899612
 30
0.0
 11
445.67502071911082
 21
400.62349497899612
 31
0.0
  0
LINE
  5
DC6
  8
0
 10
447.67502071911082
 20
400.68599497899612
 30
0.0
 11
445.67502071911082
 21
400.68599497899612
 31
0.0
  0
LINE
  5
DC7
  8
0
 10
447.67502071911082
 20
400.74849497899618
 30
0.0
 11
445.67502071911082
 21
400.74849497899618
 31
0.0
  0
LINE
  5
DC8
  8
0
 10
447.67502071911082
 20
398.74849497899618
 30
0.0
 11
445.67502071911082
 21
398.74849497899618
 31
0.0
  0
LINE
  5
DC9
  8
0
 10
447.67502071911082
 20
398.68599497899618
 30
0.0
 11
445.67502071911082
 21
398.68599497899618
 31
0.0
  0
LINE
  5
DCA
  8
0
 10
447.67502071911082
 20
398.62349497899618
 30
0.0
 11
445.67502071911082
 21
398.62349497899618
 31
0.0
  0
LINE
  5
DCB
  8
0
 10
447.67502071911082
 20
398.56099497899618
 30
0.0
 11
445.67502071911082
 21
398.56099497899618
 31
0.0
  0
LINE
  5
DCC
  8
0
 10
447.67502071911082
 20
398.49849497899618
 30
0.0
 11
445.67502071911082
 21
398.49849497899618
 31
0.0
  0
LINE
  5
DCD
  8
0
 10
447.67502071911082
 20
398.43599497899618
 30
0.0
 11
445.67502071911082
 21
398.43599497899618
 31
0.0
  0
LINE
  5
DCE
  8
0
 10
447.67502071911082
 20
398.37349497899618
 30
0.0
 11
445.67502071911082
 21
398.37349497899618
 31
0.0
  0
LINE
  5
DCF
  8
0
 10
447.67502071911082
 20
398.31099497899618
 30
0.0
 11
445.67502071911082
 21
398.31099497899618
 31
0.0
  0
LINE
  5
DD0
  8
0
 10
447.67502071911082
 20
398.24849497899618
 30
0.0
 11
445.67502071911082
 21
398.24849497899618
 31
0.0
  0
LINE
  5
DD1
  8
0
 10
447.67502071911082
 20
398.18599497899618
 30
0.0
 11
445.67502071911082
 21
398.18599497899618
 31
0.0
  0
LINE
  5
DD2
  8
0
 10
447.67502071911082
 20
398.12349497899618
 30
0.0
 11
445.67502071911082
 21
398.12349497899618
 31
0.0
  0
LINE
  5
DD3
  8
0
 10
447.67502071911082
 20
398.06099497899618
 30
0.0
 11
445.67502071911082
 21
398.06099497899618
 31
0.0
  0
LINE
  5
DD4
  8
0
 10
447.67502071911082
 20
397.99849497899618
 30
0.0
 11
445.67502071911082
 21
397.99849497899618
 31
0.0
  0
LINE
  5
DD5
  8
0
 10
447.67502071911082
 20
397.93599497899618
 30
0.0
 11
445.67502071911082
 21
397.93599497899618
 31
0.0
  0
LINE
  5
DD6
  8
0
 10
447.67502071911082
 20
397.87349497899618
 30
0.0
 11
445.67502071911082
 21
397.87349497899618
 31
0.0
  0
LINE
  5
DD7
  8
0
 10
447.67502071911082
 20
397.81099497899618
 30
0.0
 11
445.67502071911082
 21
397.81099497899618
 31
0.0
  0
LINE
  5
DD8
  8
0
 10
447.67502071911082
 20
397.74849497899618
 30
0.0
 11
445.67502071911082
 21
397.74849497899618
 31
0.0
  0
LINE
  5
DD9
  8
0
 10
447.67502071911082
 20
397.68599497899618
 30
0.0
 11
445.67502071911082
 21
397.68599497899618
 31
0.0
  0
LINE
  5
DDA
  8
0
 10
447.67502071911082
 20
397.62349497899618
 30
0.0
 11
445.67502071911082
 21
397.62349497899618
 31
0.0
  0
LINE
  5
DDB
  8
0
 10
447.67502071911082
 20
397.56099497899618
 30
0.0
 11
445.67502071911082
 21
397.56099497899618
 31
0.0
  0
LINE
  5
DDC
  8
0
 10
447.67502071911082
 20
397.49849497899618
 30
0.0
 11
445.67502071911082
 21
397.49849497899618
 31
0.0
  0
LINE
  5
DDD
  8
0
 10
447.67502071911082
 20
399.12349497899618
 30
0.0
 11
445.67502071911082
 21
399.12349497899618
 31
0.0
  0
LINE
  5
DDE
  8
0
 10
447.67502071911082
 20
399.06099497899618
 30
0.0
 11
445.67502071911082
 21
399.06099497899618
 31
0.0
  0
LINE
  5
DDF
  8
0
 10
447.67502071911082
 20
398.99849497899618
 30
0.0
 11
445.67502071911082
 21
398.99849497899618
 31
0.0
  0
LINE
  5
DE0
  8
0
 10
447.67502071911082
 20
398.93599497899618
 30
0.0
 11
445.67502071911082
 21
398.93599497899618
 31
0.0
  0
LINE
  5
DE1
  8
0
 10
447.67502071911082
 20
398.87349497899618
 30
0.0
 11
445.67502071911082
 21
398.87349497899618
 31
0.0
  0
LINE
  5
DE2
  8
0
 10
447.67502071911082
 20
398.81099497899618
 30
0.0
 11
445.67502071911082
 21
398.81099497899618
 31
0.0
  0
LINE
  5
DE3
  8
0
 10
451.40805021270683
 20
396.4500699288829
 30
0.0
 11
453.90536921304857
 21
399.05417190117231
 31
0.0
  0
LINE
  5
DE4
  8
0
 10
454.23954638527891
 20
398.6822503732576
 30
0.0
 11
451.7422273780233
 21
396.07814839475577
 31
0.0
  0
LINE
  5
DE5
  8
0
 10
453.0875916233316
 20
397.48103912791157
 30
0.0
 11
453.08759150192782
 21
395.3041462173066
 31
0.0
  0
LINE
  5
DE6
  8
0
 10
452.3127444768827
 20
398.4930973224071
 30
0.0
 11
452.31274442577711
 21
397.39344800122871
 31
0.0
  0
LINE
  5
DE7
  8
0
 10
454.4448377449815
 20
405.6447486098109
 30
0.0
 11
454.44483764972131
 21
395.3961008003032
 31
0.0
  0
ARC
  5
DE8
  8
0
 10
468.10390490731021
 20
395.5362725798056
 30
0.0
 40
13.659786472529619
 50
158.59996093118141
 51
201.4000390688187
  0
LINE
  5
DE9
  8
3
 10
454.44429915978827
 20
395.46600667503287
 30
0.0
 11
453.10200741299798
 21
395.46600667503287
 31
0.0
  0
LINE
  5
DEA
  8
0
 10
454.53752442303272
 20
395.07131639833563
 30
0.0
 11
451.29324139837053
 21
393.49252667379159
 31
0.0
  0
LINE
  5
DEB
  8
0
 10
451.10844644455409
 20
393.95712416669318
 30
0.0
 11
454.35272946057938
 21
395.53591388780183
 31
0.0
  0
LINE
  5
DEC
  8
0
 10
451.29324139837053
 20
393.49252667379159
 30
0.0
 11
451.10844644455409
 21
393.95712416669318
 31
0.0
  0
LINE
  5
DED
  8
0
 10
451.7422273780233
 20
396.07814839475577
 30
0.0
 11
451.40805021270683
 21
396.4500699288829
 31
0.0
  0
LINE
  5
DEE
  8
0
 10
454.35272946057938
 20
395.53591388780183
 30
0.0
 11
454.53752442303272
 21
395.07131639833563
 31
0.0
  0
LINE
  5
DEF
  8
0
 10
452.31274439229742
 20
396.67306017067358
 30
0.0
 11
452.31274436956409
 21
396.1839050044606
 31
0.0
  0
LINE
  5
DF0
  8
0
 10
452.08600443643309
 20
396.4413447499781
 30
0.0
 11
453.32426709906429
 21
395.0354255528178
 31
0.0
  0
LINE
  5
DF1
  8
0
 10
453.08759144959259
 20
394.36572466594248
 30
0.0
 11
453.08759122639538
 21
390.36357988326398
 31
0.0
  0
LINE
  5
DF2
  8
0
 10
453.08759132957931
 20
392.21376854868521
 30
0.0
 11
451.58228703315399
 21
393.62070731797638
 31
0.0
  0
LINE
  5
DF3
  8
0
 10
451.99256405274042
 20
393.83284328996439
 30
0.0
 11
453.08759136504528
 21
392.84970762911661
 31
0.0
  0
LINE
  5
DF4
  8
0
 10
452.3127442187116
 20
392.93798254524512
 30
0.0
 11
452.31274409906757
 21
390.36357997318282
 31
0.0
  0
LINE
  5
DF5
  8
0
 10
453.08759122639538
 20
390.3635799035095
 30
0.0
 11
452.31274409906757
 21
390.36357997318282
 31
0.0
  0
LINE
  5
DF6
  8
0
 10
454.48194397748341
 20
394.52042470665771
 30
0.0
 11
453.53977649133878
 21
394.52042470665771
 31
0.0
  0
LINE
  5
DF7
  8
0
 10
454.48194397748381
 20
394.52042470665771
 30
0.0
 11
454.26967264609482
 21
394.52042470665771
 31
0.0
  0
LINE
  5
DF8
  8
0
 10
454.53752442303272
 20
395.07131639833563
 30
0.0
 11
453.08759135450663
 21
392.6607401954326
 31
0.0
  0
LINE
  5
DF9
  8
0
 10
452.89618642914928
 20
394.82710545308282
 30
0.0
 11
451.7931453758913
 21
396.13124359749293
 31
0.0
  0
LINE
  5
DFA
  8
0
 10
452.31274433856618
 20
395.51691575809042
 30
0.0
 11
452.31274429331228
 21
394.54318064061391
 31
0.0
  0
LINE
  5
DFB
  8
3
 10
454.44429920755698
 20
405.57484273828271
 30
0.0
 11
453.07317617267461
 21
405.57484273828271
 31
0.0
  0
LINE
  5
DFC
  8
0
 10
451.46871358478683
 20
405.45184384315701
 30
0.0
 11
451.21065698615121
 21
405.88010404124589
 31
0.0
  0
LINE
  5
DFD
  8
0
 10
451.21065698615121
 20
405.88010404124589
 30
0.0
 11
454.15419049015821
 21
407.96662262068321
 31
0.0
  0
LINE
  5
DFE
  8
0
 10
454.15419049015821
 20
407.96662262068321
 30
0.0
 11
454.41224709675498
 21
407.53836242739169
 31
0.0
  0
LINE
  5
DFF
  8
0
 10
453.08759213185601
 20
406.59938307121229
 30
0.0
 11
453.08759201332703
 21
404.47403895096897
 31
0.0
  0
LINE
  5
E00
  8
0
 10
453.75848025248132
 20
405.29709047886962
 30
0.0
 11
454.12150827790077
 21
404.95327271009319
 31
0.0
  0
LINE
  5
E01
  8
0
 10
451.86479359374658
 20
405.72648938594938
 30
0.0
 11
453.0300564915733
 21
404.40345387237579
 31
0.0
  0
LINE
  5
E02
  8
0
 10
452.73425511739993
 20
404.04056217334198
 30
0.0
 11
451.51365038209951
 21
405.4836972133761
 31
0.0
  0
LINE
  5
E03
  8
0
 10
451.47886130885661
 20
402.50043412825801
 30
0.0
 11
453.75848025248132
 21
405.29709047886962
 31
0.0
  0
LINE
  5
E04
  8
0
 10
454.12150827790077
 20
404.95327271009319
 30
0.0
 11
451.8418893278847
 21
402.15661635273301
 31
0.0
  0
LINE
  5
E05
  8
0
 10
452.8248905614501
 20
401.01242348778879
 30
0.0
 11
451.86235823332692
 21
402.1504365477976
 31
0.0
  0
LINE
  5
E06
  8
0
 10
451.8418893278847
 20
402.15661635273301
 30
0.0
 11
451.47886130885661
 21
402.50043412825801
 31
0.0
  0
LINE
  5
E07
  8
0
 10
452.12340579158399
 20
402.50198319919667
 30
0.0
 11
453.13430639669889
 21
401.35421010545582
 31
0.0
  0
LINE
  5
E08
  8
0
 10
453.0875919693147
 20
403.68485518910109
 30
0.0
 11
453.08759184229399
 21
401.40724965094688
 31
0.0
  0
LINE
  5
E09
  8
0
 10
453.86858798740923
 20
402.12608462935191
 30
0.0
 11
454.21331449657811
 21
401.76391941947838
 31
0.0
  0
LINE
  5
E0A
  8
0
 10
452.31274475785898
 20
404.53891872726859
 30
0.0
 11
452.31274471066581
 21
403.52344953961028
 31
0.0
  0
LINE
  5
E0B
  8
0
 10
452.31274467398879
 20
402.73426578711292
 30
0.0
 11
452.31274465320269
 21
402.28700850250942
 31
0.0
  0
LINE
  5
E0C
  8
0
 10
452.31274482809209
 20
406.05013391448472
 30
0.0
 11
452.31274478941378
 21
405.21788712862138
 31
0.0
  0
LINE
  5
E0D
  8
0
 10
454.4819446699484
 20
406.52042470665771
 30
0.0
 11
453.10200741299798
 21
406.52042470665771
 31
0.0
  0
LINE
  5
E0E
  8
0
 10
454.4819446699488
 20
406.52042470665771
 30
0.0
 11
453.89938045321247
 21
406.52042470665771
 31
0.0
  0
LINE
  5
E0F
  8
0
 10
454.4819446699496
 20
406.52042470665771
 30
0.0
 11
453.08759212745258
 21
406.52042470665771
 31
0.0
  0
LINE
  5
E10
  8
0
 10
453.08759179283629
 20
400.52042470665759
 30
0.0
 11
453.08759166809779
 21
398.28373848269388
 31
0.0
  0
LINE
  5
E11
  8
0
 10
451.79185681265278
 20
399.08913119918969
 30
0.0
 11
451.44713031021649
 21
399.45129641547152
 31
0.0
  0
LINE
  5
E12
  8
0
 10
452.08907805079508
 20
399.41744743278753
 30
0.0
 11
453.12538121403719
 21
398.24083236132589
 31
0.0
  0
LINE
  5
E13
  8
0
 10
452.8069531936045
 20
397.90878866329308
 30
0.0
 11
451.83398741555482
 21
399.05913731134427
 31
0.0
  0
LINE
  5
E14
  8
0
 10
453.90536921304857
 20
399.05417190117231
 30
0.0
 11
454.23954638527891
 21
398.6822503732576
 31
0.0
  0
LINE
  5
E15
  8
0
 10
452.31274453132369
 20
399.66451368191622
 30
0.0
 11
452.31274450803909
 21
399.16349730129258
 31
0.0
  0
LINE
  5
E16
  8
0
 10
454.21331449657811
 20
401.76391941947838
 30
0.0
 11
451.79185681265278
 21
399.08913119918969
 31
0.0
  0
LINE
  5
E17
  8
0
 10
451.44713031021649
 20
399.45129641547152
 30
0.0
 11
453.86858798740923
 21
402.12608462935191
 31
0.0
  0
LINE
  5
E18
  8
0
 10
452.31274462210808
 20
401.61793953184531
 30
0.0
 11
452.31274456585231
 21
400.40747038892101
 31
0.0
  0
LINE
  5
E19
  8
0
 10
454.41224709675498
 20
407.53836242739169
 30
0.0
 11
451.46871358478683
 21
405.45184384315701
 31
0.0
  0
LINE
  5
E1A
  8
0
 10
468.6748368816817
 20
405.37686597122013
 30
0.0
 11
468.6748368816817
 21
395.6639834420954
 31
0.0
  0
LINE
  5
E1B
  8
0
 10
464.44555563444362
 20
405.5045675479729
 30
0.0
 11
464.44555563444362
 21
395.5362725798056
 31
0.0
  0
ARC
  5
E1C
  8
0
 10
450.78576916191412
 20
395.5362725798056
 30
0.0
 40
13.659786472529619
 50
338.59996093118127
 51
21.40003906881859
  0
LINE
  5
E1D
  8
0
 10
465.6748368816817
 20
394.52042470665782
 30
0.0
 11
465.6748368816817
 21
406.52042470665771
 31
0.0
  0
LINE
  5
E1E
  8
3
 10
468.15546670612167
 20
395.46600667503287
 30
0.0
 11
464.44537490943571
 21
395.46600667503287
 31
0.0
  0
LINE
  5
E1F
  8
0
 10
468.6748368816817
 20
395.6639834420954
 30
0.0
 11
465.6748368816817
 21
394.52042470665782
 31
0.0
  0
LINE
  5
E20
  8
0
 10
465.6748368816817
 20
394.52042470665771
 30
0.0
 11
464.40773009174058
 21
394.52042470665771
 31
0.0
  0
LINE
  5
E21
  8
3
 10
468.15546670612167
 20
405.5748427382826
 30
0.0
 11
464.44537486166729
 21
405.5748427382826
 31
0.0
  0
LINE
  5
E22
  8
0
 10
468.6748368816817
 20
405.37686597122013
 30
0.0
 11
465.6748368816817
 21
406.52042470665771
 31
0.0
  0
LINE
  5
E23
  8
0
 10
465.67483688168193
 20
406.52042470665771
 30
0.0
 11
464.4077293992753
 21
406.52042470665771
 31
0.0
  0
LINE
  5
E24
  8
0
 10
455.3858854829009
 20
410.49143574654312
 30
0.0
 11
463.50379021771232
 21
410.49143544472281
 31
0.0
  0
LINE
  5
E25
  8
0
 10
445.67508835173618
 20
418.12044817062412
 30
0.0
 11
445.6750712403616
 21
418.12044358564498
 31
0.0
210
-1.0
220
0.0
230
0.0
  0
LINE
  5
E26
  8
0
 10
446.17502071911082
 20
412.02042470665771
 30
0.0
 11
447.67502071911082
 21
412.02042470665771
 31
0.0
1001
ACAD
1000
ASC_BOUNDS
1002
{
1070
    19
1002
}
  0
LINE
  5
E27
  8
0
 10
447.67502071911082
 20
410.87349497899612
 30
0.0
 11
446.17502071911082
 21
410.87349497899612
 31
0.0
  0
LINE
  5
E28
  8
0
 10
447.67502071911082
 20
410.93599497899612
 30
0.0
 11
446.17502071911082
 21
410.93599497899612
 31
0.0
  0
LINE
  5
E29
  8
0
 10
447.67502071911082
 20
410.99849497899618
 30
0.0
 11
446.17502071911082
 21
410.99849497899618
 31
0.0
  0
LINE
  5
E2A
  8
0
 10
447.67502071911082
 20
411.06099497899612
 30
0.0
 11
446.17502071911082
 21
411.06099497899612
 31
0.0
  0
LINE
  5
E2B
  8
0
 10
447.67502071911082
 20
411.12349497899612
 30
0.0
 11
446.17502071911082
 21
411.12349497899612
 31
0.0
  0
LINE
  5
E2C
  8
0
 10
447.67502071911082
 20
411.18599497899618
 30
0.0
 11
446.17502071911082
 21
411.18599497899618
 31
0.0
  0
LINE
  5
E2D
  8
0
 10
447.67502071911082
 20
411.24849497899612
 30
0.0
 11
446.17502071911082
 21
411.24849497899612
 31
0.0
  0
LINE
  5
E2E
  8
0
 10
447.67502071911082
 20
411.31099497899612
 30
0.0
 11
446.17502071911082
 21
411.31099497899612
 31
0.0
  0
LINE
  5
E2F
  8
0
 10
447.67502071911082
 20
411.37349497899618
 30
0.0
 11
446.17502071911082
 21
411.37349497899612
 31
0.0
  0
LINE
  5
E30
  8
0
 10
447.67502071911082
 20
411.43599497899612
 30
0.0
 11
446.17502071911082
 21
411.43599497899612
 31
0.0
  0
LINE
  5
E31
  8
0
 10
447.67502071911082
 20
411.49849497899612
 30
0.0
 11
446.17502071911082
 21
411.49849497899612
 31
0.0
  0
LINE
  5
E32
  8
0
 10
447.67502071911082
 20
411.56099497899612
 30
0.0
 11
446.17502071911082
 21
411.56099497899612
 31
0.0
  0
LINE
  5
E33
  8
0
 10
447.67502071911082
 20
411.62349497899612
 30
0.0
 11
446.17502071911082
 21
411.62349497899601
 31
0.0
  0
LINE
  5
E34
  8
0
 10
447.67502071911082
 20
411.68599497899618
 30
0.0
 11
446.17502071911082
 21
411.68599497899612
 31
0.0
  0
LINE
  5
E35
  8
0
 10
447.67502071911082
 20
411.74849497899612
 30
0.0
 11
446.17502071911082
 21
411.74849497899612
 31
0.0
  0
LINE
  5
E36
  8
0
 10
447.67502071911082
 20
411.81099497899612
 30
0.0
 11
446.17502071911082
 21
411.81099497899601
 31
0.0
  0
LINE
  5
E37
  8
0
 10
447.67502071911082
 20
411.87349497899618
 30
0.0
 11
446.17502071911082
 21
411.87349497899612
 31
0.0
  0
LINE
  5
E38
  8
0
 10
447.67502071911082
 20
411.93599497899612
 30
0.0
 11
446.17502071911082
 21
411.93599497899612
 31
0.0
  0
LINE
  5
E39
  8
0
 10
447.67502071911082
 20
411.99849497899612
 30
0.0
 11
446.17502071911082
 21
411.99849497899601
 31
0.0
  0
LINE
  5
E3A
  8
0
 10
447.67502071911082
 20
409.43599497899612
 30
0.0
 11
446.17502071911082
 21
409.43599497899618
 31
0.0
  0
LINE
  5
E3B
  8
0
 10
447.67502071911082
 20
409.49849497899612
 30
0.0
 11
446.17502071911082
 21
409.49849497899612
 31
0.0
  0
LINE
  5
E3C
  8
0
 10
447.67502071911082
 20
409.56099497899601
 30
0.0
 11
446.17502071911082
 21
409.56099497899612
 31
0.0
  0
LINE
  5
E3D
  8
0
 10
447.67502071911082
 20
409.62349497899612
 30
0.0
 11
446.17502071911082
 21
409.62349497899618
 31
0.0
  0
LINE
  5
E3E
  8
0
 10
447.67502071911082
 20
409.68599497899612
 30
0.0
 11
446.17502071911082
 21
409.68599497899612
 31
0.0
  0
LINE
  5
E3F
  8
0
 10
447.67502071911082
 20
409.74849497899612
 30
0.0
 11
446.17502071911082
 21
409.74849497899612
 31
0.0
  0
LINE
  5
E40
  8
0
 10
447.67502071911082
 20
409.81099497899612
 30
0.0
 11
446.17502071911082
 21
409.81099497899618
 31
0.0
  0
LINE
  5
E41
  8
0
 10
447.67502071911082
 20
409.87349497899612
 30
0.0
 11
446.17502071911082
 21
409.87349497899612
 31
0.0
  0
LINE
  5
E42
  8
0
 10
447.67502071911082
 20
409.93599497899612
 30
0.0
 11
446.17502071911082
 21
409.93599497899612
 31
0.0
  0
LINE
  5
E43
  8
0
 10
447.67502071911082
 20
409.99849497899612
 30
0.0
 11
446.17502071911082
 21
409.99849497899612
 31
0.0
  0
LINE
  5
E44
  8
0
 10
447.67502071911082
 20
410.06099497899612
 30
0.0
 11
446.17502071911082
 21
410.06099497899612
 31
0.0
  0
LINE
  5
E45
  8
0
 10
447.67502071911082
 20
410.12349497899618
 30
0.0
 11
446.17502071911082
 21
410.12349497899618
 31
0.0
  0
LINE
  5
E46
  8
0
 10
447.67502071911082
 20
410.18599497899612
 30
0.0
 11
446.17502071911082
 21
410.18599497899612
 31
0.0
  0
LINE
  5
E47
  8
0
 10
447.67502071911082
 20
410.24849497899612
 30
0.0
 11
446.17502071911082
 21
410.24849497899612
 31
0.0
  0
LINE
  5
E48
  8
0
 10
447.67502071911082
 20
410.31099497899618
 30
0.0
 11
446.17502071911082
 21
410.31099497899618
 31
0.0
  0
LINE
  5
E49
  8
0
 10
447.67502071911082
 20
410.37349497899612
 30
0.0
 11
446.17502071911082
 21
410.37349497899612
 31
0.0
  0
LINE
  5
E4A
  8
0
 10
447.67502071911082
 20
410.43599497899612
 30
0.0
 11
446.17502071911082
 21
410.43599497899612
 31
0.0
  0
LINE
  5
E4B
  8
0
 10
447.67502071911082
 20
410.49849497899618
 30
0.0
 11
446.17502071911082
 21
410.49849497899618
 31
0.0
  0
LINE
  5
E4C
  8
0
 10
447.67502071911082
 20
410.56099497899612
 30
0.0
 11
446.17502071911082
 21
410.56099497899612
 31
0.0
  0
LINE
  5
E4D
  8
0
 10
447.67502071911082
 20
410.62349497899612
 30
0.0
 11
446.17502071911082
 21
410.62349497899612
 31
0.0
  0
LINE
  5
E4E
  8
0
 10
447.67502071911082
 20
410.68599497899618
 30
0.0
 11
446.17502071911082
 21
410.68599497899618
 31
0.0
  0
LINE
  5
E4F
  8
0
 10
447.67502071911082
 20
410.74849497899612
 30
0.0
 11
446.17502071911082
 21
410.74849497899612
 31
0.0
  0
LINE
  5
E50
  8
0
 10
447.67502071911082
 20
410.81099497899618
 30
0.0
 11
446.17502071911082
 21
410.81099497899618
 31
0.0
  0
LINE
  5
E51
  8
0
 10
446.17502071911082
 20
409.42042470665763
 30
0.0
 11
446.17502071911082
 21
412.02042470665771
 31
0.0
1001
ACAD
1000
ASC_BOUNDS
1002
{
1070
    19
1002
}
  0
LINE
  5
E52
  8
0
 10
447.67502071911082
 20
408.37349497899612
 30
0.0
 11
445.67502071911082
 21
408.37349497899612
 31
0.0
  0
LINE
  5
E53
  8
0
 10
447.67502071911082
 20
408.43599497899612
 30
0.0
 11
445.67502071911082
 21
408.43599497899612
 31
0.0
  0
LINE
  5
E54
  8
0
 10
447.67502071911082
 20
408.49849497899601
 30
0.0
 11
445.67502071911082
 21
408.49849497899612
 31
0.0
  0
LINE
  5
E55
  8
0
 10
447.67502071911082
 20
408.56099497899612
 30
0.0
 11
445.67502071911082
 21
408.56099497899618
 31
0.0
  0
LINE
  5
E56
  8
0
 10
447.67502071911082
 20
408.62349497899612
 30
0.0
 11
445.67502071911082
 21
408.62349497899612
 31
0.0
  0
LINE
  5
E57
  8
0
 10
447.67502071911082
 20
408.68599497899601
 30
0.0
 11
445.67502071911082
 21
408.68599497899612
 31
0.0
  0
LINE
  5
E58
  8
0
 10
447.67502071911082
 20
408.74849497899612
 30
0.0
 11
445.67502071911082
 21
408.74849497899618
 31
0.0
  0
LINE
  5
E59
  8
0
 10
447.67502071911082
 20
408.81099497899612
 30
0.0
 11
445.67502071911082
 21
408.81099497899612
 31
0.0
  0
LINE
  5
E5A
  8
0
 10
447.67502071911082
 20
408.87349497899601
 30
0.0
 11
445.67502071911082
 21
408.87349497899612
 31
0.0
  0
LINE
  5
E5B
  8
0
 10
447.67502071911082
 20
408.93599497899612
 30
0.0
 11
445.67502071911082
 21
408.93599497899618
 31
0.0
  0
LINE
  5
E5C
  8
0
 10
447.67502071911082
 20
408.99849497899612
 30
0.0
 11
445.67502071911082
 21
408.99849497899612
 31
0.0
  0
LINE
  5
E5D
  8
0
 10
447.67502071911082
 20
409.06099497899612
 30
0.0
 11
445.67502071911082
 21
409.06099497899612
 31
0.0
  0
LINE
  5
E5E
  8
0
 10
447.67502071911082
 20
409.12349497899612
 30
0.0
 11
445.67502071911082
 21
409.12349497899618
 31
0.0
  0
LINE
  5
E5F
  8
0
 10
447.67502071911082
 20
409.18599497899612
 30
0.0
 11
445.67502071911082
 21
409.18599497899612
 31
0.0
  0
LINE
  5
E60
  8
0
 10
447.67502071911082
 20
409.24849497899612
 30
0.0
 11
445.67502071911082
 21
409.24849497899618
 31
0.0
  0
LINE
  5
E61
  8
0
 10
447.67502071911082
 20
409.31099497899612
 30
0.0
 11
445.67502071911082
 21
409.31099497899612
 31
0.0
  0
LINE
  5
E62
  8
0
 10
447.67502071911082
 20
409.37349497899601
 30
0.0
 11
445.67502071911082
 21
409.37349497899612
 31
0.0
  0
LINE
  5
E63
  8
0
 10
446.17502071911082
 20
409.42042470665763
 30
0.0
 11
445.67502071911082
 21
409.42042470665763
 31
0.0
1001
ACAD
1000
ASC_BOUNDS
1002
{
1070
    19
1002
}
  0
LINE
  5
E64
  8
0
 10
453.08759236966762
 20
410.86357995041629
 30
0.0
 11
453.08759225313588
 21
408.77405190814318
 31
0.0
  0
LINE
  5
E65
  8
0
 10
453.08759236966762
 20
410.86357992160788
 30
0.0
 11
452.31274505179448
 21
410.86357995041629
 31
0.0
  0
TEXT
  5
F8E
  8
0
 62
     3
 10
0.0
 20
0.0
 30
0.0
 40
10.0
  1
LR-127P
  7
STANDARD1
  0
ENDSEC
  0
EOF
