  0
SECTION
  2
HEADER
  9
$ACADVER
  1
AC1009
  9
$INSBASE
 10
0.0
 20
0.0
 30
0.0
  9
$EXTMIN
 10
0.0
 20
-1.4802182810368341
 30
0.0
  9
$EXTMAX
 10
98.879119659315293
 20
74.625984104232572
 30
0.0
  9
$LIMMIN
 10
0.0
 20
0.0
  9
$LIMMAX
 10
187.5
 20
135.0
  9
$ORTHOMODE
 70
     1
  9
$REGENMODE
 70
     1
  9
$FILLMODE
 70
     1
  9
$QTEXTMODE
 70
     0
  9
$MIRRTEXT
 70
     0
  9
$DRAGMODE
 70
     2
  9
$LTSCALE
 40
2.0
  9
$OSMODE
 70
  3071
  9
$ATTMODE
 70
     1
  9
$TEXTSIZE
 40
2.0
  9
$TRACEWID
 40
0.05
  9
$TEXTSTYLE
  7
STANDARD
  9
$CLAYER
  8
0
  9
$CELTYPE
  6
BYLAYER
  9
$CECOLOR
 62
   256
  9
$DIMSCALE
 40
0.5
  9
$DIMASZ
 40
3.0
  9
$DIMEXO
 40
2.0
  9
$DIMDLI
 40
10.0
  9
$DIMRND
 40
0.0
  9
$DIMDLE
 40
0.0
  9
$DIMEXE
 40
2.0
  9
$DIMTP
 40
0.0
  9
$DIMTM
 40
0.0
  9
$DIMTXT
 40
3.2000000000000002
  9
$DIMCEN
 40
0.09
  9
$DIMTSZ
 40
0.0
  9
$DIMTOL
 70
     0
  9
$DIMLIM
 70
     0
  9
$DIMTIH
 70
     0
  9
$DIMTOH
 70
     0
  9
$DIMSE1
 70
     0
  9
$DIMSE2
 70
     0
  9
$DIMTAD
 70
     1
  9
$DIMZIN
 70
     0
  9
$DIMBLK
  1

  9
$DIMASO
 70
     1
  9
$DIMSHO
 70
     0
  9
$DIMPOST
  1

  9
$DIMAPOST
  1

  9
$DIMALT
 70
     0
  9
$DIMALTD
 70
     2
  9
$DIMALTF
 40
25.399999999999999
  9
$DIMLFAC
 40
1.0
  9
$DIMTOFL
 70
     1
  9
$DIMTVP
 40
1.6000000000000001
  9
$DIMTIX
 70
     0
  9
$DIMSOXD
 70
     0
  9
$DIMSAH
 70
     0
  9
$DIMBLK1
  1

  9
$DIMBLK2
  1

  9
$DIMSTYLE
  2
STANDARD
  9
$DIMCLRD
 70
     0
  9
$DIMCLRE
 70
     0
  9
$DIMCLRT
 70
     0
  9
$DIMTFAC
 40
1.0
  9
$DIMGAP
 40
0.09
  9
$LUNITS
 70
     2
  9
$LUPREC
 70
     4
  9
$SKETCHINC
 40
0.1
  9
$FILLETRAD
 40
0.5
  9
$AUNITS
 70
     0
  9
$AUPREC
 70
     0
  9
$MENU
  1
E:\r13\win\SUPPORT\ACAD
  9
$ELEVATION
 40
0.0
  9
$PELEVATION
 40
0.0
  9
$THICKNESS
 40
0.0
  9
$LIMCHECK
 70
     0
  9
$BLIPMODE
 70
     0
  9
$CHAMFERA
 40
0.0
  9
$CHAMFERB
 40
0.0
  9
$SKPOLY
 70
     0
  9
$TDCREATE
 40
2449840.6183564821
  9
$TDUPDATE
 40
2456597.5877559958
  9
$TDINDWG
 40
0.0063819444
  9
$TDUSRTIMER
 40
0.0063819444
  9
$USRTIMER
 70
     1
  9
$ANGBASE
 50
0.0
  9
$ANGDIR
 70
     0
  9
$PDMODE
 70
     0
  9
$PDSIZE
 40
0.0
  9
$PLINEWID
 40
0.0
  9
$COORDS
 70
     1
  9
$SPLFRAME
 70
     0
  9
$SPLINETYPE
 70
     6
  9
$SPLINESEGS
 70
     8
  9
$ATTDIA
 70
     0
  9
$ATTREQ
 70
     1
  9
$HANDLING
 70
     1
  9
$HANDSEED
  5
2D1
  9
$SURFTAB1
 70
     6
  9
$SURFTAB2
 70
     6
  9
$SURFTYPE
 70
     6
  9
$SURFU
 70
     6
  9
$SURFV
 70
     6
  9
$UCSNAME
  2

  9
$UCSORG
 10
0.0
 20
0.0
 30
0.0
  9
$UCSXDIR
 10
1.0
 20
0.0
 30
0.0
  9
$UCSYDIR
 10
0.0
 20
1.0
 30
0.0
  9
$PUCSNAME
  2

  9
$PUCSORG
 10
0.0
 20
0.0
 30
0.0
  9
$PUCSXDIR
 10
1.0
 20
0.0
 30
0.0
  9
$PUCSYDIR
 10
0.0
 20
1.0
 30
0.0
  9
$USERI1
 70
     0
  9
$USERI2
 70
     1
  9
$USERI3
 70
     1
  9
$USERI4
 70
     0
  9
$USERI5
 70
     0
  9
$USERR1
 40
0.0
  9
$USERR2
 40
0.0
  9
$USERR3
 40
0.0
  9
$USERR4
 40
0.0
  9
$USERR5
 40
0.0
  9
$WORLDVIEW
 70
     1
  9
$SHADEDGE
 70
     3
  9
$SHADEDIF
 70
    70
  9
$TILEMODE
 70
     1
  9
$MAXACTVP
 70
    16
  9
$PLIMCHECK
 70
     0
  9
$PEXTMIN
 10
1.0000000000000000E+020
 20
1.0000000000000000E+020
 30
1.0000000000000000E+020
  9
$PEXTMAX
 10
-1.0000000000000000E+020
 20
-1.0000000000000000E+020
 30
-1.0000000000000000E+020
  9
$PLIMMIN
 10
0.0
 20
0.0
  9
$PLIMMAX
 10
12.0
 20
9.0
  9
$UNITMODE
 70
     0
  9
$VISRETAIN
 70
     0
  9
$PLINEGEN
 70
     0
  9
$PSLTSCALE
 70
     0
  0
ENDSEC
  0
SECTION
  2
TABLES
  0
TABLE
  2
VPORT
 70
     1
  0
VPORT
  2
*ACTIVE
 70
     0
 10
0.0
 20
0.0
 11
1.0
 21
1.0
 12
93.747139195326156
 22
67.05183146954721
 13
0.0
 23
0.0
 14
5.0
 24
5.0
 15
5.0
 25
5.0
 16
0.0
 26
0.0
 36
1.0
 17
0.0
 27
0.0
 37
0.0
 40
138.6470298934976
 41
2.304913294797688
 42
50.0
 43
0.0
 44
0.0
 50
0.0
 51
0.0
 71
     0
 72
   100
 73
     1
 74
     0
 75
     0
 76
     0
 77
     0
 78
     0
  0
ENDTAB
  0
TABLE
  2
LTYPE
 70
     4
  0
LTYPE
  2
CONTINUOUS
 70
     0
  3
Solid Line
 72
    65
 73
     0
 40
0.0
  0
LTYPE
  2
CENTER
 70
     0
  3
____ _ ____ _ ____ _ ____ _ ____ _ ____ _ ____
 72
    65
 73
     4
 40
2.0
 49
1.25
 49
-0.25
 49
0.25
 49
-0.25
  0
LTYPE
  2
HIDDEN
 70
     0
  3
_ _ _ _ _ _ _ _ _ _ _ _ _ _ _ _ _ _ _ _ _ _ _
 72
    65
 73
     2
 40
0.375
 49
0.25
 49
-0.125
  0
LTYPE
  2
PHANTOM2
 70
     0
  3
___ _ _ ___ _ _ ___ _ _ ___ _ _
 72
    65
 73
     6
 40
1.25
 49
0.625
 49
-0.125
 49
0.125
 49
-0.125
 49
0.125
 49
-0.125
  0
ENDTAB
  0
TABLE
  2
LAYER
 70
     4
  0
LAYER
  2
0
 70
     0
 62
     7
  6
CONTINUOUS
  0
LAYER
  2
1
 70
     0
 62
     1
  6
CENTER
  0
LAYER
  2
2
 70
     0
 62
     2
  6
HIDDEN
  0
LAYER
  2
3
 70
     0
 62
     3
  6
CONTINUOUS
  0
ENDTAB
  0
TABLE
  2
STYLE
 70
     2
  0
STYLE
  2
STANDARD
 70
     0
 40
0.0
 41
1.0
 50
0.0
 71
     0
 42
2.0
  3
ROMANS
  4
BIGFONT
  0
STYLE
  2
STANDARD1
 70
     0
 40
0.0
 41
1.0
 50
0.0
 71
     0
 42
3.0
  3
txt
  4

  0
ENDTAB
  0
TABLE
  2
VIEW
 70
     1
  0
VIEW
  2
ALL
 70
     0
 40
135.0
 10
110.29971
 20
67.5
 41
220.59942000000001
 11
0.0
 21
0.0
 31
1.0
 12
0.0
 22
0.0
 32
0.0
 42
0.0
 43
0.0
 44
0.0
 50
0.0
 71
     0
  0
ENDTAB
  0
TABLE
  2
UCS
 70
     0
  0
ENDTAB
  0
TABLE
  2
APPID
 70
     3
  0
APPID
  2
ACAD
 70
     0
  0
APPID
  2
ACAD_MLEADERVER
 70
     0
  0
APPID
  2
ACAD_NAV_VCDISPLAY
 70
     0
  0
ENDTAB
  0
TABLE
  2
DIMSTYLE
 70
     1
  0
DIMSTYLE
  2
STANDARD
 70
     0
  3

  4

  5

  6

  7

 40
1.0
 41
0.18
 42
0.0625
 43
0.38
 44
0.18
 45
0.0
 46
0.0
 47
0.0
 48
0.0
140
0.18
141
0.09
142
0.0
143
25.399999999999999
144
1.0
145
0.0
146
1.0
147
0.09
 71
     0
 72
     0
 73
     1
 74
     1
 75
     0
 76
     0
 77
     0
 78
     0
170
     0
171
     2
172
     0
173
     0
174
     0
175
     0
176
     0
177
     0
178
     0
  0
ENDTAB
  0
ENDSEC
  0
SECTION
  2
BLOCKS
  0
BLOCK
  8
0
  2
$MODEL_SPACE
 70
     0
 10
0.0
 20
0.0
 30
0.0
  3
$MODEL_SPACE
  1

  0
ENDBLK
  5
DF
  8
0
  0
BLOCK
 67
     1
  8
0
  2
$PAPER_SPACE
 70
     0
 10
0.0
 20
0.0
 30
0.0
  3
$PAPER_SPACE
  1

  0
ENDBLK
  5
DD
 67
     1
  8
0
  0
ENDSEC
  0
SECTION
  2
ENTITIES
  0
LINE
  5
29
  8
1
 10
39.501242659315267
 20
44.927578104232559
 30
0.0
 11
67.001242659315267
 21
44.927578104232559
 31
0.0
  0
ARC
  5
2A
  8
0
 10
93.379119659315279
 20
44.927578104232559
 30
0.0
 40
3.0
 50
97.078243000000001
 51
82.921756999999985
  0
CIRCLE
  5
2B
  8
0
 10
13.524329659315271
 20
44.927578104232559
 30
0.0
 40
3.0
  0
CIRCLE
  5
2C
  8
3
 10
13.524329659315271
 20
44.927578104232559
 30
0.0
 40
2.458499999999999
  0
LINE
  5
2D
  8
0
 10
61.00124265931526
 20
47.927578104232559
 30
0.0
 11
43.00124265931526
 21
47.927578104232559
 31
0.0
  0
LINE
  5
2E
  8
3
 10
61.542742659315259
 20
47.38607810423256
 30
0.0
 11
42.45974265931526
 21
47.38607810423256
 31
0.0
  0
LINE
  5
2F
  8
3
 10
61.542742659315259
 20
42.469078104232558
 30
0.0
 11
42.45974265931526
 21
42.469078104232558
 31
0.0
  0
LINE
  5
30
  8
0
 10
61.00124265931526
 20
41.927578104232559
 30
0.0
 11
43.00124265931526
 21
41.927578104232559
 31
0.0
  0
LINE
  5
31
  8
0
 10
42.001242659315267
 20
46.927578104232559
 30
0.0
 11
42.001242659315267
 21
42.927578104232559
 31
0.0
  0
LINE
  5
32
  8
0
 10
62.001242659315267
 20
46.927578104232559
 30
0.0
 11
62.001242659315267
 21
45.427578104232559
 31
0.0
  0
LINE
  5
33
  8
0
 10
62.001242659315267
 20
46.27757810423256
 30
0.0
 11
63.151242659315272
 21
46.27757810423256
 31
0.0
  0
LINE
  5
34
  8
0
 10
62.001242659315267
 20
43.577578104232551
 30
0.0
 11
63.151242659315272
 21
43.577578104232551
 31
0.0
  0
ARC
  5
35
  8
0
 10
63.151242659315272
 20
44.927578104232559
 30
0.0
 40
1.3500000000000001
 50
270.0
 51
90.0
  0
LINE
  5
36
  8
0
 10
62.001242659315267
 20
42.927578104232559
 30
0.0
 11
61.00124265931526
 21
41.927578104232559
 31
0.0
  0
LINE
  5
37
  8
0
 10
62.001242659315267
 20
46.927578104232559
 30
0.0
 11
61.00124265931526
 21
47.927578104232559
 31
0.0
  0
LINE
  5
38
  8
0
 10
43.00124265931526
 20
47.927578104232559
 30
0.0
 11
42.001242659315267
 21
46.927578104232559
 31
0.0
  0
LINE
  5
39
  8
0
 10
42.001242659315267
 20
42.927578104232559
 30
0.0
 11
43.00124265931526
 21
41.927578104232559
 31
0.0
  0
LINE
  5
3A
  8
0
 10
90.421079659315282
 20
44.427578104232559
 30
0.0
 11
92.125125659315273
 21
44.427578104232559
 31
0.0
  0
LINE
  5
3B
  8
0
 10
90.421079659315282
 20
45.427578104232559
 30
0.0
 11
92.125125659315273
 21
45.427578104232559
 31
0.0
  0
CIRCLE
  5
3C
  8
0
 10
93.379119659315279
 20
44.927578104232559
 30
0.0
 40
1.3500000000000001
  0
LINE
  5
3D
  8
0
 10
94.633113659315256
 20
45.427578104232559
 30
0.0
 11
96.337159659315276
 21
45.427578104232559
 31
0.0
  0
LINE
  5
3E
  8
0
 10
94.633113659315256
 20
44.427578104232559
 30
0.0
 11
96.337159659315276
 21
44.427578104232559
 31
0.0
  0
LINE
  5
3F
  8
0
 10
61.00124265931526
 20
47.927578104232559
 30
0.0
 11
61.00124265931526
 21
41.927578104232559
 31
0.0
  0
LINE
  5
40
  8
0
 10
43.00124265931526
 20
47.927578104232559
 30
0.0
 11
43.00124265931526
 21
41.927578104232559
 31
0.0
  0
CIRCLE
  5
41
  8
0
 10
13.524329659315271
 20
44.927578104232559
 30
0.0
 40
1.6209999999999991
  0
CIRCLE
  5
42
  8
3
 10
13.524329659315271
 20
44.927578104232559
 30
0.0
 40
2.0
  0
LINE
  5
43
  8
0
 10
12.524329659315271
 20
45.504928104232562
 30
0.0
 11
12.524329659315271
 21
44.350227104232573
 31
0.0
  0
LINE
  5
44
  8
0
 10
13.524329659315271
 20
46.08227810423255
 30
0.0
 11
12.524329659315271
 21
45.504928104232562
 31
0.0
  0
LINE
  5
45
  8
0
 10
14.524329659315271
 20
45.504928104232562
 30
0.0
 11
13.524329659315271
 21
46.08227810423255
 31
0.0
  0
LINE
  5
46
  8
0
 10
14.524329659315271
 20
44.350227104232573
 30
0.0
 11
14.524329659315271
 21
45.504928104232562
 31
0.0
  0
LINE
  5
47
  8
0
 10
13.524329659315271
 20
43.77287710423257
 30
0.0
 11
14.524329659315271
 21
44.350227104232573
 31
0.0
  0
LINE
  5
48
  8
0
 10
12.524329659315271
 20
44.350227104232573
 30
0.0
 11
13.524329659315271
 21
43.77287710423257
 31
0.0
  0
ARC
  5
49
  8
2
 10
60.651242659315272
 20
44.927578104232559
 30
0.0
 40
1.3500000000000001
 50
270.0
 51
90.0
  0
LINE
  5
4A
  8
1
 10
19.024329659315271
 20
44.927578104232559
 30
0.0
 11
8.0243296593152706
 21
44.927578104232559
 31
0.0
  0
LINE
  5
4B
  8
1
 10
13.524329659315271
 20
50.427578104232573
 30
0.0
 11
13.524329659315271
 21
39.427578104232573
 31
0.0
  0
LINE
  5
4C
  8
1
 10
93.379119659315279
 20
50.427578104232573
 30
0.0
 11
93.379119659315279
 21
39.427578104232573
 31
0.0
  0
LINE
  5
4D
  8
1
 10
87.879119659315265
 20
44.927578104232559
 30
0.0
 11
98.879119659315293
 21
44.927578104232559
 31
0.0
  0
LINE
  5
4E
  8
2
 10
62.001242659315267
 20
46.927578104232559
 30
0.0
 11
52.001242659315267
 21
46.927578104232559
 31
0.0
  0
LINE
  5
4F
  8
2
 10
51.501242659315267
 20
47.427578104232559
 30
0.0
 11
51.501242659315267
 21
47.927578104232559
 31
0.0
  0
LINE
  5
50
  8
0
 10
52.542742659315273
 20
47.927578104232559
 30
0.0
 11
52.542742659315273
 21
48.127578104232562
 31
0.0
  0
LINE
  5
51
  8
0
 10
52.542742659315273
 20
48.127578104232562
 30
0.0
 11
59.542742659315273
 21
48.127578104232562
 31
0.0
  0
LINE
  5
52
  8
0
 10
59.542742659315273
 20
48.127578104232562
 30
0.0
 11
59.542742659315273
 21
47.927578104232559
 31
0.0
  0
LINE
  5
53
  8
2
 10
59.542742659315273
 20
47.927578104232559
 30
0.0
 11
59.542742659315273
 21
46.927578104232559
 31
0.0
  0
LINE
  5
54
  8
2
 10
52.542742659315273
 20
47.927578104232559
 30
0.0
 11
52.542742659315273
 21
46.927578104232559
 31
0.0
  0
LINE
  5
55
  8
0
 10
92.904119659315285
 20
46.927578104232559
 30
0.0
 11
93.854119659315273
 21
46.927578104232559
 31
0.0
  0
ARC
  5
56
  8
2
 10
52.001242659315267
 20
47.427578104232559
 30
0.0
 40
0.5
 50
180.0
 51
270.0
  0
LINE
  5
57
  8
0
 10
61.00124265931526
 20
45.427578104232559
 30
0.0
 11
62.001242659315267
 21
45.427578104232559
 31
0.0
  0
LINE
  5
58
  8
0
 10
61.00124265931526
 20
44.427578104232559
 30
0.0
 11
62.001242659315267
 21
44.427578104232559
 31
0.0
  0
LINE
  5
59
  8
0
 10
62.001242659315267
 20
44.427578104232559
 30
0.0
 11
62.001242659315267
 21
42.927578104232559
 31
0.0
  0
LINE
  5
5A
  8
0
 10
92.904119659315285
 20
47.889735104232557
 30
0.0
 11
92.904119659315285
 21
46.927578104232559
 31
0.0
  0
LINE
  5
5B
  8
0
 10
93.854119659315273
 20
47.889735104232557
 30
0.0
 11
93.854119659315273
 21
46.927578104232559
 31
0.0
  0
POLYLINE
  5
5C
  8
0
 66
     1
 10
0.0
 20
0.0
 30
0.0
 70
     1
  0
VERTEX
  5
5D
  8
0
 10
92.904119659315285
 20
47.52757810423256
 30
0.0
 42
0.079384
  0
VERTEX
  5
5E
  8
0
 10
92.941736659315268
 20
47.292137104232559
 30
0.0
 42
0.088422
  0
VERTEX
  5
5F
  8
0
 10
93.043243659315266
 20
47.103314104232567
 30
0.0
 42
0.105162
 70
     2
 50
308.36748499999999
  0
VERTEX
  5
60
  8
0
 10
93.203277659315276
 20
46.970800104232559
 30
0.0
 42
0.121099
 50
308.36748499999999
  0
VERTEX
  5
61
  8
0
 10
93.379119659315279
 20
46.927578104232559
 30
0.0
 42
0.121099
  0
VERTEX
  5
62
  8
0
 10
93.554961659315254
 20
46.970800104232559
 30
0.0
 42
0.105162
  0
VERTEX
  5
63
  8
0
 10
93.714995659315264
 20
47.103314104232567
 30
0.0
 42
0.088422
 70
     2
 50
51.632515000000012
  0
VERTEX
  5
64
  8
0
 10
93.81650265931529
 20
47.292137104232559
 30
0.0
 42
0.079384
 50
51.632515000000012
  0
VERTEX
  5
65
  8
0
 10
93.854119659315273
 20
47.52757810423256
 30
0.0
 42
0.079384
  0
VERTEX
  5
66
  8
0
 10
93.81650265931529
 20
47.76301810423255
 30
0.0
 42
0.088422
  0
VERTEX
  5
67
  8
0
 10
93.714995659315264
 20
47.951842104232568
 30
0.0
 42
0.105162
 70
     2
 50
128.36748499999999
  0
VERTEX
  5
68
  8
0
 10
93.554961659315254
 20
48.08435510423255
 30
0.0
 42
0.121099
 50
128.36748499999999
  0
VERTEX
  5
69
  8
0
 10
93.379119659315279
 20
48.127578104232562
 30
0.0
 42
0.121099
  0
VERTEX
  5
6A
  8
0
 10
93.203277659315276
 20
48.08435510423255
 30
0.0
 42
0.105162
  0
VERTEX
  5
6B
  8
0
 10
93.043243659315266
 20
47.951842104232568
 30
0.0
 42
0.088422
 70
     2
 50
231.63251500000001
  0
VERTEX
  5
6C
  8
0
 10
92.941736659315268
 20
47.76301810423255
 30
0.0
 42
0.079384
 50
231.63251500000001
  0
SEQEND
  5
6D
  8
0
  0
POLYLINE
  5
6E
  8
0
 66
     1
 10
0.0
 20
0.0
 30
0.0
  0
VERTEX
  5
6F
  8
0
 10
13.89400365931527
 20
47.904714104232568
 30
0.0
 42
0.023748
  0
VERTEX
  5
70
  8
0
 10
13.86020465931527
 20
47.951842104232568
 30
0.0
 42
0.105162
 70
     2
 50
128.36748499999999
  0
VERTEX
  5
71
  8
0
 10
13.70017165931527
 20
48.08435510423255
 30
0.0
 42
0.121099
 50
128.36748499999999
  0
VERTEX
  5
72
  8
0
 10
13.524329659315271
 20
48.127578104232562
 30
0.0
 42
0.121099
  0
VERTEX
  5
73
  8
0
 10
13.348487659315269
 20
48.08435510423255
 30
0.0
 42
0.105162
  0
VERTEX
  5
74
  8
0
 10
13.188453659315281
 20
47.951842104232568
 30
0.0
 42
0.023748
 70
     2
 50
231.63251500000001
  0
VERTEX
  5
75
  8
0
 10
13.154655659315271
 20
47.904714104232568
 30
0.0
 42
0.079384
 50
231.63251500000001
  0
SEQEND
  5
76
  8
0
  0
LINE
  5
85
  8
0
 10
62.001242659315267
 20
73.625984104232572
 30
0.0
 11
62.001242659315267
 21
69.625984104232572
 31
0.0
  0
LINE
  5
86
  8
0
 10
59.542742659315273
 20
72.225984104232566
 30
0.0
 11
59.542742659315273
 21
71.025984104232563
 31
0.0
  0
LINE
  5
87
  8
0
 10
52.542742659315273
 20
71.025984104232563
 30
0.0
 11
52.542742659315273
 21
72.225984104232566
 31
0.0
  0
LINE
  5
88
  8
0
 10
51.501242659315267
 20
71.025984104232563
 30
0.0
 11
51.501242659315267
 21
72.225984104232566
 31
0.0
  0
LINE
  5
89
  8
0
 10
62.001242659315267
 20
71.025984104232563
 30
0.0
 11
51.501242659315267
 21
71.025984104232563
 31
0.0
  0
ARC
  5
8A
  8
2
 10
60.651242659315272
 20
71.625984104232572
 30
0.0
 40
1.3500000000000001
 50
270.0
 51
90.0
  0
LINE
  5
8B
  8
0
 10
43.00124265931526
 20
74.625984104232572
 30
0.0
 11
43.00124265931526
 21
68.625984104232572
 31
0.0
  0
LINE
  5
8C
  8
0
 10
61.00124265931526
 20
74.625984104232572
 30
0.0
 11
61.00124265931526
 21
72.225984104232566
 31
0.0
  0
LINE
  5
8D
  8
0
 10
42.001242659315267
 20
69.625984104232572
 30
0.0
 11
43.00124265931526
 21
68.625984104232572
 31
0.0
  0
LINE
  5
8E
  8
0
 10
43.00124265931526
 20
74.625984104232572
 30
0.0
 11
42.001242659315267
 21
73.625984104232572
 31
0.0
  0
LINE
  5
8F
  8
0
 10
62.001242659315267
 20
73.625984104232572
 30
0.0
 11
61.00124265931526
 21
74.625984104232572
 31
0.0
  0
LINE
  5
90
  8
0
 10
62.001242659315267
 20
69.625984104232572
 30
0.0
 11
61.00124265931526
 21
68.625984104232572
 31
0.0
  0
ARC
  5
91
  8
0
 10
63.151242659315272
 20
71.625984104232572
 30
0.0
 40
1.3500000000000001
 50
270.0
 51
90.0
  0
LINE
  5
92
  8
0
 10
62.001242659315267
 20
70.275984104232563
 30
0.0
 11
63.151242659315272
 21
70.275984104232563
 31
0.0
  0
LINE
  5
93
  8
0
 10
62.001242659315267
 20
72.975984104232566
 30
0.0
 11
63.151242659315272
 21
72.975984104232566
 31
0.0
  0
LINE
  5
94
  8
0
 10
42.001242659315267
 20
73.625984104232572
 30
0.0
 11
42.001242659315267
 21
69.625984104232572
 31
0.0
  0
LINE
  5
95
  8
0
 10
61.00124265931526
 20
68.625984104232572
 30
0.0
 11
43.00124265931526
 21
68.625984104232572
 31
0.0
  0
LINE
  5
96
  8
3
 10
61.542742659315259
 20
69.167484104232571
 30
0.0
 11
42.45974265931526
 21
69.167484104232571
 31
0.0
  0
LINE
  5
97
  8
3
 10
61.542742659315259
 20
74.084484104232573
 30
0.0
 11
42.45974265931526
 21
74.084484104232573
 31
0.0
  0
LINE
  5
98
  8
0
 10
61.00124265931526
 20
74.625984104232572
 30
0.0
 11
43.00124265931526
 21
74.625984104232572
 31
0.0
  0
LINE
  5
99
  8
1
 10
39.501242659315267
 20
71.625984104232572
 30
0.0
 11
67.001242659315267
 21
71.625984104232572
 31
0.0
  0
CIRCLE
  5
9A
  8
3
 10
93.379119659315279
 20
44.927578104232559
 30
0.0
 40
2.458499999999999
  0
LINE
  5
9B
  8
0
 10
62.001242659315267
 20
72.225984104232566
 30
0.0
 11
51.501242659315267
 21
72.225984104232566
 31
0.0
  0
LINE
  5
9C
  8
0
 10
61.00124265931526
 20
71.025984104232563
 30
0.0
 11
61.00124265931526
 21
68.625984104232572
 31
0.0
  0
LINE
  5
9D
  8
0
 10
61.00124265931526
 20
20.944882104232558
 30
0.0
 11
61.00124265931526
 21
14.94488210423256
 31
0.0
  0
LINE
  5
9E
  8
1
 10
39.501242659315267
 20
17.944882104232558
 30
0.0
 11
67.001242659315267
 21
17.944882104232558
 31
0.0
  0
LINE
  5
9F
  8
0
 10
61.00124265931526
 20
20.944882104232558
 30
0.0
 11
43.00124265931526
 21
20.944882104232558
 31
0.0
  0
LINE
  5
A0
  8
3
 10
61.542742659315259
 20
20.403382104232559
 30
0.0
 11
42.45974265931526
 21
20.403382104232559
 31
0.0
  0
LINE
  5
A1
  8
3
 10
61.542742659315259
 20
15.486382104232559
 30
0.0
 11
42.45974265931526
 21
15.486382104232559
 31
0.0
  0
LINE
  5
A2
  8
0
 10
61.00124265931526
 20
14.94488210423256
 30
0.0
 11
43.00124265931526
 21
14.94488210423256
 31
0.0
  0
LINE
  5
A3
  8
0
 10
42.001242659315267
 20
19.944882104232558
 30
0.0
 11
42.001242659315267
 21
15.94488210423256
 31
0.0
  0
LINE
  5
A4
  8
0
 10
62.001242659315267
 20
19.29488210423256
 30
0.0
 11
63.151242659315272
 21
19.29488210423256
 31
0.0
  0
LINE
  5
A5
  8
0
 10
62.001242659315267
 20
16.59488210423256
 30
0.0
 11
63.151242659315272
 21
16.59488210423256
 31
0.0
  0
ARC
  5
A6
  8
0
 10
63.151242659315272
 20
17.944882104232558
 30
0.0
 40
1.3500000000000001
 50
270.0
 51
90.0
  0
LINE
  5
A7
  8
0
 10
62.001242659315267
 20
15.94488210423256
 30
0.0
 11
61.00124265931526
 21
14.94488210423256
 31
0.0
  0
LINE
  5
A8
  8
0
 10
62.001242659315267
 20
19.944882104232558
 30
0.0
 11
61.00124265931526
 21
20.944882104232558
 31
0.0
  0
LINE
  5
A9
  8
0
 10
43.00124265931526
 20
20.944882104232558
 30
0.0
 11
42.001242659315267
 21
19.944882104232558
 31
0.0
  0
LINE
  5
AA
  8
0
 10
42.001242659315267
 20
15.94488210423256
 30
0.0
 11
43.00124265931526
 21
14.94488210423256
 31
0.0
  0
LINE
  5
AB
  8
0
 10
43.00124265931526
 20
20.944882104232558
 30
0.0
 11
43.00124265931526
 21
14.94488210423256
 31
0.0
  0
ARC
  5
AC
  8
2
 10
60.651242659315272
 20
17.944882104232558
 30
0.0
 40
1.3500000000000001
 50
270.0
 51
90.0
  0
LINE
  5
AD
  8
0
 10
62.001242659315267
 20
19.944882104232558
 30
0.0
 11
62.001242659315267
 21
15.94488210423256
 31
0.0
  0
LINE
  5
19F
  8
2
 10
44.501242659315267
 20
43.772877566793113
 30
0.0
 11
44.501242659315267
 21
46.082278641672019
 31
0.0
  0
LINE
  5
1A0
  8
2
 10
42.001242659315267
 20
43.77287756679312
 30
0.0
 11
44.501242659315267
 21
43.772877566793113
 31
0.0
  0
LINE
  5
1A1
  8
2
 10
42.001242659315267
 20
44.350227835513202
 30
0.0
 11
44.501242659315267
 21
44.350227835513202
 31
0.0
  0
LINE
  5
1A2
  8
2
 10
42.001242659315267
 20
45.504928372951902
 30
0.0
 11
44.501242659315267
 21
45.504928372951888
 31
0.0
  0
LINE
  5
1A3
  8
2
 10
42.001242659315267
 20
46.082278641672019
 30
0.0
 11
44.501242659315267
 21
46.082278641672019
 31
0.0
  0
LINE
  5
1A9
  8
2
 10
44.501242659315267
 20
70.625984104232572
 30
0.0
 11
44.501242659315267
 21
72.625984104232543
 31
0.0
  0
LINE
  5
1AA
  8
2
 10
42.001242659315267
 20
70.625984104232572
 30
0.0
 11
44.501242659315267
 21
70.625984104232572
 31
0.0
  0
LINE
  5
1AC
  8
2
 10
42.001242659315267
 20
71.625984104232572
 30
0.0
 11
44.501242659315267
 21
71.625984104232572
 31
0.0
  0
LINE
  5
1AD
  8
2
 10
42.001242659315267
 20
72.625984104232572
 30
0.0
 11
44.501242659315267
 21
72.625984104232572
 31
0.0
  0
LINE
  5
208
  8
2
 10
44.501242659315267
 20
16.944882104232558
 30
0.0
 11
44.501242659315267
 21
18.944882104232541
 31
0.0
  0
LINE
  5
209
  8
2
 10
42.001242659315267
 20
16.944882104232558
 30
0.0
 11
44.501242659315267
 21
16.944882104232558
 31
0.0
  0
LINE
  5
20A
  8
2
 10
42.001242659315267
 20
17.944882104232558
 30
0.0
 11
44.501242659315267
 21
17.944882104232558
 31
0.0
  0
LINE
  5
20B
  8
2
 10
42.001242659315267
 20
18.944882104232558
 30
0.0
 11
44.501242659315267
 21
18.944882104232558
 31
0.0
  0
TEXT
  5
26B
  8
0
 62
     3
 10
0.0
 20
0.0
 30
0.0
 40
5.0
  1
LPLH6-SUS
  7
STANDARD1
  0
ENDSEC
  0
EOF
