  0
SECTION
  2
HEADER
  9
$ACADVER
  1
AC1009
  9
$INSBASE
 10
0.0
 20
0.0
 30
0.0
  9
$EXTMIN
 10
0.0
 20
-1.4802182810368341
 30
0.0
  9
$EXTMAX
 10
60.007277000000002
 20
41.985807999999999
 30
0.0
  9
$LIMMIN
 10
0.0
 20
0.0
  9
$LIMMAX
 10
75.0
 20
54.0
  9
$ORTHOMODE
 70
     1
  9
$REGENMODE
 70
     1
  9
$FILLMODE
 70
     1
  9
$QTEXTMODE
 70
     0
  9
$MIRRTEXT
 70
     0
  9
$DRAGMODE
 70
     2
  9
$LTSCALE
 40
2.0
  9
$OSMODE
 70
  3071
  9
$ATTMODE
 70
     1
  9
$TEXTSIZE
 40
0.8
  9
$TRACEWID
 40
0.05
  9
$TEXTSTYLE
  7
STANDARD
  9
$CLAYER
  8
0
  9
$CELTYPE
  6
BYLAYER
  9
$CECOLOR
 62
   256
  9
$DIMSCALE
 40
0.2
  9
$DIMASZ
 40
3.0
  9
$DIMEXO
 40
2.0
  9
$DIMDLI
 40
10.0
  9
$DIMRND
 40
0.0
  9
$DIMDLE
 40
0.0
  9
$DIMEXE
 40
2.0
  9
$DIMTP
 40
0.0
  9
$DIMTM
 40
0.0
  9
$DIMTXT
 40
3.2000000000000002
  9
$DIMCEN
 40
0.09
  9
$DIMTSZ
 40
0.0
  9
$DIMTOL
 70
     0
  9
$DIMLIM
 70
     0
  9
$DIMTIH
 70
     0
  9
$DIMTOH
 70
     0
  9
$DIMSE1
 70
     0
  9
$DIMSE2
 70
     0
  9
$DIMTAD
 70
     1
  9
$DIMZIN
 70
     0
  9
$DIMBLK
  1

  9
$DIMASO
 70
     1
  9
$DIMSHO
 70
     0
  9
$DIMPOST
  1

  9
$DIMAPOST
  1

  9
$DIMALT
 70
     0
  9
$DIMALTD
 70
     2
  9
$DIMALTF
 40
25.399999999999999
  9
$DIMLFAC
 40
1.0
  9
$DIMTOFL
 70
     1
  9
$DIMTVP
 40
1.6000000000000001
  9
$DIMTIX
 70
     0
  9
$DIMSOXD
 70
     0
  9
$DIMSAH
 70
     0
  9
$DIMBLK1
  1

  9
$DIMBLK2
  1

  9
$DIMSTYLE
  2
STANDARD
  9
$DIMCLRD
 70
     0
  9
$DIMCLRE
 70
     0
  9
$DIMCLRT
 70
     0
  9
$DIMTFAC
 40
1.0
  9
$DIMGAP
 40
0.09
  9
$LUNITS
 70
     2
  9
$LUPREC
 70
     4
  9
$SKETCHINC
 40
0.1
  9
$FILLETRAD
 40
0.3
  9
$AUNITS
 70
     0
  9
$AUPREC
 70
     0
  9
$MENU
  1
E:\r13\win\SUPPORT\ACAD
  9
$ELEVATION
 40
0.0
  9
$PELEVATION
 40
0.0
  9
$THICKNESS
 40
0.0
  9
$LIMCHECK
 70
     0
  9
$BLIPMODE
 70
     0
  9
$CHAMFERA
 40
0.0
  9
$CHAMFERB
 40
0.0
  9
$SKPOLY
 70
     0
  9
$TDCREATE
 40
2449840.6183333332
  9
$TDUPDATE
 40
2456597.5876569678
  9
$TDINDWG
 40
0.0055298495
  9
$TDUSRTIMER
 40
0.0055298495
  9
$USRTIMER
 70
     1
  9
$ANGBASE
 50
0.0
  9
$ANGDIR
 70
     0
  9
$PDMODE
 70
     0
  9
$PDSIZE
 40
0.0
  9
$PLINEWID
 40
0.0
  9
$COORDS
 70
     1
  9
$SPLFRAME
 70
     0
  9
$SPLINETYPE
 70
     6
  9
$SPLINESEGS
 70
     8
  9
$ATTDIA
 70
     0
  9
$ATTREQ
 70
     1
  9
$HANDLING
 70
     1
  9
$HANDSEED
  5
2C3
  9
$SURFTAB1
 70
     6
  9
$SURFTAB2
 70
     6
  9
$SURFTYPE
 70
     6
  9
$SURFU
 70
     6
  9
$SURFV
 70
     6
  9
$UCSNAME
  2

  9
$UCSORG
 10
0.0
 20
0.0
 30
0.0
  9
$UCSXDIR
 10
1.0
 20
0.0
 30
0.0
  9
$UCSYDIR
 10
0.0
 20
1.0
 30
0.0
  9
$PUCSNAME
  2

  9
$PUCSORG
 10
0.0
 20
0.0
 30
0.0
  9
$PUCSXDIR
 10
1.0
 20
0.0
 30
0.0
  9
$PUCSYDIR
 10
0.0
 20
1.0
 30
0.0
  9
$USERI1
 70
     0
  9
$USERI2
 70
     1
  9
$USERI3
 70
     1
  9
$USERI4
 70
     0
  9
$USERI5
 70
     0
  9
$USERR1
 40
0.0
  9
$USERR2
 40
0.0
  9
$USERR3
 40
0.0
  9
$USERR4
 40
0.0
  9
$USERR5
 40
0.0
  9
$WORLDVIEW
 70
     1
  9
$SHADEDGE
 70
     3
  9
$SHADEDIF
 70
    70
  9
$TILEMODE
 70
     1
  9
$MAXACTVP
 70
    16
  9
$PLIMCHECK
 70
     0
  9
$PEXTMIN
 10
1.0000000000000000E+020
 20
1.0000000000000000E+020
 30
1.0000000000000000E+020
  9
$PEXTMAX
 10
-1.0000000000000000E+020
 20
-1.0000000000000000E+020
 30
-1.0000000000000000E+020
  9
$PLIMMIN
 10
0.0
 20
0.0
  9
$PLIMMAX
 10
12.0
 20
9.0
  9
$UNITMODE
 70
     0
  9
$VISRETAIN
 70
     0
  9
$PLINEGEN
 70
     0
  9
$PSLTSCALE
 70
     0
  0
ENDSEC
  0
SECTION
  2
TABLES
  0
TABLE
  2
VPORT
 70
     1
  0
VPORT
  2
*ACTIVE
 70
     0
 10
0.0
 20
0.0
 11
1.0
 21
1.0
 12
37.498855678130482
 22
26.379763760371251
 13
0.0
 23
0.0
 14
2.0
 24
2.0
 15
2.0
 25
2.0
 16
0.0
 26
0.0
 36
1.0
 17
0.0
 27
0.0
 37
0.0
 40
56.358601010194953
 41
2.304913294797688
 42
50.0
 43
0.0
 44
0.0
 50
0.0
 51
0.0
 71
     0
 72
   100
 73
     1
 74
     0
 75
     0
 76
     0
 77
     0
 78
     1
  0
ENDTAB
  0
TABLE
  2
LTYPE
 70
     4
  0
LTYPE
  2
CONTINUOUS
 70
     0
  3
Solid Line
 72
    65
 73
     0
 40
0.0
  0
LTYPE
  2
CENTER
 70
     0
  3
____ _ ____ _ ____ _ ____ _ ____ _ ____ _ ____
 72
    65
 73
     4
 40
2.0
 49
1.25
 49
-0.25
 49
0.25
 49
-0.25
  0
LTYPE
  2
HIDDEN
 70
     0
  3
_ _ _ _ _ _ _ _ _ _ _ _ _ _ _ _ _ _ _ _ _ _ _
 72
    65
 73
     2
 40
0.375
 49
0.25
 49
-0.125
  0
LTYPE
  2
PHANTOM2
 70
     0
  3
___ _ _ ___ _ _ ___ _ _ ___ _ _
 72
    65
 73
     6
 40
1.25
 49
0.625
 49
-0.125
 49
0.125
 49
-0.125
 49
0.125
 49
-0.125
  0
ENDTAB
  0
TABLE
  2
LAYER
 70
     4
  0
LAYER
  2
0
 70
     0
 62
     7
  6
CONTINUOUS
  0
LAYER
  2
1
 70
     0
 62
     1
  6
CENTER
  0
LAYER
  2
2
 70
     0
 62
     2
  6
HIDDEN
  0
LAYER
  2
3
 70
     0
 62
     3
  6
CONTINUOUS
  0
ENDTAB
  0
TABLE
  2
STYLE
 70
     2
  0
STYLE
  2
STANDARD
 70
     0
 40
0.0
 41
1.0
 50
0.0
 71
     0
 42
0.8
  3
ROMANS
  4
BIGFONT
  0
STYLE
  2
STANDARD1
 70
     0
 40
0.0
 41
1.0
 50
0.0
 71
     0
 42
3.0
  3
txt
  4

  0
ENDTAB
  0
TABLE
  2
VIEW
 70
     1
  0
VIEW
  2
ALL
 70
     0
 40
54.0
 10
44.119884000000013
 20
27.0
 41
88.239768000000026
 11
0.0
 21
0.0
 31
1.0
 12
0.0
 22
0.0
 32
0.0
 42
0.0
 43
0.0
 44
0.0
 50
0.0
 71
     0
  0
ENDTAB
  0
TABLE
  2
UCS
 70
     0
  0
ENDTAB
  0
TABLE
  2
APPID
 70
     3
  0
APPID
  2
ACAD
 70
     0
  0
APPID
  2
ACAD_MLEADERVER
 70
     0
  0
APPID
  2
ACAD_NAV_VCDISPLAY
 70
     0
  0
ENDTAB
  0
TABLE
  2
DIMSTYLE
 70
     1
  0
DIMSTYLE
  2
STANDARD
 70
     0
  3

  4

  5

  6

  7

 40
1.0
 41
0.18
 42
0.0625
 43
0.38
 44
0.18
 45
0.0
 46
0.0
 47
0.0
 48
0.0
140
0.18
141
0.09
142
0.0
143
25.399999999999999
144
1.0
145
0.0
146
1.0
147
0.09
 71
     0
 72
     0
 73
     1
 74
     1
 75
     0
 76
     0
 77
     0
 78
     0
170
     0
171
     2
172
     0
173
     0
174
     0
175
     0
176
     0
177
     0
178
     0
  0
ENDTAB
  0
ENDSEC
  0
SECTION
  2
BLOCKS
  0
BLOCK
  8
0
  2
$MODEL_SPACE
 70
     0
 10
0.0
 20
0.0
 30
0.0
  3
$MODEL_SPACE
  1

  0
ENDBLK
  5
E0
  8
0
  0
BLOCK
 67
     1
  8
0
  2
$PAPER_SPACE
 70
     0
 10
0.0
 20
0.0
 30
0.0
  3
$PAPER_SPACE
  1

  0
ENDBLK
  5
DE
 67
     1
  8
0
  0
ENDSEC
  0
SECTION
  2
ENTITIES
  0
LINE
  5
29
  8
0
 10
42.504773999999998
 20
29.393059999999998
 30
0.0
 11
26.104773999999999
 21
29.393059999999998
 31
0.0
  0
LINE
  5
2A
  8
3
 10
42.93777399999999
 20
28.960059999999999
 30
0.0
 11
25.671773999999999
 21
28.960059999999999
 31
0.0
  0
LINE
  5
2B
  8
3
 10
42.93777399999999
 20
24.826059999999998
 30
0.0
 11
25.671773999999999
 21
24.826059999999998
 31
0.0
  0
LINE
  5
2C
  8
0
 10
42.504773999999998
 20
24.393059999999998
 30
0.0
 11
26.104773999999999
 21
24.393059999999998
 31
0.0
  0
ARC
  5
2D
  8
0
 10
56.507277000000002
 20
26.893059999999998
 30
0.0
 40
2.5
 50
96.903536000000017
 51
83.096463999999997
  0
CIRCLE
  5
2E
  8
3
 10
14.507277
 20
26.893059999999998
 30
0.0
 40
2.0669999999999988
  0
CIRCLE
  5
2F
  8
0
 10
14.507277
 20
26.893059999999998
 30
0.0
 40
2.5
  0
LINE
  5
30
  8
0
 10
25.304773999999998
 20
28.593060000000001
 30
0.0
 11
25.304773999999998
 21
25.193059999999999
 31
0.0
  0
LINE
  5
31
  8
0
 10
43.304774000000002
 20
28.593060000000001
 30
0.0
 11
43.304774000000002
 21
27.293060000000001
 31
0.0
  0
LINE
  5
32
  8
0
 10
43.304774000000002
 20
28.093060000000001
 30
0.0
 11
44.404773999999989
 21
28.093060000000001
 31
0.0
  0
LINE
  5
33
  8
0
 10
43.304774000000002
 20
25.693059999999999
 30
0.0
 11
44.404773999999989
 21
25.693059999999999
 31
0.0
  0
LINE
  5
34
  8
1
 10
24.304773999999998
 20
26.893059999999998
 30
0.0
 11
46.604773999999999
 21
26.893059999999998
 31
0.0
  0
ARC
  5
35
  8
0
 10
44.404773999999989
 20
26.893059999999998
 30
0.0
 40
1.1999999999999991
 50
270.0
 51
90.0
  0
LINE
  5
36
  8
0
 10
25.304773999999998
 20
25.193059999999999
 30
0.0
 11
26.104773999999999
 21
24.393059999999998
 31
0.0
  0
LINE
  5
37
  8
0
 10
25.304773999999998
 20
28.593060000000001
 30
0.0
 11
26.104773999999999
 21
29.393059999999998
 31
0.0
  0
LINE
  5
38
  8
0
 10
43.304774000000002
 20
25.193059999999999
 30
0.0
 11
42.504773999999998
 21
24.393059999999998
 31
0.0
  0
LINE
  5
39
  8
0
 10
42.504773999999998
 20
29.393059999999998
 30
0.0
 11
43.304774000000002
 21
28.593060000000001
 31
0.0
  0
LINE
  5
3A
  8
0
 10
42.504773999999998
 20
29.393059999999998
 30
0.0
 11
42.504773999999998
 21
24.393059999999998
 31
0.0
  0
LINE
  5
3B
  8
0
 10
26.104773999999999
 20
24.393059999999998
 30
0.0
 11
26.104773999999999
 21
29.393059999999998
 31
0.0
  0
CIRCLE
  5
3C
  8
0
 10
56.507277000000002
 20
26.893059999999998
 30
0.0
 40
1.1999999999999991
  0
LINE
  5
3D
  8
0
 10
13.757277
 20
27.326073000000001
 30
0.0
 11
13.757277
 21
26.460046999999999
 31
0.0
  0
LINE
  5
3E
  8
0
 10
14.507277
 20
27.759084999999999
 30
0.0
 11
13.757277
 21
27.326073000000001
 31
0.0
  0
LINE
  5
3F
  8
0
 10
15.257277
 20
27.326073000000001
 30
0.0
 11
14.507277
 21
27.759084999999999
 31
0.0
  0
LINE
  5
40
  8
0
 10
15.257277
 20
26.460046999999999
 30
0.0
 11
15.257277
 21
27.326073000000001
 31
0.0
  0
LINE
  5
41
  8
0
 10
14.507277
 20
26.027034
 30
0.0
 11
15.257277
 21
26.460046999999999
 31
0.0
  0
LINE
  5
42
  8
0
 10
13.757277
 20
26.460046999999999
 30
0.0
 11
14.507277
 21
26.027034
 31
0.0
  0
CIRCLE
  5
43
  8
3
 10
14.507277
 20
26.893059999999998
 30
0.0
 40
1.5
  0
LINE
  5
44
  8
0
 10
54.039483999999987
 20
26.49306
 30
0.0
 11
55.375906000000008
 21
26.49306
 31
0.0
  0
LINE
  5
45
  8
0
 10
54.039483999999987
 20
27.293060000000001
 30
0.0
 11
55.375906000000008
 21
27.293060000000001
 31
0.0
  0
LINE
  5
46
  8
0
 10
57.638648000000003
 20
27.293060000000001
 30
0.0
 11
58.975068999999991
 21
27.293060000000001
 31
0.0
  0
LINE
  5
47
  8
0
 10
57.638648000000003
 20
26.49306
 30
0.0
 11
58.975068999999991
 21
26.49306
 31
0.0
  0
CIRCLE
  5
48
  8
0
 10
14.507277
 20
26.893059999999998
 30
0.0
 40
1.2295
  0
ARC
  5
49
  8
2
 10
42.104773999999999
 20
26.893059999999998
 30
0.0
 40
1.1999999999999991
 50
270.0
 51
90.0
  0
LINE
  5
4A
  8
1
 10
18.007276999999998
 20
26.893059999999998
 30
0.0
 11
11.007277
 21
26.893059999999998
 31
0.0
  0
LINE
  5
4B
  8
1
 10
14.507277
 20
30.393059999999998
 30
0.0
 11
14.507277
 21
23.393059999999998
 31
0.0
  0
LINE
  5
4C
  8
1
 10
56.507277000000002
 20
30.393059999999998
 30
0.0
 11
56.507277000000002
 21
23.393059999999998
 31
0.0
  0
LINE
  5
4D
  8
1
 10
53.007277000000002
 20
26.893059999999998
 30
0.0
 11
60.007277000000002
 21
26.893059999999998
 31
0.0
  0
LINE
  5
4E
  8
2
 10
33.304774000000002
 20
28.99306
 30
0.0
 11
33.304774000000002
 21
29.393059999999998
 31
0.0
  0
LINE
  5
4F
  8
2
 10
43.204774
 20
28.693059999999999
 30
0.0
 11
33.604773999999999
 21
28.693059999999999
 31
0.0
  0
LINE
  5
50
  8
0
 10
34.337774000000003
 20
29.393059999999998
 30
0.0
 11
34.337774000000003
 21
29.593060000000001
 31
0.0
  0
LINE
  5
51
  8
0
 10
34.337774000000003
 20
29.593060000000001
 30
0.0
 11
41.337773999999989
 21
29.593060000000001
 31
0.0
  0
LINE
  5
52
  8
0
 10
41.337773999999989
 20
29.593060000000001
 30
0.0
 11
41.337773999999989
 21
29.393059999999998
 31
0.0
  0
ARC
  5
53
  8
2
 10
33.604773999999999
 20
28.99306
 30
0.0
 40
0.3
 50
180.0
 51
270.0
  0
LINE
  5
54
  8
2
 10
34.337774000000003
 20
29.393059999999998
 30
0.0
 11
34.337774000000003
 21
28.693059999999999
 31
0.0
  0
LINE
  5
55
  8
2
 10
41.337773999999989
 20
29.393059999999998
 30
0.0
 11
41.337773999999989
 21
28.693059999999999
 31
0.0
  0
LINE
  5
56
  8
0
 10
56.157277000000001
 20
28.693059999999999
 30
0.0
 11
56.857277000000011
 21
28.693059999999999
 31
0.0
  0
LINE
  5
57
  8
0
 10
43.304774000000002
 20
27.293060000000001
 30
0.0
 11
42.504773999999998
 21
27.293060000000001
 31
0.0
  0
LINE
  5
58
  8
0
 10
43.304774000000002
 20
26.49306
 30
0.0
 11
42.504773999999998
 21
26.49306
 31
0.0
  0
LINE
  5
59
  8
0
 10
43.304774000000002
 20
26.49306
 30
0.0
 11
43.304774000000002
 21
25.193059999999999
 31
0.0
  0
LINE
  5
5A
  8
0
 10
56.157277000000001
 20
29.368438999999999
 30
0.0
 11
56.157277000000001
 21
28.693059999999999
 31
0.0
  0
LINE
  5
5B
  8
0
 10
56.857277000000011
 20
29.368438999999999
 30
0.0
 11
56.857277000000011
 21
28.693059999999999
 31
0.0
  0
POLYLINE
  5
5C
  8
0
 66
     1
 10
0.0
 20
0.0
 30
0.0
 70
     1
  0
VERTEX
  5
5D
  8
0
 10
56.157277000000001
 20
29.143059999999998
 30
0.0
 42
0.078075
  0
VERTEX
  5
5E
  8
0
 10
56.185062999999992
 20
28.966197000000001
 30
0.0
 42
0.087567
  0
VERTEX
  5
5F
  8
0
 10
56.259788999999998
 20
28.824862
 30
0.0
 42
0.105488
 70
     2
 50
307.87498399999998
  0
VERTEX
  5
60
  8
0
 10
56.378079000000007
 20
28.725318000000001
 30
0.0
 42
0.122953
 50
307.87498399999998
  0
VERTEX
  5
61
  8
0
 10
56.507277000000002
 20
28.693059999999999
 30
0.0
 42
0.122953
  0
VERTEX
  5
62
  8
0
 10
56.636474
 20
28.725318000000001
 30
0.0
 42
0.105488
  0
VERTEX
  5
63
  8
0
 10
56.754764000000002
 20
28.824862
 30
0.0
 42
0.087567
 70
     2
 50
52.125015999999988
  0
VERTEX
  5
64
  8
0
 10
56.82949
 20
28.966197000000001
 30
0.0
 42
0.078075
 50
52.125015999999988
  0
VERTEX
  5
65
  8
0
 10
56.857277000000011
 20
29.143059999999998
 30
0.0
 42
0.078075
  0
VERTEX
  5
66
  8
0
 10
56.82949
 20
29.319921999999998
 30
0.0
 42
0.087567
  0
VERTEX
  5
67
  8
0
 10
56.754764000000002
 20
29.461258000000001
 30
0.0
 42
0.105488
 70
     2
 50
127.874984
  0
VERTEX
  5
68
  8
0
 10
56.636474
 20
29.560801999999999
 30
0.0
 42
0.122953
 50
127.874984
  0
VERTEX
  5
69
  8
0
 10
56.507277000000002
 20
29.593060000000001
 30
0.0
 42
0.122953
  0
VERTEX
  5
6A
  8
0
 10
56.378079000000007
 20
29.560801999999999
 30
0.0
 42
0.105488
  0
VERTEX
  5
6B
  8
0
 10
56.259788999999998
 20
29.461258000000001
 30
0.0
 42
0.087567
 70
     2
 50
232.12501599999999
  0
VERTEX
  5
6C
  8
0
 10
56.185062999999992
 20
29.319921999999998
 30
0.0
 42
0.078075
 50
232.12501599999999
  0
SEQEND
  5
6D
  8
0
  0
POLYLINE
  5
6E
  8
0
 66
     1
 10
0.0
 20
0.0
 30
0.0
  0
VERTEX
  5
6F
  8
0
 10
14.807772
 20
29.374935000000001
 30
0.0
 42
0.05523
  0
VERTEX
  5
70
  8
0
 10
14.754764
 20
29.461258000000001
 30
0.0
 42
0.105488
 70
     2
 50
127.874984
  0
VERTEX
  5
71
  8
0
 10
14.636474
 20
29.560801999999999
 30
0.0
 42
0.122953
 50
127.874984
  0
VERTEX
  5
72
  8
0
 10
14.507277
 20
29.593060000000001
 30
0.0
 42
0.122953
  0
VERTEX
  5
73
  8
0
 10
14.378079
 20
29.560801999999999
 30
0.0
 42
0.105488
  0
VERTEX
  5
74
  8
0
 10
14.259789
 20
29.461258000000001
 30
0.0
 42
0.05523
 70
     2
 50
232.12501599999999
  0
VERTEX
  5
75
  8
0
 10
14.206780999999999
 20
29.374935000000001
 30
0.0
 42
0.078075
 50
232.12501599999999
  0
SEQEND
  5
76
  8
0
  0
CIRCLE
  5
85
  8
3
 10
56.507277000000002
 20
26.893059999999998
 30
0.0
 40
2.0669999999999988
  0
LINE
  5
86
  8
0
 10
43.304774000000002
 20
41.185808000000002
 30
0.0
 11
43.304774000000002
 21
37.785808000000003
 31
0.0
  0
LINE
  5
87
  8
0
 10
41.337773999999989
 20
39.935808000000002
 30
0.0
 11
41.337773999999989
 21
39.035808000000003
 31
0.0
  0
LINE
  5
88
  8
0
 10
34.337774000000003
 20
39.035808000000003
 30
0.0
 11
34.337774000000003
 21
39.935808000000002
 31
0.0
  0
LINE
  5
89
  8
0
 10
43.204774
 20
39.035808000000003
 30
0.0
 11
33.304774000000002
 21
39.035808000000003
 31
0.0
  0
LINE
  5
8A
  8
0
 10
33.304774000000002
 20
39.035808000000003
 30
0.0
 11
33.304774000000002
 21
39.935808000000002
 31
0.0
  0
ARC
  5
8B
  8
2
 10
42.104773999999999
 20
39.485807999999999
 30
0.0
 40
1.1999999999999991
 50
270.0
 51
90.0
  0
LINE
  5
8C
  8
0
 10
26.104773999999999
 20
36.985807999999999
 30
0.0
 11
26.104773999999999
 21
41.985807999999999
 31
0.0
  0
LINE
  5
8D
  8
0
 10
42.504773999999998
 20
41.985807999999999
 30
0.0
 11
42.504773999999998
 21
39.935808000000002
 31
0.0
  0
LINE
  5
8E
  8
0
 10
42.504773999999998
 20
41.985807999999999
 30
0.0
 11
43.304774000000002
 21
41.185808000000002
 31
0.0
  0
LINE
  5
8F
  8
0
 10
43.304774000000002
 20
37.785808000000003
 30
0.0
 11
42.504773999999998
 21
36.985807999999999
 31
0.0
  0
LINE
  5
90
  8
0
 10
25.304773999999998
 20
41.185808000000002
 30
0.0
 11
26.104773999999999
 21
41.985807999999999
 31
0.0
  0
LINE
  5
91
  8
0
 10
25.304773999999998
 20
37.785808000000003
 30
0.0
 11
26.104773999999999
 21
36.985807999999999
 31
0.0
  0
ARC
  5
92
  8
0
 10
44.404773999999989
 20
39.485807999999999
 30
0.0
 40
1.1999999999999991
 50
270.0
 51
90.0
  0
LINE
  5
93
  8
1
 10
24.304773999999998
 20
39.485807999999999
 30
0.0
 11
46.604773999999999
 21
39.485807999999999
 31
0.0
  0
LINE
  5
94
  8
0
 10
43.304774000000002
 20
38.28580800000001
 30
0.0
 11
44.404773999999989
 21
38.28580800000001
 31
0.0
  0
LINE
  5
95
  8
0
 10
43.304774000000002
 20
40.685808000000002
 30
0.0
 11
44.404773999999989
 21
40.685808000000002
 31
0.0
  0
LINE
  5
96
  8
0
 10
25.304773999999998
 20
41.185808000000002
 30
0.0
 11
25.304773999999998
 21
37.785808000000003
 31
0.0
  0
LINE
  5
97
  8
0
 10
42.504773999999998
 20
36.985807999999999
 30
0.0
 11
26.104773999999999
 21
36.985807999999999
 31
0.0
  0
LINE
  5
98
  8
3
 10
42.93777399999999
 20
37.418807999999999
 30
0.0
 11
25.671773999999999
 21
37.418807999999999
 31
0.0
  0
LINE
  5
99
  8
3
 10
42.93777399999999
 20
41.552807999999992
 30
0.0
 11
25.671773999999999
 21
41.552807999999992
 31
0.0
  0
LINE
  5
9A
  8
0
 10
42.504773999999998
 20
41.985807999999999
 30
0.0
 11
26.104773999999999
 21
41.985807999999999
 31
0.0
  0
LINE
  5
9B
  8
0
 10
43.204774
 20
39.935808000000002
 30
0.0
 11
33.304774000000002
 21
39.935808000000002
 31
0.0
  0
LINE
  5
9C
  8
0
 10
42.504773999999998
 20
16.526734999999999
 30
0.0
 11
26.104773999999999
 21
16.526734999999999
 31
0.0
  0
LINE
  5
9D
  8
3
 10
42.93777399999999
 20
16.093734999999999
 30
0.0
 11
25.671773999999999
 21
16.093734999999999
 31
0.0
  0
LINE
  5
9E
  8
3
 10
42.93777399999999
 20
11.959735
 30
0.0
 11
25.671773999999999
 21
11.959735
 31
0.0
  0
LINE
  5
9F
  8
0
 10
42.504773999999998
 20
11.526735
 30
0.0
 11
26.104773999999999
 21
11.526735
 31
0.0
  0
LINE
  5
A0
  8
0
 10
25.304773999999998
 20
15.726735
 30
0.0
 11
25.304773999999998
 21
12.326734999999999
 31
0.0
  0
LINE
  5
A1
  8
0
 10
43.304774000000002
 20
15.226735
 30
0.0
 11
44.404773999999989
 21
15.226735
 31
0.0
  0
LINE
  5
A2
  8
0
 10
43.304774000000002
 20
12.826734999999999
 30
0.0
 11
44.404773999999989
 21
12.826734999999999
 31
0.0
  0
LINE
  5
A3
  8
1
 10
24.304773999999998
 20
14.026735
 30
0.0
 11
46.604773999999999
 21
14.026735
 31
0.0
  0
ARC
  5
A4
  8
0
 10
44.404773999999989
 20
14.026735
 30
0.0
 40
1.1999999999999991
 50
270.0
 51
90.0
  0
LINE
  5
A5
  8
0
 10
25.304773999999998
 20
12.326734999999999
 30
0.0
 11
26.104773999999999
 21
11.526735
 31
0.0
  0
LINE
  5
A6
  8
0
 10
25.304773999999998
 20
15.726735
 30
0.0
 11
26.104773999999999
 21
16.526734999999999
 31
0.0
  0
LINE
  5
A7
  8
0
 10
43.304774000000002
 20
12.326734999999999
 30
0.0
 11
42.504773999999998
 21
11.526735
 31
0.0
  0
LINE
  5
A8
  8
0
 10
42.504773999999998
 20
16.526734999999999
 30
0.0
 11
43.304774000000002
 21
15.726735
 31
0.0
  0
LINE
  5
A9
  8
0
 10
42.504773999999998
 20
16.526734999999999
 30
0.0
 11
42.504773999999998
 21
11.526735
 31
0.0
  0
LINE
  5
AA
  8
0
 10
26.104773999999999
 20
11.526735
 30
0.0
 11
26.104773999999999
 21
16.526734999999999
 31
0.0
  0
ARC
  5
AB
  8
2
 10
42.104773999999999
 20
14.026735
 30
0.0
 40
1.1999999999999991
 50
270.0
 51
90.0
  0
LINE
  5
AC
  8
0
 10
43.304774000000002
 20
15.726735
 30
0.0
 11
43.304774000000002
 21
12.326734999999999
 31
0.0
  0
LINE
  5
AD
  8
0
 10
42.504773999999998
 20
39.035808000000003
 30
0.0
 11
42.504773999999998
 21
36.985807999999999
 31
0.0
  0
LINE
  5
AE
  8
0
 10
43.204774
 20
39.035808000000003
 30
0.0
 11
43.204774
 21
39.935808000000002
 31
0.0
  0
LINE
  5
188
  8
2
 10
27.304773999999998
 20
26.027034
 30
0.0
 11
27.304773999999998
 21
27.75908480615918
 31
0.0
  0
LINE
  5
189
  8
2
 10
25.304773999999998
 20
26.027034
 30
0.0
 11
27.304773999999998
 21
26.027034
 31
0.0
  0
LINE
  5
18A
  8
2
 10
25.304773999999998
 20
26.460046701540069
 30
0.0
 11
27.304773999999998
 21
26.460046701540062
 31
0.0
  0
LINE
  5
18B
  8
2
 10
25.304773999999998
 20
27.32607210461909
 30
0.0
 11
27.304773999999998
 21
27.32607210461908
 31
0.0
  0
LINE
  5
18C
  8
2
 10
25.304773999999998
 20
27.75908480615918
 30
0.0
 11
27.304773999999998
 21
27.75908480615918
 31
0.0
  0
LINE
  5
192
  8
2
 10
27.304773999999998
 20
38.735808000000013
 30
0.0
 11
27.304773999999998
 21
40.235807999999999
 31
0.0
  0
LINE
  5
193
  8
2
 10
25.304773999999998
 20
38.735808000000013
 30
0.0
 11
27.304773999999998
 21
38.735808000000013
 31
0.0
  0
LINE
  5
195
  8
2
 10
25.304773999999998
 20
39.485808000000013
 30
0.0
 11
27.304773999999998
 21
39.485807999999992
 31
0.0
  0
LINE
  5
196
  8
2
 10
25.304773999999998
 20
40.235807999999999
 30
0.0
 11
27.304773999999998
 21
40.235807999999999
 31
0.0
  0
LINE
  5
1FA
  8
2
 10
27.304773999999998
 20
13.276735
 30
0.0
 11
27.304773999999998
 21
14.77673499999999
 31
0.0
  0
LINE
  5
1FB
  8
2
 10
25.304773999999998
 20
13.276735
 30
0.0
 11
27.304773999999998
 21
13.276735
 31
0.0
  0
LINE
  5
1FC
  8
2
 10
25.304773999999998
 20
14.026735
 30
0.0
 11
27.304773999999998
 21
14.026734999999981
 31
0.0
  0
LINE
  5
1FD
  8
2
 10
25.304773999999998
 20
14.776735
 30
0.0
 11
27.304773999999998
 21
14.77673499999999
 31
0.0
  0
TEXT
  5
25D
  8
0
 62
     3
 10
0.0
 20
0.0
 30
0.0
 40
5.0
  1
LPL5-SUS
  7
STANDARD1
  0
ENDSEC
  0
EOF
