  0
SECTION
  2
HEADER
  9
$ACADVER
  1
AC1009
  9
$INSBASE
 10
0.0
 20
0.0
 30
0.0
  9
$EXTMIN
 10
0.0
 20
-2.960436562073669
 30
0.0
  9
$EXTMAX
 10
281.95829406322201
 20
328.70609329535
 30
0.0
  9
$LIMMIN
 10
0.0
 20
0.0
  9
$LIMMAX
 10
187.5
 20
135.0
  9
$ORTHOMODE
 70
     1
  9
$REGENMODE
 70
     1
  9
$FILLMODE
 70
     1
  9
$QTEXTMODE
 70
     0
  9
$MIRRTEXT
 70
     0
  9
$DRAGMODE
 70
     2
  9
$LTSCALE
 40
10.0
  9
$OSMODE
 70
  3071
  9
$ATTMODE
 70
     1
  9
$TEXTSIZE
 40
0.2
  9
$TRACEWID
 40
0.05
  9
$TEXTSTYLE
  7
STANDARD
  9
$CLAYER
  8
0
  9
$CELTYPE
  6
BYLAYER
  9
$CECOLOR
 62
   256
  9
$DIMSCALE
 40
0.5
  9
$DIMASZ
 40
3.0
  9
$DIMEXO
 40
2.0
  9
$DIMDLI
 40
0.3799999999999999
  9
$DIMRND
 40
0.0
  9
$DIMDLE
 40
0.0
  9
$DIMEXE
 40
2.0
  9
$DIMTP
 40
0.0
  9
$DIMTM
 40
0.0
  9
$DIMTXT
 40
3.2000000000000002
  9
$DIMCEN
 40
0.09
  9
$DIMTSZ
 40
0.0
  9
$DIMTOL
 70
     0
  9
$DIMLIM
 70
     0
  9
$DIMTIH
 70
     0
  9
$DIMTOH
 70
     0
  9
$DIMSE1
 70
     0
  9
$DIMSE2
 70
     0
  9
$DIMTAD
 70
     1
  9
$DIMZIN
 70
     0
  9
$DIMBLK
  1

  9
$DIMASO
 70
     0
  9
$DIMSHO
 70
     0
  9
$DIMPOST
  1

  9
$DIMAPOST
  1

  9
$DIMALT
 70
     0
  9
$DIMALTD
 70
     2
  9
$DIMALTF
 40
25.399999999999999
  9
$DIMLFAC
 40
1.0
  9
$DIMTOFL
 70
     0
  9
$DIMTVP
 40
1.6000000000000001
  9
$DIMTIX
 70
     1
  9
$DIMSOXD
 70
     0
  9
$DIMSAH
 70
     0
  9
$DIMBLK1
  1

  9
$DIMBLK2
  1

  9
$DIMSTYLE
  2
STANDARD
  9
$DIMCLRD
 70
     0
  9
$DIMCLRE
 70
     0
  9
$DIMCLRT
 70
     0
  9
$DIMTFAC
 40
1.0
  9
$DIMGAP
 40
0.09
  9
$LUNITS
 70
     2
  9
$LUPREC
 70
     4
  9
$SKETCHINC
 40
0.1
  9
$FILLETRAD
 40
0.4
  9
$AUNITS
 70
     0
  9
$AUPREC
 70
     0
  9
$MENU
  1
E:\r13\win\SUPPORT\ACAD
  9
$ELEVATION
 40
0.0
  9
$PELEVATION
 40
0.0
  9
$THICKNESS
 40
0.0
  9
$LIMCHECK
 70
     0
  9
$BLIPMODE
 70
     0
  9
$CHAMFERA
 40
0.0
  9
$CHAMFERB
 40
0.0
  9
$SKPOLY
 70
     0
  9
$TDCREATE
 40
2451824.6906229062
  9
$TDUPDATE
 40
2456597.5875511919
  9
$TDINDWG
 40
0.0707243634
  9
$TDUSRTIMER
 40
0.0707243634
  9
$USRTIMER
 70
     1
  9
$ANGBASE
 50
0.0
  9
$ANGDIR
 70
     0
  9
$PDMODE
 70
     0
  9
$PDSIZE
 40
0.0
  9
$PLINEWID
 40
0.0
  9
$COORDS
 70
     1
  9
$SPLFRAME
 70
     0
  9
$SPLINETYPE
 70
     6
  9
$SPLINESEGS
 70
     8
  9
$ATTDIA
 70
     0
  9
$ATTREQ
 70
     1
  9
$HANDLING
 70
     1
  9
$HANDSEED
  5
468
  9
$SURFTAB1
 70
     6
  9
$SURFTAB2
 70
     6
  9
$SURFTYPE
 70
     6
  9
$SURFU
 70
     6
  9
$SURFV
 70
     6
  9
$UCSNAME
  2

  9
$UCSORG
 10
0.0
 20
0.0
 30
0.0
  9
$UCSXDIR
 10
1.0
 20
0.0
 30
0.0
  9
$UCSYDIR
 10
0.0
 20
1.0
 30
0.0
  9
$PUCSNAME
  2

  9
$PUCSORG
 10
0.0
 20
0.0
 30
0.0
  9
$PUCSXDIR
 10
1.0
 20
0.0
 30
0.0
  9
$PUCSYDIR
 10
0.0
 20
1.0
 30
0.0
  9
$USERI1
 70
     0
  9
$USERI2
 70
     1
  9
$USERI3
 70
     0
  9
$USERI4
 70
     0
  9
$USERI5
 70
     0
  9
$USERR1
 40
0.0
  9
$USERR2
 40
0.0
  9
$USERR3
 40
0.0
  9
$USERR4
 40
0.0
  9
$USERR5
 40
0.0
  9
$WORLDVIEW
 70
     1
  9
$SHADEDGE
 70
     3
  9
$SHADEDIF
 70
    70
  9
$TILEMODE
 70
     1
  9
$MAXACTVP
 70
    16
  9
$PLIMCHECK
 70
     0
  9
$PEXTMIN
 10
1.0000000000000000E+020
 20
1.0000000000000000E+020
 30
1.0000000000000000E+020
  9
$PEXTMAX
 10
-1.0000000000000000E+020
 20
-1.0000000000000000E+020
 30
-1.0000000000000000E+020
  9
$PLIMMIN
 10
0.0
 20
0.0
  9
$PLIMMAX
 10
12.0
 20
9.0
  9
$UNITMODE
 70
     0
  9
$VISRETAIN
 70
     0
  9
$PLINEGEN
 70
     0
  9
$PSLTSCALE
 70
     0
  0
ENDSEC
  0
SECTION
  2
TABLES
  0
TABLE
  2
VPORT
 70
     1
  0
VPORT
  2
*ACTIVE
 70
     0
 10
0.0
 20
0.0
 11
1.0
 21
1.0
 12
140.9791476880963
 22
163.59146297072741
 13
0.0
 23
0.0
 14
5.0
 24
5.0
 15
5.0
 25
5.0
 16
0.0
 26
0.0
 36
1.0
 17
0.0
 27
0.0
 37
0.0
 40
336.9339380236429
 41
2.304913294797688
 42
50.0
 43
0.0
 44
0.0
 50
0.0
 51
0.0
 71
     0
 72
   500
 73
     1
 74
     0
 75
     0
 76
     0
 77
     0
 78
     2
  0
ENDTAB
  0
TABLE
  2
LTYPE
 70
     4
  0
LTYPE
  2
CONTINUOUS
 70
     0
  3
Solid Line
 72
    65
 73
     0
 40
0.0
  0
LTYPE
  2
CENTER
 70
     0
  3
____ _ ____ _ ____ _ ____ _ ____ _ ____ _ ____
 72
    65
 73
     4
 40
2.0
 49
1.25
 49
-0.25
 49
0.25
 49
-0.25
  0
LTYPE
  2
HIDDEN
 70
     0
  3
__ __ __ __ __ __ __ __ __ __ __ __ __ __ __ __
 72
    65
 73
     2
 40
0.375
 49
0.25
 49
-0.125
  0
LTYPE
  2
PHANTOM2
 70
     0
  3
___ _ _ ___ _ _ ___ _ _ ___ _ _
 72
    65
 73
     6
 40
1.25
 49
0.625
 49
-0.125
 49
0.125
 49
-0.125
 49
0.125
 49
-0.125
  0
ENDTAB
  0
TABLE
  2
LAYER
 70
     4
  0
LAYER
  2
0
 70
     0
 62
     7
  6
CONTINUOUS
  0
LAYER
  2
1
 70
     0
 62
     1
  6
CENTER
  0
LAYER
  2
2
 70
     0
 62
     2
  6
HIDDEN
  0
LAYER
  2
3
 70
     0
 62
     3
  6
CONTINUOUS
  0
ENDTAB
  0
TABLE
  2
STYLE
 70
     2
  0
STYLE
  2
STANDARD
 70
     0
 40
0.0
 41
1.0
 50
0.0
 71
     0
 42
0.2
  3
TXT
  4
BIGFONT
  0
STYLE
  2
STANDARD1
 70
     0
 40
0.0
 41
1.0
 50
0.0
 71
     0
 42
3.0
  3
txt
  4

  0
ENDTAB
  0
TABLE
  2
VIEW
 70
     0
  0
ENDTAB
  0
TABLE
  2
UCS
 70
     0
  0
ENDTAB
  0
TABLE
  2
APPID
 70
     8
  0
APPID
  2
ACAD
 70
     0
  0
APPID
  2
GENIUS_GENODEF_13
 70
     0
  0
APPID
  2
GENIUS_GENOREF_13
 70
     0
  0
APPID
  2
GENIUS_GENOBJ-N-CEN_13
 70
     0
  0
APPID
  2
GENIUS_GENOBJ-N-FIL_13
 70
     0
  0
APPID
  2
ACAD_EXEMPT_FROM_CAD_STANDARDS
 70
     0
  0
APPID
  2
ACAD_MLEADERVER
 70
     0
  0
APPID
  2
ACAD_NAV_VCDISPLAY
 70
     0
  0
ENDTAB
  0
TABLE
  2
DIMSTYLE
 70
     1
  0
DIMSTYLE
  2
STANDARD
 70
     0
  3

  4

  5

  6

  7

 40
1.0
 41
0.18
 42
0.0625
 43
0.38
 44
0.18
 45
0.0
 46
0.0
 47
0.0
 48
0.0
140
0.18
141
0.09
142
0.0
143
25.399999999999999
144
1.0
145
0.0
146
1.0
147
0.09
 71
     0
 72
     0
 73
     1
 74
     1
 75
     0
 76
     0
 77
     0
 78
     0
170
     0
171
     2
172
     0
173
     0
174
     0
175
     0
176
     0
177
     0
178
     0
  0
ENDTAB
  0
ENDSEC
  0
SECTION
  2
BLOCKS
  0
BLOCK
  8
0
  2
$MODEL_SPACE
 70
     0
 10
0.0
 20
0.0
 30
0.0
  3
$MODEL_SPACE
  1

  0
ENDBLK
  5
9
  8
0
  0
BLOCK
 67
     1
  8
0
  2
$PAPER_SPACE
 70
     0
 10
0.0
 20
0.0
 30
0.0
  3
$PAPER_SPACE
  1

  0
ENDBLK
  5
E
 67
     1
  8
0
  0
ENDSEC
  0
SECTION
  2
ENTITIES
  0
CIRCLE
  5
234
  8
0
 10
91.958294063221729
 20
278.70609329535
 30
0.0
 40
31.000000000000199
  0
LINE
  5
235
  8
0
 10
202.9582940632217
 20
41.271902608476474
 30
0.0
 11
203.9582940632217
 21
36.271902608476474
 31
0.0
  0
LINE
  5
236
  8
0
 10
203.9582940632217
 20
36.271902608476474
 30
0.0
 11
279.95829406322167
 21
36.27190260847658
 31
0.0
  0
LINE
  5
237
  8
0
 10
280.95829406322167
 20
41.271902608476474
 30
0.0
 11
279.95829406322167
 21
36.271902608476474
 31
0.0
  0
LINE
  5
238
  8
0
 10
130.9582940632217
 20
41.271902608476474
 30
0.0
 11
129.9582940632217
 21
36.271902608476474
 31
0.0
  0
LINE
  5
239
  8
0
 10
52.958294063221729
 20
41.271902608476474
 30
0.0
 11
53.958294063221729
 21
36.271902608476474
 31
0.0
  0
ARC
  5
23A
  8
0
 10
241.9582940632753
 20
93.055024245753955
 30
0.0
 40
22.928203228139491
 50
72.412046224314139
 51
107.5879537756858
  0
ARC
  5
23B
  8
0
 10
231.56598921786181
 20
109.84925287817261
 30
0.0
 40
6.1339745957208214
 50
55.61575252878869
 51
115.6157525301509
  0
LINE
  5
23C
  8
0
 10
228.10188760270231
 20
114.9114307040641
 30
0.0
 11
230.45829406338311
 21
116.2719026084583
 31
0.0
  0
LINE
  5
23D
  8
0
 10
228.10188760270231
 20
104.6323745128838
 30
0.0
 11
230.45829406338311
 21
103.2719026084896
 31
0.0
  0
ARC
  5
23E
  8
0
 10
231.56598921786181
 20
109.6945523387753
 30
0.0
 40
6.1339745957208214
 50
244.38424746985211
 51
304.38424747121132
  0
ARC
  5
23F
  8
0
 10
241.9582940632753
 20
126.488780971194
 30
0.0
 40
22.928203228139491
 50
252.41204622431411
 51
287.58795377568589
  0
LINE
  5
240
  8
0
 10
228.1018876027241
 20
114.9114307040641
 30
0.0
 11
228.1018876027241
 21
104.6323745128711
 31
0.0
  0
LINE
  5
241
  8
0
 10
235.03009083299989
 20
114.9114307040641
 30
0.0
 11
235.03009083299989
 21
104.6323745128838
 31
0.0
  0
LINE
  5
242
  8
0
 10
248.8864972935506
 20
114.9114307040641
 30
0.0
 11
248.8864972935506
 21
104.6323745128838
 31
0.0
  0
LINE
  5
243
  8
0
 10
255.81470052382639
 20
114.9114307040641
 30
0.0
 11
255.81470052382639
 21
104.6323745128711
 31
0.0
  0
ARC
  5
244
  8
0
 10
252.3505989086888
 20
109.6945523387753
 30
0.0
 40
6.1339745957208214
 50
235.6157525287887
 51
295.61575253014792
  0
LINE
  5
245
  8
0
 10
255.8147005238483
 20
104.6323745128838
 30
0.0
 11
253.4582940631675
 21
103.2719026084896
 31
0.0
  0
LINE
  5
246
  8
0
 10
255.8147005238483
 20
114.9114307040641
 30
0.0
 11
253.4582940631675
 21
116.2719026084583
 31
0.0
  0
ARC
  5
247
  8
0
 10
252.3505989086888
 20
109.84925287817261
 30
0.0
 40
6.1339745957208214
 50
64.384247469849129
 51
124.3842474712113
  0
LINE
  5
248
  8
0
 10
230.4582940632753
 20
116.2719026084583
 30
0.0
 11
253.4582940631675
 21
116.2719026084583
 31
0.0
  0
LINE
  5
249
  8
0
 10
253.4582940631675
 20
103.2719026084896
 30
0.0
 11
230.45829406338311
 21
103.2719026084896
 31
0.0
  0
LINE
  5
24A
  8
0
 10
233.9582940632213
 20
116.2719026084317
 30
0.0
 11
233.95829406322139
 21
166.27190260847641
 31
0.0
  0
LINE
  5
24B
  8
3
 10
235.0407940632214
 20
116.27190260843339
 30
0.0
 11
235.0407940632214
 21
167.35440260847631
 31
0.0
  0
LINE
  5
24C
  8
0
 10
249.95829406322139
 20
116.2719026084583
 30
0.0
 11
249.95829406322139
 21
166.27190260847621
 31
0.0
  0
LINE
  5
24D
  8
3
 10
248.87579406322141
 20
116.2719026084565
 30
0.0
 11
248.87579406322141
 21
167.35440260847619
 31
0.0
  0
LINE
  5
24E
  8
2
 10
237.9582940632196
 20
160.2719026084763
 30
0.0
 11
245.95829405996349
 21
160.27190260847621
 31
0.0
  0
LINE
  5
24F
  8
2
 10
237.9582940632194
 20
168.2719026084763
 30
0.0
 11
237.9582940632196
 21
160.2719026084763
 31
0.0
  0
LINE
  5
250
  8
2
 10
241.95829406322139
 20
168.2719026084763
 30
0.0
 11
241.95829406322139
 21
160.2719026084763
 31
0.0
  0
LINE
  5
251
  8
2
 10
245.95829405996361
 20
168.2719026084763
 30
0.0
 11
245.95829405996361
 21
160.2719026084763
 31
0.0
  0
LINE
  5
252
  8
0
 10
235.95829406322139
 20
168.27190260847641
 30
0.0
 11
247.95829406322139
 21
168.27190260847621
 31
0.0
  0
LINE
  5
253
  8
0
 10
249.95829406322139
 20
58.206093295349312
 30
0.0
 11
249.95829406322139
 21
60.271898905537462
 31
0.0
  0
LINE
  5
254
  8
3
 10
248.87579406322141
 20
57.12359329534933
 30
0.0
 11
248.87579406322141
 21
61.354398905537323
 31
0.0
  0
LINE
  5
255
  8
3
 10
235.04079406322131
 20
57.123593295349792
 30
0.0
 11
235.0407940632214
 21
61.35439890553652
 31
0.0
  0
LINE
  5
256
  8
0
 10
233.95829406322139
 20
166.27190260847641
 30
0.0
 11
235.95829406322139
 21
168.27190260847641
 31
0.0
  0
LINE
  5
257
  8
0
 10
247.95829406322139
 20
168.27190260847621
 30
0.0
 11
249.95829406322139
 21
166.27190260847621
 31
0.0
  0
LINE
  5
258
  8
0
 10
249.95829406322139
 20
166.27190260847621
 30
0.0
 11
233.95829406322139
 21
166.27190260847641
 31
0.0
  0
LINE
  5
259
  8
0
 10
235.9582940632215
 20
68.271902608476353
 30
0.0
 11
235.95829406322139
 21
62.271898905536538
 31
0.0
  0
LINE
  5
25A
  8
0
 10
233.95829406322159
 20
58.206093295349547
 30
0.0
 11
249.9582940632215
 21
58.206093295349547
 31
0.0
  0
LINE
  5
25B
  8
0
 10
235.95829406322139
 20
68.271902608476466
 30
0.0
 11
233.9582940632213
 21
70.271902608476353
 31
0.0
  0
LINE
  5
25C
  8
0
 10
235.95829406322139
 20
62.271898905536538
 30
0.0
 11
233.9582940632213
 21
60.271898905536773
 31
0.0
  0
LINE
  5
25D
  8
0
 10
233.9582940632213
 20
70.271902608476353
 30
0.0
 11
233.9582940632213
 21
103.2719026084896
 31
0.0
  0
LINE
  5
25E
  8
3
 10
235.0407940632214
 20
69.189402608476485
 30
0.0
 11
235.0407940632214
 21
103.27190260848781
 31
0.0
  0
LINE
  5
25F
  8
0
 10
233.9582940632213
 20
60.271898905536773
 30
0.0
 11
233.95829406322159
 21
58.206093295349547
 31
0.0
  0
LINE
  5
260
  8
0
 10
247.9582940632221
 20
62.271898905536538
 30
0.0
 11
249.9582940632221
 21
60.271898905536773
 31
0.0
  0
LINE
  5
261
  8
0
 10
247.9582940632221
 20
68.271902608476466
 30
0.0
 11
249.9582940632221
 21
70.271902608476353
 31
0.0
  0
LINE
  5
262
  8
0
 10
247.9582940632219
 20
68.271902608476353
 30
0.0
 11
247.9582940632221
 21
62.271898905536538
 31
0.0
  0
LINE
  5
263
  8
0
 10
249.95829406322139
 20
70.271902608475557
 30
0.0
 11
249.95829406322139
 21
103.27190260846299
 31
0.0
  0
LINE
  5
264
  8
3
 10
248.87579406322141
 20
69.189402608475802
 30
0.0
 11
248.87579406322141
 21
103.2719026084647
 31
0.0
  0
LINE
  5
265
  8
2
 10
237.9582940632196
 20
160.2719026084763
 30
0.0
 11
241.95829406322139
 21
157.6052359439804
 31
0.0
  0
LINE
  5
266
  8
2
 10
241.95829406322139
 20
157.6052359439804
 30
0.0
 11
245.95829405996361
 21
160.2719026084763
 31
0.0
  0
LINE
  5
267
  8
1
 10
241.9582940632217
 20
178.70609329534989
 30
0.0
 11
241.9582940632217
 21
26.27190260847647
 31
0.0
1001
GENIUS_GENOBJ-N-CEN_13
1002
{
1000
OWNER
1000
GEN
1002
}
1001
GENIUS_GENODEF_13
1002
{
1000
HIER
1070
     0
1002
}
1002
{
1000
MANEDIT
1070
     0
1002
}
1002
{
1000
NOSEL
1070
     0
1002
}
1002
{
1000
BEHIND
1070
     0
1002
}
1002
{
1000
OTHER
1070
     0
1002
}
1002
{
1000
REACTOR
1002
}
  0
LINE
  5
268
  8
0
 10
210.9582940632217
 20
54.27190260847658
 30
0.0
 11
272.9582940632219
 21
54.271902608476353
 31
0.0
  0
LINE
  5
269
  8
0
 10
201.9582940632217
 20
41.271902608476474
 30
0.0
 11
281.95829406322179
 21
41.271902608476474
 31
0.0
  0
ARC
  5
26A
  8
0
 10
232.0843154239021
 20
56.771902608476459
 30
0.0
 40
2.5
 50
270.0
 51
322.17787633106042
1001
GENIUS_GENODEF_13
1002
{
1000
HIER
1070
     0
1002
}
1002
{
1000
MANEDIT
1070
     0
1002
}
1002
{
1000
NOSEL
1070
     0
1002
}
1002
{
1000
BEHIND
1070
     0
1002
}
1002
{
1000
OTHER
1070
     0
1002
}
1002
{
1000
REACTOR
1002
}
1001
GENIUS_GENOBJ-N-FIL_13
1002
{
1000
OWNER
1000
GEN
1002
}
  0
ARC
  5
26B
  8
0
 10
210.9582940632217
 20
45.271902608476907
 30
0.0
 40
9.0
 50
89.999999999996746
 51
180.0
1001
GENIUS_GENOBJ-N-FIL_13
1002
{
1000
OWNER
1000
GEN
1002
}
1001
GENIUS_GENODEF_13
1002
{
1000
HIER
1070
     0
1002
}
1002
{
1000
MANEDIT
1070
     0
1002
}
1002
{
1000
NOSEL
1070
     0
1002
}
1002
{
1000
BEHIND
1070
     0
1002
}
1002
{
1000
OTHER
1070
     0
1002
}
1002
{
1000
REACTOR
1002
}
  0
LINE
  5
26C
  8
0
 10
201.9582940632217
 20
45.271902608476907
 30
0.0
 11
201.9582940632217
 21
41.271902608476474
 31
0.0
  0
ARC
  5
26D
  8
0
 10
241.9582940632217
 20
49.106751218564462
 30
0.0
 40
10.00000000000027
 50
37.822123668939611
 51
49.458398126492682
  0
LINE
  5
26E
  8
0
 10
248.45829406322181
 20
56.70609329534966
 30
0.0
 11
249.9582940632217
 21
58.20609329534966
 31
0.0
  0
LINE
  5
26F
  8
0
 10
235.4582940632215
 20
56.706093295350001
 30
0.0
 11
248.45829406322221
 21
56.706093295350001
 31
0.0
  0
LINE
  5
270
  8
0
 10
235.4582940632217
 20
56.70609329534966
 30
0.0
 11
233.95829406322181
 21
58.20609329534966
 31
0.0
  0
ARC
  5
271
  8
0
 10
241.9582940632217
 20
49.106751218564462
 30
0.0
 40
10.00000000000027
 50
130.54160187350729
 51
142.1778763310603
  0
ARC
  5
272
  8
0
 10
251.83227270254159
 20
56.771902608476132
 30
0.0
 40
2.5
 50
217.82212366893251
 51
269.99999999999682
1001
GENIUS_GENODEF_13
1002
{
1000
HIER
1070
     0
1002
}
1002
{
1000
MANEDIT
1070
     0
1002
}
1002
{
1000
NOSEL
1070
     0
1002
}
1002
{
1000
BEHIND
1070
     0
1002
}
1002
{
1000
OTHER
1070
     0
1002
}
1002
{
1000
REACTOR
1002
}
1001
GENIUS_GENOBJ-N-FIL_13
1002
{
1000
OWNER
1000
GEN
1002
}
  0
ARC
  5
273
  8
0
 10
272.9582940632219
 20
45.271902608476459
 30
0.0
 40
9.0
 50
0.0
 51
90.0
1001
GENIUS_GENOBJ-N-FIL_13
1002
{
1000
OWNER
1000
GEN
1002
}
1001
GENIUS_GENODEF_13
1002
{
1000
HIER
1070
     0
1002
}
1002
{
1000
MANEDIT
1070
     0
1002
}
1002
{
1000
NOSEL
1070
     0
1002
}
1002
{
1000
BEHIND
1070
     0
1002
}
1002
{
1000
OTHER
1070
     0
1002
}
1002
{
1000
REACTOR
1002
}
  0
LINE
  5
274
  8
0
 10
281.95829406322179
 20
45.271902608476459
 30
0.0
 11
281.95829406322179
 21
41.271902608476474
 31
0.0
  0
LINE
  5
275
  8
0
 10
248.4582940632221
 20
56.70609329534954
 30
0.0
 11
249.9582940632221
 21
58.206093295349547
 31
0.0
  0
LINE
  5
276
  8
0
 10
235.4582940632221
 20
56.70609329534954
 30
0.0
 11
233.9582940632221
 21
58.206093295349547
 31
0.0
  0
LINE
  5
277
  8
0
 10
85.45829406322207
 20
56.70609329534954
 30
0.0
 11
83.958294063222056
 21
58.206093295349547
 31
0.0
  0
LINE
  5
278
  8
0
 10
98.458294063222084
 20
56.70609329534954
 30
0.0
 11
99.958294063222084
 21
58.206093295349547
 31
0.0
  0
LINE
  5
279
  8
0
 10
83.958294063221828
 20
116.2719026084316
 30
0.0
 11
83.958294063221828
 21
166.27190260847641
 31
0.0
  0
LINE
  5
27A
  8
3
 10
85.040794063221824
 20
116.27190260843329
 30
0.0
 11
85.040794063221824
 21
167.35440260847619
 31
0.0
  0
LINE
  5
27B
  8
0
 10
99.958294063221857
 20
116.2719026084583
 30
0.0
 11
99.958294063221857
 21
166.27190260847621
 31
0.0
  0
LINE
  5
27C
  8
3
 10
98.875794063221875
 20
116.2719026084565
 30
0.0
 11
98.875794063221974
 21
167.35440260847619
 31
0.0
  0
LINE
  5
27D
  8
0
 10
103.4582940632631
 20
103.2719026084569
 30
0.0
 11
80.458294063196718
 21
103.2719026084953
 31
0.0
  0
LINE
  5
27E
  8
0
 10
80.458294063188646
 20
116.2719026084258
 30
0.0
 11
103.458294063255
 21
116.2719026084642
 31
0.0
  0
ARC
  5
27F
  8
0
 10
85.958294063255039
 20
98.653100456527525
 30
0.0
 40
17.330127017333279
 50
69.743841997639166
 51
110.25615800236081
  0
LINE
  5
280
  8
0
 10
79.958294063240032
 20
115.98322747386079
 30
0.0
 11
80.458294063255039
 21
116.2719026084642
 31
0.0
  0
LINE
  5
281
  8
0
 10
79.958294063248104
 20
103.56057774306031
 30
0.0
 11
80.458294063263097
 21
103.2719026084569
 31
0.0
  0
ARC
  5
282
  8
0
 10
85.958294063263111
 20
120.8907047603936
 30
0.0
 40
17.330127017333279
 50
249.74384199763921
 51
290.25615800236091
  0
LINE
  5
283
  8
0
 10
79.958294063240032
 20
115.98322747386079
 30
0.0
 11
79.958294063263111
 21
103.5605777430516
 31
0.0
  0
LINE
  5
284
  8
0
 10
91.958294063263111
 20
104.6323745128895
 30
0.0
 11
91.958294063255039
 21
114.9114307040316
 31
0.0
  0
LINE
  5
285
  8
0
 10
103.95829406327
 20
115.98322747386079
 30
0.0
 11
103.9582940632631
 21
103.5605777430516
 31
0.0
  0
ARC
  5
286
  8
0
 10
97.958294063263125
 20
120.8907047603936
 30
0.0
 40
17.330127017333279
 50
249.74384199763921
 51
290.25615800236091
  0
LINE
  5
287
  8
0
 10
103.9582940632781
 20
103.56057774306031
 30
0.0
 11
103.4582940632631
 21
103.2719026084569
 31
0.0
  0
LINE
  5
288
  8
0
 10
103.95829406327
 20
115.98322747386079
 30
0.0
 11
103.458294063255
 21
116.2719026084642
 31
0.0
  0
ARC
  5
289
  8
0
 10
97.958294063255039
 20
98.653100456527525
 30
0.0
 40
17.330127017333279
 50
69.743841997639166
 51
110.25615800236081
  0
LINE
  5
28A
  8
2
 10
87.339491913464826
 20
160.27190260847621
 30
0.0
 11
96.577096212978972
 21
160.27190260847621
 31
0.0
  0
LINE
  5
28B
  8
2
 10
87.339491913464713
 20
168.27190260847621
 30
0.0
 11
87.339491913464826
 21
160.27190260847621
 31
0.0
  0
LINE
  5
28C
  8
2
 10
89.648892988344414
 20
168.27190260847621
 30
0.0
 11
89.648892988344414
 21
160.27190260847621
 31
0.0
  0
LINE
  5
28D
  8
2
 10
87.339491913464826
 20
160.27190260847621
 30
0.0
 11
91.958294063221956
 21
157.6052359439804
 31
0.0
  0
LINE
  5
28E
  8
2
 10
94.267695138099384
 20
168.27190260847621
 30
0.0
 11
94.267695138099384
 21
160.27190260847621
 31
0.0
  0
LINE
  5
28F
  8
2
 10
96.577096212978972
 20
168.27190260847621
 30
0.0
 11
96.577096212978972
 21
160.27190260847621
 31
0.0
  0
LINE
  5
290
  8
2
 10
96.577096212978972
 20
160.27190260847621
 30
0.0
 11
91.958294063221842
 21
157.6052359439804
 31
0.0
  0
LINE
  5
291
  8
0
 10
85.958294063221842
 20
168.27190260847641
 30
0.0
 11
97.958294063221842
 21
168.27190260847621
 31
0.0
  0
LINE
  5
292
  8
0
 10
99.958294063221857
 20
58.206093295349312
 30
0.0
 11
99.958294063221857
 21
103.2719026084629
 31
0.0
  0
LINE
  5
293
  8
3
 10
98.875794063221875
 20
57.12359329534933
 30
0.0
 11
98.875794063221875
 21
103.2719026084646
 31
0.0
  0
LINE
  5
294
  8
3
 10
85.040794063221824
 20
57.123593295349792
 30
0.0
 11
85.040794063221824
 21
103.27190260848781
 31
0.0
  0
LINE
  5
295
  8
0
 10
83.958294063221828
 20
58.206093295349781
 30
0.0
 11
83.958294063221828
 21
103.2719026084896
 31
0.0
  0
LINE
  5
296
  8
0
 10
83.958294063221828
 20
166.27190260847641
 30
0.0
 11
85.958294063221842
 21
168.27190260847641
 31
0.0
  0
LINE
  5
297
  8
0
 10
97.958294063221842
 20
168.27190260847621
 30
0.0
 11
99.958294063221857
 21
166.27190260847621
 31
0.0
  0
LINE
  5
298
  8
0
 10
99.958294063221857
 20
166.27190260847621
 30
0.0
 11
83.958294063221828
 21
166.27190260847641
 31
0.0
  0
LINE
  5
299
  8
0
 10
97.958294063221729
 20
67.563405230605667
 30
0.0
 11
97.958294063221842
 21
62.980396283407572
 31
0.0
  0
LINE
  5
29A
  8
0
 10
97.249796685351043
 20
68.271902608476239
 30
0.0
 11
97.249796685351043
 21
62.271898905536538
 31
0.0
  0
LINE
  5
29B
  8
0
 10
97.249796685351157
 20
62.271898905536773
 30
0.0
 11
97.958294063221842
 21
62.980396283407572
 31
0.0
  0
LINE
  5
29C
  8
0
 10
97.24979668535093
 20
68.271902608476239
 30
0.0
 11
97.958294063221729
 21
67.563405230605667
 31
0.0
  0
LINE
  5
29D
  8
0
 10
86.666791441092514
 20
62.271898905536538
 30
0.0
 11
86.666791441092514
 21
68.271902608476239
 31
0.0
  0
LINE
  5
29E
  8
0
 10
85.958294063221956
 20
67.563405230605667
 30
0.0
 11
85.958294063221842
 21
62.980396283407352
 31
0.0
  0
LINE
  5
29F
  8
0
 10
86.666791441092514
 20
62.271898905536773
 30
0.0
 11
85.958294063221842
 21
62.980396283407352
 31
0.0
  0
LINE
  5
2A0
  8
0
 10
86.666791441092656
 20
68.271902608476239
 30
0.0
 11
85.958294063221956
 21
67.563405230605667
 31
0.0
  0
LINE
  5
2A1
  8
0
 10
83.958294063222056
 20
58.206093295349547
 30
0.0
 11
99.958294063222084
 21
58.206093295349547
 31
0.0
  0
LINE
  5
2A2
  8
0
 10
97.249796685351043
 20
62.271898905536538
 30
0.0
 11
86.666791441092514
 21
62.271898905536538
 31
0.0
  0
ARC
  5
2A3
  8
0
 10
91.958294063221842
 20
68.271898905536773
 30
0.0
 40
8.0000000000000622
 50
228.5903778907302
 51
311.40962210926978
  0
LINE
  5
2A4
  8
0
 10
86.666791441092514
 20
68.271902608476239
 30
0.0
 11
97.249796685351043
 21
68.271902608476239
 31
0.0
  0
ARC
  5
2A5
  8
0
 10
91.958294063221842
 20
62.271902608476239
 30
0.0
 40
8.0000000000000853
 50
48.590377890730252
 51
131.40962210926969
  0
LINE
  5
2A6
  8
0
 10
87.339491913465807
 20
278.70609329534813
 30
0.0
 11
89.648892990223487
 21
282.70609329534813
 31
0.0
  0
LINE
  5
2A7
  8
0
 10
89.648892988342197
 20
274.70609329860412
 30
0.0
 11
87.339491911583139
 21
278.70609329860412
 31
0.0
  0
LINE
  5
2A8
  8
0
 10
94.2676951380991
 20
274.70609329860412
 30
0.0
 11
89.648892984582346
 21
274.70609329860412
 31
0.0
  0
LINE
  5
2A9
  8
0
 10
96.577096212977779
 20
278.70609329534813
 30
0.0
 11
94.267695136220084
 21
274.70609329534801
 31
0.0
  0
LINE
  5
2AA
  8
0
 10
94.267695138101374
 20
282.70609329208838
 30
0.0
 11
96.577096214860433
 21
278.70609329209208
 31
0.0
  0
LINE
  5
2AB
  8
0
 10
89.648892988341743
 20
282.70609329209208
 30
0.0
 11
94.267695141858496
 21
282.70609329209208
 31
0.0
  0
CIRCLE
  5
2AC
  8
3
 10
91.958294063221729
 20
278.70609329534989
 30
0.0
 40
6.9175000000000004
  0
CIRCLE
  5
2AD
  8
0
 10
91.958294063221729
 20
278.70609329534989
 30
0.0
 40
8.0
  0
LINE
  5
2AE
  8
0
 10
103.9582940632217
 20
271.7778900650743
 30
0.0
 11
103.9582940632217
 21
285.63429652562519
 31
0.0
  0
LINE
  5
2AF
  8
0
 10
103.9582940632217
 20
285.63429652562519
 30
0.0
 11
91.958294063221729
 21
292.56249975590077
 31
0.0
  0
LINE
  5
2B0
  8
0
 10
91.958294063221729
 20
292.56249975590077
 30
0.0
 11
79.958294063221715
 21
285.63429652562519
 31
0.0
  0
LINE
  5
2B1
  8
0
 10
79.958294063221715
 20
285.63429652562519
 30
0.0
 11
79.958294063221715
 21
271.7778900650743
 31
0.0
  0
LINE
  5
2B2
  8
0
 10
79.958294063221715
 20
271.7778900650743
 30
0.0
 11
91.958294063221729
 21
264.84968683479872
 31
0.0
  0
LINE
  5
2B3
  8
0
 10
91.958294063221729
 20
264.84968683479872
 30
0.0
 11
103.9582940632217
 21
271.7778900650743
 31
0.0
  0
CIRCLE
  5
2B4
  8
0
 10
91.958294063221729
 20
278.70609329534989
 30
0.0
 40
11.5
  0
LINE
  5
2B5
  8
1
 10
91.958294063221729
 20
228.70609329534989
 30
0.0
 11
91.958294063221729
 21
328.70609329535
 31
0.0
1001
GENIUS_GENOREF_13
1005
0
  0
LINE
  5
2B6
  8
1
 10
41.958294063221729
 20
278.70609329534989
 30
0.0
 11
141.9582940632217
 21
278.70609329534989
 31
0.0
1001
GENIUS_GENOREF_13
1005
0
  0
CIRCLE
  5
2B7
  8
0
 10
91.958294063221729
 20
278.70609329534989
 30
0.0
 40
40.0
  0
LINE
  5
2B8
  8
0
 10
131.95829406322181
 20
45.271902608476459
 30
0.0
 11
131.95829406322181
 21
41.271902608476474
 31
0.0
  0
ARC
  5
2B9
  8
0
 10
122.9582940632219
 20
45.271902608476459
 30
0.0
 40
9.0
 50
0.0
 51
90.0
1001
GENIUS_GENOBJ-N-FIL_13
1002
{
1000
OWNER
1000
GEN
1002
}
1001
GENIUS_GENODEF_13
1002
{
1000
HIER
1070
     0
1002
}
1002
{
1000
MANEDIT
1070
     0
1002
}
1002
{
1000
NOSEL
1070
     0
1002
}
1002
{
1000
BEHIND
1070
     0
1002
}
1002
{
1000
OTHER
1070
     0
1002
}
1002
{
1000
REACTOR
1002
}
  0
ARC
  5
2BA
  8
0
 10
101.8322727025415
 20
56.771902608476132
 30
0.0
 40
2.5
 50
217.82212366893251
 51
269.99999999999682
1001
GENIUS_GENODEF_13
1002
{
1000
HIER
1070
     0
1002
}
1002
{
1000
MANEDIT
1070
     0
1002
}
1002
{
1000
NOSEL
1070
     0
1002
}
1002
{
1000
BEHIND
1070
     0
1002
}
1002
{
1000
OTHER
1070
     0
1002
}
1002
{
1000
REACTOR
1002
}
1001
GENIUS_GENOBJ-N-FIL_13
1002
{
1000
OWNER
1000
GEN
1002
}
  0
ARC
  5
2BB
  8
0
 10
91.958294063221729
 20
49.106751218564462
 30
0.0
 40
10.00000000000027
 50
130.54160187350729
 51
142.1778763310603
  0
LINE
  5
2BC
  8
0
 10
85.458294063221729
 20
56.70609329534966
 30
0.0
 11
83.958294063221828
 21
58.20609329534966
 31
0.0
  0
LINE
  5
2BD
  8
0
 10
85.458294063221501
 20
56.706093295350001
 30
0.0
 11
98.458294063222183
 21
56.706093295350001
 31
0.0
  0
LINE
  5
2BE
  8
0
 10
98.458294063221842
 20
56.70609329534966
 30
0.0
 11
99.958294063221715
 21
58.20609329534966
 31
0.0
  0
ARC
  5
2BF
  8
0
 10
91.958294063221786
 20
49.106751218564462
 30
0.0
 40
10.00000000000027
 50
37.822123668939611
 51
49.458398126492682
  0
LINE
  5
2C0
  8
0
 10
51.958294063221672
 20
45.271902608476907
 30
0.0
 11
51.958294063221672
 21
41.271902608476474
 31
0.0
  0
ARC
  5
2C1
  8
0
 10
60.958294063221672
 20
45.271902608476907
 30
0.0
 40
9.0
 50
89.999999999996746
 51
180.0
1001
GENIUS_GENOBJ-N-FIL_13
1002
{
1000
OWNER
1000
GEN
1002
}
1001
GENIUS_GENODEF_13
1002
{
1000
HIER
1070
     0
1002
}
1002
{
1000
MANEDIT
1070
     0
1002
}
1002
{
1000
NOSEL
1070
     0
1002
}
1002
{
1000
BEHIND
1070
     0
1002
}
1002
{
1000
OTHER
1070
     0
1002
}
1002
{
1000
REACTOR
1002
}
  0
ARC
  5
2C2
  8
0
 10
82.084315423902055
 20
56.771902608476459
 30
0.0
 40
2.5
 50
270.0
 51
322.17787633106042
1001
GENIUS_GENODEF_13
1002
{
1000
HIER
1070
     0
1002
}
1002
{
1000
MANEDIT
1070
     0
1002
}
1002
{
1000
NOSEL
1070
     0
1002
}
1002
{
1000
BEHIND
1070
     0
1002
}
1002
{
1000
OTHER
1070
     0
1002
}
1002
{
1000
REACTOR
1002
}
1001
GENIUS_GENOBJ-N-FIL_13
1002
{
1000
OWNER
1000
GEN
1002
}
  0
LINE
  5
2C3
  8
0
 10
53.958294063221729
 20
36.271902608476474
 30
0.0
 11
129.9582940632217
 21
36.27190260847658
 31
0.0
  0
LINE
  5
2C4
  8
0
 10
51.958294063221672
 20
41.271902608476474
 30
0.0
 11
131.95829406322181
 21
41.271902608476474
 31
0.0
  0
LINE
  5
2C5
  8
0
 10
60.958294063221672
 20
54.27190260847658
 30
0.0
 11
122.9582940632219
 21
54.271902608476353
 31
0.0
  0
LINE
  5
2C6
  8
1
 10
91.958294063221729
 20
178.70609329534989
 30
0.0
 11
91.958294063221729
 21
26.27190260847647
 31
0.0
1001
GENIUS_GENOBJ-N-CEN_13
1002
{
1000
OWNER
1000
GEN
1002
}
1001
GENIUS_GENODEF_13
1002
{
1000
HIER
1070
     0
1002
}
1002
{
1000
MANEDIT
1070
     0
1002
}
1002
{
1000
NOSEL
1070
     0
1002
}
1002
{
1000
BEHIND
1070
     0
1002
}
1002
{
1000
OTHER
1070
     0
1002
}
1002
{
1000
REACTOR
1002
}
  0
TEXT
  5
405
  8
0
 62
     3
 10
0.0
 20
0.0
 30
0.0
 40
10.0
  1
LMR80-16A-SUS
  7
STANDARD1
  0
ENDSEC
  0
EOF
