  0
SECTION
  2
HEADER
  9
$ACADVER
  1
AC1009
  9
$INSBASE
 10
0.0
 20
0.0
 30
0.0
  9
$EXTMIN
 10
0.0
 20
-2.960436562073669
 30
0.0
  9
$EXTMAX
 10
266.79657171850181
 20
301.43592365870671
 30
0.0
  9
$LIMMIN
 10
0.0
 20
0.0
  9
$LIMMAX
 10
187.5
 20
135.0
  9
$ORTHOMODE
 70
     1
  9
$REGENMODE
 70
     1
  9
$FILLMODE
 70
     1
  9
$QTEXTMODE
 70
     0
  9
$MIRRTEXT
 70
     0
  9
$DRAGMODE
 70
     2
  9
$LTSCALE
 40
10.0
  9
$OSMODE
 70
  3071
  9
$ATTMODE
 70
     1
  9
$TEXTSIZE
 40
0.2
  9
$TRACEWID
 40
0.05
  9
$TEXTSTYLE
  7
STANDARD
  9
$CLAYER
  8
0
  9
$CELTYPE
  6
BYLAYER
  9
$CECOLOR
 62
   256
  9
$DIMSCALE
 40
0.5
  9
$DIMASZ
 40
3.0
  9
$DIMEXO
 40
2.0
  9
$DIMDLI
 40
0.3799999999999999
  9
$DIMRND
 40
0.0
  9
$DIMDLE
 40
0.0
  9
$DIMEXE
 40
2.0
  9
$DIMTP
 40
0.0
  9
$DIMTM
 40
0.0
  9
$DIMTXT
 40
3.2000000000000002
  9
$DIMCEN
 40
0.09
  9
$DIMTSZ
 40
0.0
  9
$DIMTOL
 70
     0
  9
$DIMLIM
 70
     0
  9
$DIMTIH
 70
     0
  9
$DIMTOH
 70
     0
  9
$DIMSE1
 70
     0
  9
$DIMSE2
 70
     0
  9
$DIMTAD
 70
     1
  9
$DIMZIN
 70
     0
  9
$DIMBLK
  1

  9
$DIMASO
 70
     0
  9
$DIMSHO
 70
     0
  9
$DIMPOST
  1

  9
$DIMAPOST
  1

  9
$DIMALT
 70
     0
  9
$DIMALTD
 70
     2
  9
$DIMALTF
 40
25.399999999999999
  9
$DIMLFAC
 40
1.0
  9
$DIMTOFL
 70
     0
  9
$DIMTVP
 40
1.6000000000000001
  9
$DIMTIX
 70
     1
  9
$DIMSOXD
 70
     0
  9
$DIMSAH
 70
     0
  9
$DIMBLK1
  1

  9
$DIMBLK2
  1

  9
$DIMSTYLE
  2
STANDARD
  9
$DIMCLRD
 70
     0
  9
$DIMCLRE
 70
     0
  9
$DIMCLRT
 70
     0
  9
$DIMTFAC
 40
1.0
  9
$DIMGAP
 40
0.09
  9
$LUNITS
 70
     2
  9
$LUPREC
 70
     4
  9
$SKETCHINC
 40
0.1
  9
$FILLETRAD
 40
0.4
  9
$AUNITS
 70
     0
  9
$AUPREC
 70
     0
  9
$MENU
  1
E:\r13\win\SUPPORT\ACAD
  9
$ELEVATION
 40
0.0
  9
$PELEVATION
 40
0.0
  9
$THICKNESS
 40
0.0
  9
$LIMCHECK
 70
     0
  9
$BLIPMODE
 70
     0
  9
$CHAMFERA
 40
0.0
  9
$CHAMFERB
 40
0.0
  9
$SKPOLY
 70
     0
  9
$TDCREATE
 40
2451824.6906229062
  9
$TDUPDATE
 40
2456597.5875057061
  9
$TDINDWG
 40
0.0563706597
  9
$TDUSRTIMER
 40
0.0563706597
  9
$USRTIMER
 70
     1
  9
$ANGBASE
 50
0.0
  9
$ANGDIR
 70
     0
  9
$PDMODE
 70
     0
  9
$PDSIZE
 40
0.0
  9
$PLINEWID
 40
0.0
  9
$COORDS
 70
     1
  9
$SPLFRAME
 70
     0
  9
$SPLINETYPE
 70
     6
  9
$SPLINESEGS
 70
     8
  9
$ATTDIA
 70
     0
  9
$ATTREQ
 70
     1
  9
$HANDLING
 70
     1
  9
$HANDSEED
  5
3C7
  9
$SURFTAB1
 70
     6
  9
$SURFTAB2
 70
     6
  9
$SURFTYPE
 70
     6
  9
$SURFU
 70
     6
  9
$SURFV
 70
     6
  9
$UCSNAME
  2

  9
$UCSORG
 10
0.0
 20
0.0
 30
0.0
  9
$UCSXDIR
 10
1.0
 20
0.0
 30
0.0
  9
$UCSYDIR
 10
0.0
 20
1.0
 30
0.0
  9
$PUCSNAME
  2

  9
$PUCSORG
 10
0.0
 20
0.0
 30
0.0
  9
$PUCSXDIR
 10
1.0
 20
0.0
 30
0.0
  9
$PUCSYDIR
 10
0.0
 20
1.0
 30
0.0
  9
$USERI1
 70
     0
  9
$USERI2
 70
     1
  9
$USERI3
 70
     0
  9
$USERI4
 70
     0
  9
$USERI5
 70
     0
  9
$USERR1
 40
0.0
  9
$USERR2
 40
0.0
  9
$USERR3
 40
0.0
  9
$USERR4
 40
0.0
  9
$USERR5
 40
0.0
  9
$WORLDVIEW
 70
     1
  9
$SHADEDGE
 70
     3
  9
$SHADEDIF
 70
    70
  9
$TILEMODE
 70
     1
  9
$MAXACTVP
 70
    16
  9
$PLIMCHECK
 70
     0
  9
$PEXTMIN
 10
1.0000000000000000E+020
 20
1.0000000000000000E+020
 30
1.0000000000000000E+020
  9
$PEXTMAX
 10
-1.0000000000000000E+020
 20
-1.0000000000000000E+020
 30
-1.0000000000000000E+020
  9
$PLIMMIN
 10
0.0
 20
0.0
  9
$PLIMMAX
 10
12.0
 20
9.0
  9
$UNITMODE
 70
     0
  9
$VISRETAIN
 70
     0
  9
$PLINEGEN
 70
     0
  9
$PSLTSCALE
 70
     0
  0
ENDSEC
  0
SECTION
  2
TABLES
  0
TABLE
  2
VPORT
 70
     1
  0
VPORT
  2
*ACTIVE
 70
     0
 10
0.0
 20
0.0
 11
1.0
 21
1.0
 12
133.3982864804351
 22
149.8936208786175
 13
0.0
 23
0.0
 14
5.0
 24
5.0
 15
5.0
 25
5.0
 16
0.0
 26
0.0
 36
1.0
 17
0.0
 27
0.0
 37
0.0
 40
309.23814670120947
 41
2.304913294797688
 42
50.0
 43
0.0
 44
0.0
 50
0.0
 51
0.0
 71
     0
 72
   500
 73
     1
 74
     0
 75
     0
 76
     0
 77
     0
 78
     2
  0
ENDTAB
  0
TABLE
  2
LTYPE
 70
     4
  0
LTYPE
  2
CONTINUOUS
 70
     0
  3
Solid Line
 72
    65
 73
     0
 40
0.0
  0
LTYPE
  2
CENTER
 70
     0
  3
____ _ ____ _ ____ _ ____ _ ____ _ ____ _ ____
 72
    65
 73
     4
 40
2.0
 49
1.25
 49
-0.25
 49
0.25
 49
-0.25
  0
LTYPE
  2
HIDDEN
 70
     0
  3
__ __ __ __ __ __ __ __ __ __ __ __ __ __ __ __
 72
    65
 73
     2
 40
0.375
 49
0.25
 49
-0.125
  0
LTYPE
  2
PHANTOM2
 70
     0
  3
___ _ _ ___ _ _ ___ _ _ ___ _ _
 72
    65
 73
     6
 40
1.25
 49
0.625
 49
-0.125
 49
0.125
 49
-0.125
 49
0.125
 49
-0.125
  0
ENDTAB
  0
TABLE
  2
LAYER
 70
     4
  0
LAYER
  2
0
 70
     0
 62
     7
  6
CONTINUOUS
  0
LAYER
  2
1
 70
     0
 62
     1
  6
CENTER
  0
LAYER
  2
2
 70
     0
 62
     2
  6
HIDDEN
  0
LAYER
  2
3
 70
     0
 62
     3
  6
CONTINUOUS
  0
ENDTAB
  0
TABLE
  2
STYLE
 70
     2
  0
STYLE
  2
STANDARD
 70
     0
 40
0.0
 41
1.0
 50
0.0
 71
     0
 42
0.2
  3
TXT
  4
BIGFONT
  0
STYLE
  2
STANDARD1
 70
     0
 40
0.0
 41
1.0
 50
0.0
 71
     0
 42
3.0
  3
txt
  4

  0
ENDTAB
  0
TABLE
  2
VIEW
 70
     0
  0
ENDTAB
  0
TABLE
  2
UCS
 70
     0
  0
ENDTAB
  0
TABLE
  2
APPID
 70
     8
  0
APPID
  2
ACAD
 70
     0
  0
APPID
  2
GENIUS_GENODEF_13
 70
     0
  0
APPID
  2
GENIUS_GENOREF_13
 70
     0
  0
APPID
  2
GENIUS_GENOBJ-N-CEN_13
 70
     0
  0
APPID
  2
GENIUS_GENOBJ-N-FIL_13
 70
     0
  0
APPID
  2
ACAD_EXEMPT_FROM_CAD_STANDARDS
 70
     0
  0
APPID
  2
ACAD_MLEADERVER
 70
     0
  0
APPID
  2
ACAD_NAV_VCDISPLAY
 70
     0
  0
ENDTAB
  0
TABLE
  2
DIMSTYLE
 70
     1
  0
DIMSTYLE
  2
STANDARD
 70
     0
  3

  4

  5

  6

  7

 40
1.0
 41
0.18
 42
0.0625
 43
0.38
 44
0.18
 45
0.0
 46
0.0
 47
0.0
 48
0.0
140
0.18
141
0.09
142
0.0
143
25.399999999999999
144
1.0
145
0.0
146
1.0
147
0.09
 71
     0
 72
     0
 73
     1
 74
     1
 75
     0
 76
     0
 77
     0
 78
     0
170
     0
171
     2
172
     0
173
     0
174
     0
175
     0
176
     0
177
     0
178
     0
  0
ENDTAB
  0
ENDSEC
  0
SECTION
  2
BLOCKS
  0
BLOCK
  8
0
  2
$MODEL_SPACE
 70
     0
 10
0.0
 20
0.0
 30
0.0
  3
$MODEL_SPACE
  1

  0
ENDBLK
  5
9
  8
0
  0
BLOCK
 67
     1
  8
0
  2
$PAPER_SPACE
 70
     0
 10
0.0
 20
0.0
 30
0.0
  3
$PAPER_SPACE
  1

  0
ENDBLK
  5
E
 67
     1
  8
0
  0
ENDSEC
  0
SECTION
  2
ENTITIES
  0
CIRCLE
  5
19D
  8
0
 10
106.7965717185016
 20
261.43592365870671
 30
0.0
 40
22.000000000000249
  0
LINE
  5
19E
  8
0
 10
77.296571718501468
 20
35.435923658706599
 30
0.0
 11
78.296571718501582
 21
31.435923658706709
 31
0.0
  0
LINE
  5
19F
  8
0
 10
135.29657171850161
 20
31.435923658706709
 30
0.0
 11
78.296571718501582
 21
31.435923658706709
 31
0.0
1001
ACAD
1000
ASC_BOUNDS
1002
{
1070
    19
1005
0
1005
0
1002
}
  0
LINE
  5
1A0
  8
0
 10
135.29657171850161
 20
31.435923658706709
 30
0.0
 11
136.2965717185015
 21
35.435923658706372
 31
0.0
  0
LINE
  5
1A1
  8
0
 10
207.29657171850141
 20
35.435923658706663
 30
0.0
 11
208.2965717185015
 21
31.43592365870677
 31
0.0
  0
LINE
  5
1A2
  8
0
 10
265.29657171850158
 20
31.43592365870677
 30
0.0
 11
266.29657171850153
 21
35.435923658706429
 31
0.0
  0
LINE
  5
1A3
  8
2
 10
236.79657171850161
 20
150.76925699421091
 30
0.0
 11
240.79657171524369
 21
153.43592365870671
 31
0.0
  0
LINE
  5
1A4
  8
2
 10
232.79657171849971
 20
153.43592365870671
 30
0.0
 11
236.79657171850161
 21
150.76925699421091
 31
0.0
  0
LINE
  5
1A5
  8
3
 10
243.7140717185016
 20
62.353423658706213
 30
0.0
 11
243.7140717185016
 21
96.435923658695174
 31
0.0
  0
LINE
  5
1A6
  8
0
 10
244.79657171850161
 20
63.435923658706031
 30
0.0
 11
244.79657171850161
 21
96.435923658693412
 31
0.0
  0
LINE
  5
1A7
  8
0
 10
242.79657171850209
 20
61.43592365870677
 30
0.0
 11
242.79657171850221
 21
55.435919955766963
 31
0.0
  0
LINE
  5
1A8
  8
0
 10
242.79657171850221
 20
61.435923658706884
 30
0.0
 11
244.79657171850229
 21
63.435923658706763
 31
0.0
  0
LINE
  5
1A9
  8
0
 10
242.79657171850221
 20
55.435919955767019
 30
0.0
 11
244.79657171850229
 21
53.435919955767133
 31
0.0
  0
LINE
  5
1AA
  8
0
 10
228.7965717185015
 20
53.435919955767133
 30
0.0
 11
228.79657171850181
 21
51.370114345579957
 31
0.0
  0
LINE
  5
1AB
  8
3
 10
229.87907171850151
 20
62.353423658706852
 30
0.0
 11
229.87907171850151
 21
96.435923658718252
 31
0.0
  0
LINE
  5
1AC
  8
0
 10
228.7965717185015
 20
63.435923658706763
 30
0.0
 11
228.7965717185015
 21
96.435923658720085
 31
0.0
  0
LINE
  5
1AD
  8
0
 10
230.79657171850161
 20
55.435919955767019
 30
0.0
 11
228.7965717185015
 21
53.435919955767133
 31
0.0
  0
LINE
  5
1AE
  8
0
 10
230.79657171850161
 20
61.435923658706884
 30
0.0
 11
228.7965717185015
 21
63.435923658706763
 31
0.0
  0
LINE
  5
1AF
  8
1
 10
236.79657171850161
 20
171.4359236587066
 30
0.0
 11
236.79657171850161
 21
21.435923658706709
 31
0.0
1001
GENIUS_GENOBJ-N-CEN_13
1002
{
1000
OWNER
1000
GEN
1002
}
1001
GENIUS_GENODEF_13
1002
{
1000
HIER
1070
     0
1002
}
1002
{
1000
MANEDIT
1070
     0
1002
}
1002
{
1000
NOSEL
1070
     0
1002
}
1002
{
1000
BEHIND
1070
     0
1002
}
1002
{
1000
OTHER
1070
     0
1002
}
1002
{
1000
REACTOR
1002
}
  0
LINE
  5
1B0
  8
0
 10
214.7965717185013
 20
47.435923658706649
 30
0.0
 11
258.79657171850181
 21
47.435923658706649
 31
0.0
  0
LINE
  5
1B1
  8
0
 10
206.7965717185015
 20
35.435923658706663
 30
0.0
 11
266.79657171850113
 21
35.435923658706663
 31
0.0
  0
LINE
  5
1B2
  8
0
 10
265.29657171850158
 20
31.43592365870677
 30
0.0
 11
208.2965717185015
 21
31.43592365870677
 31
0.0
1001
ACAD
1000
ASC_BOUNDS
1002
{
1070
    19
1005
0
1005
0
1002
}
  0
ARC
  5
1B3
  8
0
 10
214.7965717185013
 20
39.435923658706663
 30
0.0
 40
8.0
 50
90.0
 51
180.0
1001
GENIUS_GENOBJ-N-FIL_13
1002
{
1000
OWNER
1000
GEN
1002
}
1001
GENIUS_GENODEF_13
1002
{
1000
HIER
1070
     0
1002
}
1002
{
1000
MANEDIT
1070
     0
1002
}
1002
{
1000
NOSEL
1070
     0
1002
}
1002
{
1000
BEHIND
1070
     0
1002
}
1002
{
1000
OTHER
1070
     0
1002
}
1002
{
1000
REACTOR
1002
}
  0
LINE
  5
1B4
  8
0
 10
206.7965717185015
 20
35.435923658706663
 30
0.0
 11
206.79657171850141
 21
39.435923658706663
 31
0.0
  0
ARC
  5
1B5
  8
0
 10
258.79657171850181
 20
39.435923658706663
 30
0.0
 40
8.0
 50
0.0
 51
90.0
1001
GENIUS_GENOBJ-N-FIL_13
1002
{
1000
OWNER
1000
GEN
1002
}
1001
GENIUS_GENODEF_13
1002
{
1000
HIER
1070
     0
1002
}
1002
{
1000
MANEDIT
1070
     0
1002
}
1002
{
1000
NOSEL
1070
     0
1002
}
1002
{
1000
BEHIND
1070
     0
1002
}
1002
{
1000
OTHER
1070
     0
1002
}
1002
{
1000
REACTOR
1002
}
  0
LINE
  5
1B6
  8
0
 10
266.79657171850113
 20
35.435923658706663
 30
0.0
 11
266.79657171850113
 21
39.435923658706663
 31
0.0
  0
LINE
  5
1B7
  8
0
 10
228.79657171850181
 20
51.370114345579957
 30
0.0
 11
244.7965717185017
 21
51.370114345579957
 31
0.0
  0
LINE
  5
1B8
  8
0
 10
230.2965717185015
 20
49.870114345580411
 30
0.0
 11
243.29657171850229
 21
49.870114345580411
 31
0.0
  0
LINE
  5
1B9
  8
0
 10
230.2965717185017
 20
49.870114345579957
 30
0.0
 11
228.79657171850181
 21
51.370114345579957
 31
0.0
  0
ARC
  5
1BA
  8
0
 10
226.92259307918209
 20
49.935923658706649
 30
0.0
 40
2.5
 50
270.0
 51
322.17787633106042
1001
GENIUS_GENODEF_13
1002
{
1000
HIER
1070
     0
1002
}
1002
{
1000
MANEDIT
1070
     0
1002
}
1002
{
1000
NOSEL
1070
     0
1002
}
1002
{
1000
BEHIND
1070
     0
1002
}
1002
{
1000
OTHER
1070
     0
1002
}
1002
{
1000
REACTOR
1002
}
1001
GENIUS_GENOBJ-N-FIL_13
1002
{
1000
OWNER
1000
GEN
1002
}
  0
ARC
  5
1BB
  8
0
 10
236.7965717185017
 20
42.270772268794637
 30
0.0
 40
10.00000000000027
 50
130.5416018735074
 51
142.17787633106039
  0
LINE
  5
1BC
  8
0
 10
230.79657171850161
 20
61.43592365870677
 30
0.0
 11
230.79657171850161
 21
55.435919955766963
 31
0.0
  0
LINE
  5
1BD
  8
0
 10
243.29657171850181
 20
49.870114345579957
 30
0.0
 11
244.7965717185017
 21
51.370114345579957
 31
0.0
  0
ARC
  5
1BE
  8
0
 10
246.6705503578213
 20
49.935923658706649
 30
0.0
 40
2.5
 50
217.8221236689395
 51
270.0
1001
GENIUS_GENODEF_13
1002
{
1000
HIER
1070
     0
1002
}
1002
{
1000
MANEDIT
1070
     0
1002
}
1002
{
1000
NOSEL
1070
     0
1002
}
1002
{
1000
BEHIND
1070
     0
1002
}
1002
{
1000
OTHER
1070
     0
1002
}
1002
{
1000
REACTOR
1002
}
1001
GENIUS_GENOBJ-N-FIL_13
1002
{
1000
OWNER
1000
GEN
1002
}
  0
ARC
  5
1BF
  8
0
 10
236.7965717185017
 20
42.270772268794637
 30
0.0
 40
10.00000000000027
 50
37.822123668939547
 51
49.458398126492533
  0
LINE
  5
1C0
  8
0
 10
244.79657171850161
 20
159.4359236587066
 30
0.0
 11
228.79657171850161
 21
159.43592365870691
 31
0.0
  0
LINE
  5
1C1
  8
0
 10
242.79657171850161
 20
161.4359236587066
 30
0.0
 11
244.79657171850161
 21
159.4359236587066
 31
0.0
  0
LINE
  5
1C2
  8
0
 10
228.79657171850161
 20
159.43592365870691
 30
0.0
 11
230.79657171850161
 21
161.43592365870691
 31
0.0
  0
LINE
  5
1C3
  8
3
 10
229.87907171850151
 20
50.287614345580153
 30
0.0
 11
229.87907171850151
 21
54.518419955767001
 31
0.0
  0
LINE
  5
1C4
  8
3
 10
243.7140717185016
 20
50.287614345579748
 30
0.0
 11
243.7140717185016
 21
54.51841995576774
 31
0.0
  0
LINE
  5
1C5
  8
0
 10
244.79657171850161
 20
51.370114345579729
 30
0.0
 11
244.79657171850161
 21
53.435919955767808
 31
0.0
  0
LINE
  5
1C6
  8
0
 10
230.79657171850161
 20
161.43592365870691
 30
0.0
 11
242.79657171850161
 21
161.4359236587066
 31
0.0
  0
LINE
  5
1C7
  8
2
 10
240.7965717152438
 20
161.4359236587068
 30
0.0
 11
240.79657171524369
 21
153.43592365870671
 31
0.0
  0
LINE
  5
1C8
  8
2
 10
236.79657171850161
 20
161.4359236587068
 30
0.0
 11
236.79657171850161
 21
153.43592365870671
 31
0.0
  0
LINE
  5
1C9
  8
2
 10
232.79657171849971
 20
161.4359236587068
 30
0.0
 11
232.79657171849971
 21
153.43592365870671
 31
0.0
  0
LINE
  5
1CA
  8
2
 10
232.79657171849971
 20
153.43592365870671
 30
0.0
 11
240.79657171524369
 21
153.43592365870671
 31
0.0
  0
LINE
  5
1CB
  8
3
 10
243.7140717185016
 20
109.4359236586869
 30
0.0
 11
243.7140717185016
 21
160.51842365870661
 31
0.0
  0
LINE
  5
1CC
  8
0
 10
244.79657171850161
 20
109.43592365868869
 30
0.0
 11
244.79657171850161
 21
159.4359236587066
 31
0.0
  0
LINE
  5
1CD
  8
3
 10
229.87907171850151
 20
109.4359236586638
 30
0.0
 11
229.87907171850151
 21
160.51842365870669
 31
0.0
  0
LINE
  5
1CE
  8
0
 10
228.7965717185015
 20
109.43592365866201
 30
0.0
 11
228.79657171850161
 21
159.43592365870691
 31
0.0
  0
LINE
  5
1CF
  8
0
 10
98.796571718501525
 20
109.43592365866201
 30
0.0
 11
98.796571718501554
 21
159.4359236587068
 31
0.0
  0
LINE
  5
1D0
  8
3
 10
99.879071718501535
 20
109.4359236586637
 30
0.0
 11
99.879071718501535
 21
160.51842365870669
 31
0.0
  0
LINE
  5
1D1
  8
0
 10
114.7965717185016
 20
109.43592365868869
 30
0.0
 11
114.7965717185015
 21
159.4359236587066
 31
0.0
  0
LINE
  5
1D2
  8
3
 10
113.7140717185016
 20
109.4359236586869
 30
0.0
 11
113.7140717185016
 21
160.51842365870661
 31
0.0
  0
CIRCLE
  5
1D3
  8
0
 10
106.7965717185015
 20
261.43592365870671
 30
0.0
 40
11.5
  0
LINE
  5
1D4
  8
0
 10
106.7965717185015
 20
247.57951719815549
 30
0.0
 11
118.7965717185015
 21
254.5077204284311
 31
0.0
  0
LINE
  5
1D5
  8
0
 10
94.796571718501539
 20
254.5077204284311
 30
0.0
 11
106.7965717185015
 21
247.57951719815549
 31
0.0
  0
LINE
  5
1D6
  8
0
 10
94.796571718501539
 20
268.36412688898201
 30
0.0
 11
94.796571718501539
 21
254.5077204284311
 31
0.0
  0
LINE
  5
1D7
  8
0
 10
106.7965717185015
 20
275.2923301192576
 30
0.0
 11
94.796571718501539
 21
268.36412688898201
 31
0.0
  0
LINE
  5
1D8
  8
0
 10
118.7965717185015
 20
268.36412688898201
 30
0.0
 11
106.7965717185015
 21
275.2923301192576
 31
0.0
  0
LINE
  5
1D9
  8
0
 10
118.7965717185015
 20
254.5077204284311
 30
0.0
 11
118.7965717185015
 21
268.36412688898201
 31
0.0
  0
LINE
  5
1DA
  8
0
 10
248.29657171844769
 20
96.435923658720014
 30
0.0
 11
225.29657171866319
 21
96.435923658720014
 31
0.0
  0
LINE
  5
1DB
  8
0
 10
225.2965717185555
 20
109.43592365868869
 30
0.0
 11
248.29657171844769
 21
109.43592365868869
 31
0.0
  0
ARC
  5
1DC
  8
0
 10
247.1888765639689
 20
103.013273928403
 30
0.0
 40
6.1339745957208214
 50
64.384247469850578
 51
124.38424747121
  0
LINE
  5
1DD
  8
0
 10
250.6529781791285
 20
108.07545175429451
 30
0.0
 11
248.29657171844769
 21
109.43592365868869
 31
0.0
  0
LINE
  5
1DE
  8
0
 10
250.6529781791285
 20
97.796395563114231
 30
0.0
 11
248.29657171844769
 21
96.435923658720014
 31
0.0
  0
ARC
  5
1DF
  8
0
 10
247.1888765639689
 20
102.8585733890058
 30
0.0
 40
6.1339745957208214
 50
235.6157525287899
 51
295.61575253014939
  0
LINE
  5
1E0
  8
0
 10
250.65297817910661
 20
108.07545175429451
 30
0.0
 11
250.65297817910661
 21
97.796395563101612
 31
0.0
  0
LINE
  5
1E1
  8
0
 10
243.7247749488308
 20
108.07545175429451
 30
0.0
 11
243.7247749488308
 21
97.796395563114231
 31
0.0
  0
LINE
  5
1E2
  8
0
 10
229.86836848828011
 20
108.07545175429451
 30
0.0
 11
229.86836848828011
 21
97.796395563114231
 31
0.0
  0
LINE
  5
1E3
  8
0
 10
222.9401652580043
 20
108.07545175429451
 30
0.0
 11
222.9401652580043
 21
97.796395563101612
 31
0.0
  0
ARC
  5
1E4
  8
0
 10
236.79657171855541
 20
119.65280202142451
 30
0.0
 40
22.928203228139491
 50
252.41204622431391
 51
287.58795377568612
  0
ARC
  5
1E5
  8
0
 10
226.40426687314189
 20
102.8585733890058
 30
0.0
 40
6.1339745957208214
 50
244.38424746985061
 51
304.38424747121007
  0
LINE
  5
1E6
  8
0
 10
222.9401652579825
 20
97.796395563114231
 30
0.0
 11
225.29657171866319
 21
96.435923658720014
 31
0.0
  0
LINE
  5
1E7
  8
0
 10
222.9401652579825
 20
108.07545175429451
 30
0.0
 11
225.29657171866319
 21
109.43592365868869
 31
0.0
  0
ARC
  5
1E8
  8
0
 10
226.40426687314189
 20
103.013273928403
 30
0.0
 40
6.1339745957208214
 50
55.615752528789912
 51
115.61575253014939
  0
ARC
  5
1E9
  8
0
 10
236.79657171855541
 20
86.219045295984273
 30
0.0
 40
22.928203228139491
 50
72.412046224313912
 51
107.5879537756861
  0
LINE
  5
1EA
  8
0
 10
118.29657171854269
 20
96.435923658687386
 30
0.0
 11
95.296571718476358
 21
96.435923658725812
 31
0.0
  0
LINE
  5
1EB
  8
0
 10
95.296571718468357
 20
109.43592365865609
 30
0.0
 11
118.29657171853469
 21
109.43592365869461
 31
0.0
  0
ARC
  5
1EC
  8
0
 10
100.79657171853469
 20
91.817121506757829
 30
0.0
 40
17.330127017333279
 50
69.743841997640246
 51
110.2561580023597
  0
LINE
  5
1ED
  8
0
 10
94.796571718519729
 20
109.1472485240911
 30
0.0
 11
95.29657171853475
 21
109.43592365869461
 31
0.0
  0
LINE
  5
1EE
  8
0
 10
94.796571718527758
 20
96.724598793290795
 30
0.0
 11
95.296571718542765
 21
96.435923658687386
 31
0.0
  0
ARC
  5
1EF
  8
0
 10
100.79657171854269
 20
114.05472581062411
 30
0.0
 40
17.330127017333279
 50
249.7438419976402
 51
290.25615800235971
  0
LINE
  5
1F0
  8
0
 10
94.796571718519729
 20
109.1472485240911
 30
0.0
 11
94.796571718542765
 21
96.724598793282155
 31
0.0
  0
LINE
  5
1F1
  8
0
 10
106.79657171854269
 20
97.796395563120029
 30
0.0
 11
106.79657171853469
 21
108.07545175426191
 31
0.0
  0
LINE
  5
1F2
  8
0
 10
118.7965717185497
 20
109.1472485240911
 30
0.0
 11
118.79657171854269
 21
96.724598793282155
 31
0.0
  0
ARC
  5
1F3
  8
0
 10
112.79657171854269
 20
114.05472581062411
 30
0.0
 40
17.330127017333279
 50
249.7438419976402
 51
290.25615800235971
  0
LINE
  5
1F4
  8
0
 10
118.7965717185577
 20
96.724598793290795
 30
0.0
 11
118.29657171854269
 21
96.435923658687386
 31
0.0
  0
LINE
  5
1F5
  8
0
 10
118.7965717185497
 20
109.1472485240911
 30
0.0
 11
118.29657171853469
 21
109.43592365869461
 31
0.0
  0
ARC
  5
1F6
  8
0
 10
112.79657171853469
 20
91.817121506757829
 30
0.0
 40
17.330127017333279
 50
69.743841997640246
 51
110.2561580023597
  0
CIRCLE
  5
1F7
  8
0
 10
106.7965717185015
 20
261.43592365870671
 30
0.0
 40
8.0
  0
CIRCLE
  5
1F8
  8
3
 10
106.7965717185015
 20
261.43592365870671
 30
0.0
 40
6.9175000000000004
  0
LINE
  5
1F9
  8
0
 10
104.4871706436216
 20
265.43592365544879
 30
0.0
 11
109.10597279713831
 21
265.43592365544879
 31
0.0
  0
LINE
  5
1FA
  8
0
 10
109.1059727933812
 20
265.43592365544521
 30
0.0
 11
111.4153738701403
 21
261.43592365544879
 31
0.0
  0
LINE
  5
1FB
  8
0
 10
111.4153738682576
 20
261.43592365870478
 30
0.0
 11
109.10597279149989
 21
257.43592365870478
 31
0.0
  0
LINE
  5
1FC
  8
0
 10
109.1059727933789
 20
257.43592366196083
 30
0.0
 11
104.4871706398622
 21
257.43592366196083
 31
0.0
  0
LINE
  5
1FD
  8
0
 10
104.48717064362199
 20
257.43592366196083
 30
0.0
 11
102.17776956686301
 21
261.43592366196083
 31
0.0
  0
LINE
  5
1FE
  8
0
 10
102.1777695687456
 20
261.43592365870478
 30
0.0
 11
104.4871706455033
 21
265.43592365870478
 31
0.0
  0
LINE
  5
1FF
  8
2
 10
102.17776956874449
 20
153.43592365870671
 30
0.0
 11
111.4153738682586
 21
153.43592365870671
 31
0.0
  0
LINE
  5
200
  8
2
 10
102.1777695687444
 20
161.43592365870671
 30
0.0
 11
102.17776956874449
 21
153.43592365870671
 31
0.0
  0
LINE
  5
201
  8
2
 10
104.4871706436241
 20
161.43592365870671
 30
0.0
 11
104.4871706436241
 21
153.43592365870671
 31
0.0
  0
LINE
  5
202
  8
2
 10
102.17776956874449
 20
153.43592365870671
 30
0.0
 11
106.7965717185016
 21
150.76925699421091
 31
0.0
  0
LINE
  5
203
  8
2
 10
109.1059727933791
 20
161.43592365870671
 30
0.0
 11
109.1059727933791
 21
153.43592365870671
 31
0.0
  0
LINE
  5
204
  8
2
 10
111.4153738682587
 20
161.43592365870671
 30
0.0
 11
111.4153738682586
 21
153.43592365870671
 31
0.0
  0
LINE
  5
205
  8
2
 10
111.4153738682586
 20
153.43592365870671
 30
0.0
 11
106.7965717185015
 21
150.76925699421091
 31
0.0
  0
LINE
  5
206
  8
0
 10
100.7965717185015
 20
161.4359236587068
 30
0.0
 11
112.7965717185015
 21
161.4359236587066
 31
0.0
  0
LINE
  5
207
  8
0
 10
114.7965717185016
 20
51.370114345579729
 30
0.0
 11
114.7965717185016
 21
96.435923658693355
 31
0.0
  0
LINE
  5
208
  8
3
 10
113.7140717185016
 20
50.287614345579811
 30
0.0
 11
113.7140717185016
 21
96.435923658695117
 31
0.0
  0
LINE
  5
209
  8
3
 10
99.879071718501507
 20
50.287614345580153
 30
0.0
 11
99.879071718501535
 21
96.435923658718195
 31
0.0
  0
LINE
  5
20A
  8
0
 10
98.796571718501525
 20
51.370114345580248
 30
0.0
 11
98.796571718501525
 21
96.435923658720014
 31
0.0
  0
LINE
  5
20B
  8
0
 10
98.796571718501554
 20
159.4359236587068
 30
0.0
 11
100.7965717185015
 21
161.4359236587068
 31
0.0
  0
LINE
  5
20C
  8
0
 10
112.7965717185015
 20
161.4359236587066
 30
0.0
 11
114.7965717185015
 21
159.4359236587066
 31
0.0
  0
LINE
  5
20D
  8
0
 10
114.7965717185015
 20
159.4359236587066
 30
0.0
 11
98.796571718501554
 21
159.4359236587068
 31
0.0
  0
LINE
  5
20E
  8
1
 10
106.7965717185015
 20
221.43592365870671
 30
0.0
 11
106.7965717185015
 21
301.43592365870671
 31
0.0
1001
GENIUS_GENOREF_13
1005
0
  0
LINE
  5
20F
  8
1
 10
66.796571718501582
 20
261.43592365870671
 30
0.0
 11
146.7965717185015
 21
261.43592365870671
 31
0.0
1001
GENIUS_GENOREF_13
1005
0
  0
CIRCLE
  5
210
  8
0
 10
106.7965717185015
 20
261.43592365870671
 30
0.0
 40
30.0
  0
LINE
  5
211
  8
0
 10
112.7965717185015
 20
60.727426280836021
 30
0.0
 11
112.7965717185016
 21
56.144417333637932
 31
0.0
  0
ARC
  5
212
  8
0
 10
106.7965717185017
 20
42.27077226879458
 30
0.0
 40
10.00000000000027
 50
37.822123668939547
 51
49.458398126492533
  0
ARC
  5
213
  8
0
 10
116.6705503578213
 20
49.935923658706599
 30
0.0
 40
2.5
 50
217.8221236689395
 51
270.0
1001
GENIUS_GENODEF_13
1002
{
1000
HIER
1070
     0
1002
}
1002
{
1000
MANEDIT
1070
     0
1002
}
1002
{
1000
NOSEL
1070
     0
1002
}
1002
{
1000
BEHIND
1070
     0
1002
}
1002
{
1000
OTHER
1070
     0
1002
}
1002
{
1000
REACTOR
1002
}
1001
GENIUS_GENOBJ-N-FIL_13
1002
{
1000
OWNER
1000
GEN
1002
}
  0
LINE
  5
214
  8
0
 10
113.2965717185018
 20
49.870114345579907
 30
0.0
 11
114.7965717185017
 21
51.3701143455799
 31
0.0
  0
LINE
  5
215
  8
0
 10
112.0880743406308
 20
61.435923658706713
 30
0.0
 11
112.0880743406308
 21
55.435919955767019
 31
0.0
  0
LINE
  5
216
  8
0
 10
112.0880743406308
 20
55.435919955767247
 30
0.0
 11
112.7965717185016
 21
56.144417333637932
 31
0.0
  0
LINE
  5
217
  8
0
 10
112.0880743406306
 20
61.435923658706713
 30
0.0
 11
112.7965717185015
 21
60.727426280836021
 31
0.0
  0
LINE
  5
218
  8
0
 10
101.5050690963722
 20
55.435919955767019
 30
0.0
 11
101.5050690963722
 21
61.435923658706713
 31
0.0
  0
LINE
  5
219
  8
0
 10
100.7965717185017
 20
60.727426280836021
 30
0.0
 11
100.7965717185016
 21
56.144417333637819
 31
0.0
  0
LINE
  5
21A
  8
0
 10
101.5050690963722
 20
55.435919955767133
 30
0.0
 11
100.7965717185016
 21
56.144417333637819
 31
0.0
  0
LINE
  5
21B
  8
0
 10
101.5050690963724
 20
61.435923658706713
 30
0.0
 11
100.7965717185017
 21
60.727426280836021
 31
0.0
  0
ARC
  5
21C
  8
0
 10
106.7965717185017
 20
42.27077226879458
 30
0.0
 40
10.00000000000027
 50
130.5416018735074
 51
142.17787633106039
  0
ARC
  5
21D
  8
0
 10
96.92259307918215
 20
49.935923658706599
 30
0.0
 40
2.5
 50
270.0
 51
322.17787633106042
1001
GENIUS_GENODEF_13
1002
{
1000
HIER
1070
     0
1002
}
1002
{
1000
MANEDIT
1070
     0
1002
}
1002
{
1000
NOSEL
1070
     0
1002
}
1002
{
1000
BEHIND
1070
     0
1002
}
1002
{
1000
OTHER
1070
     0
1002
}
1002
{
1000
REACTOR
1002
}
1001
GENIUS_GENOBJ-N-FIL_13
1002
{
1000
OWNER
1000
GEN
1002
}
  0
LINE
  5
21E
  8
0
 10
100.2965717185017
 20
49.870114345579907
 30
0.0
 11
98.796571718501809
 21
51.3701143455799
 31
0.0
  0
LINE
  5
21F
  8
0
 10
100.2965717185015
 20
49.870114345580362
 30
0.0
 11
113.29657171850231
 21
49.870114345580362
 31
0.0
  0
LINE
  5
220
  8
0
 10
98.796571718501809
 20
51.3701143455799
 30
0.0
 11
114.7965717185017
 21
51.3701143455799
 31
0.0
  0
LINE
  5
221
  8
0
 10
112.0880743406308
 20
55.435919955767019
 30
0.0
 11
101.5050690963722
 21
55.435919955767019
 31
0.0
  0
ARC
  5
222
  8
0
 10
106.7965717185016
 20
61.435919955767133
 30
0.0
 40
8.0000000000000622
 50
228.590377890729
 51
311.40962210927091
  0
LINE
  5
223
  8
0
 10
101.5050690963722
 20
61.435923658706713
 30
0.0
 11
112.0880743406308
 21
61.435923658706713
 31
0.0
  0
ARC
  5
224
  8
0
 10
106.7965717185016
 20
55.435923658706599
 30
0.0
 40
8.0000000000000853
 50
48.59037789072908
 51
131.40962210927091
  0
LINE
  5
225
  8
0
 10
136.79657171850121
 20
35.435923658706599
 30
0.0
 11
136.79657171850121
 21
39.435923658706599
 31
0.0
  0
ARC
  5
226
  8
0
 10
128.79657171850181
 20
39.435923658706599
 30
0.0
 40
8.0
 50
0.0
 51
90.0
1001
GENIUS_GENOBJ-N-FIL_13
1002
{
1000
OWNER
1000
GEN
1002
}
1001
GENIUS_GENODEF_13
1002
{
1000
HIER
1070
     0
1002
}
1002
{
1000
MANEDIT
1070
     0
1002
}
1002
{
1000
NOSEL
1070
     0
1002
}
1002
{
1000
BEHIND
1070
     0
1002
}
1002
{
1000
OTHER
1070
     0
1002
}
1002
{
1000
REACTOR
1002
}
  0
LINE
  5
227
  8
0
 10
76.796571718501525
 20
35.435923658706599
 30
0.0
 11
76.796571718501468
 21
39.435923658706599
 31
0.0
  0
ARC
  5
228
  8
0
 10
84.796571718501355
 20
39.435923658706599
 30
0.0
 40
8.0
 50
90.0
 51
180.0
1001
GENIUS_GENOBJ-N-FIL_13
1002
{
1000
OWNER
1000
GEN
1002
}
1001
GENIUS_GENODEF_13
1002
{
1000
HIER
1070
     0
1002
}
1002
{
1000
MANEDIT
1070
     0
1002
}
1002
{
1000
NOSEL
1070
     0
1002
}
1002
{
1000
BEHIND
1070
     0
1002
}
1002
{
1000
OTHER
1070
     0
1002
}
1002
{
1000
REACTOR
1002
}
  0
LINE
  5
229
  8
0
 10
76.796571718501582
 20
35.435923658706599
 30
0.0
 11
136.79657171850121
 21
35.435923658706599
 31
0.0
  0
LINE
  5
22A
  8
0
 10
84.796571718501355
 20
47.435923658706599
 30
0.0
 11
128.79657171850181
 21
47.435923658706599
 31
0.0
  0
LINE
  5
22B
  8
1
 10
106.7965717185015
 20
171.4359236587066
 30
0.0
 11
106.7965717185015
 21
21.43592365870666
 31
0.0
1001
GENIUS_GENOBJ-N-CEN_13
1002
{
1000
OWNER
1000
GEN
1002
}
1001
GENIUS_GENODEF_13
1002
{
1000
HIER
1070
     0
1002
}
1002
{
1000
MANEDIT
1070
     0
1002
}
1002
{
1000
NOSEL
1070
     0
1002
}
1002
{
1000
BEHIND
1070
     0
1002
}
1002
{
1000
OTHER
1070
     0
1002
}
1002
{
1000
REACTOR
1002
}
  0
TEXT
  5
364
  8
0
 62
     3
 10
0.0
 20
0.0
 30
0.0
 40
10.0
  1
LMR60-16A-SUS
  7
STANDARD1
  0
ENDSEC
  0
EOF
