  0
SECTION
  2
HEADER
  9
$ACADVER
  1
AC1009
  9
$INSBASE
 10
0.0
 20
0.0
 30
0.0
  9
$EXTMIN
 10
0.0
 20
-2.960436562073669
 30
0.0
  9
$EXTMAX
 10
213.96228804614211
 20
284.33727647710259
 30
0.0
  9
$LIMMIN
 10
0.0
 20
0.0
  9
$LIMMAX
 10
187.5
 20
135.0
  9
$ORTHOMODE
 70
     0
  9
$REGENMODE
 70
     1
  9
$FILLMODE
 70
     1
  9
$QTEXTMODE
 70
     0
  9
$MIRRTEXT
 70
     0
  9
$DRAGMODE
 70
     2
  9
$LTSCALE
 40
10.0
  9
$OSMODE
 70
  3071
  9
$ATTMODE
 70
     1
  9
$TEXTSIZE
 40
0.2
  9
$TRACEWID
 40
0.05
  9
$TEXTSTYLE
  7
STANDARD
  9
$CLAYER
  8
0
  9
$CELTYPE
  6
BYLAYER
  9
$CECOLOR
 62
   256
  9
$DIMSCALE
 40
0.5
  9
$DIMASZ
 40
3.0
  9
$DIMEXO
 40
2.0
  9
$DIMDLI
 40
0.3799999999999999
  9
$DIMRND
 40
0.0
  9
$DIMDLE
 40
0.0
  9
$DIMEXE
 40
2.0
  9
$DIMTP
 40
0.0
  9
$DIMTM
 40
0.0
  9
$DIMTXT
 40
3.2000000000000002
  9
$DIMCEN
 40
0.09
  9
$DIMTSZ
 40
0.0
  9
$DIMTOL
 70
     0
  9
$DIMLIM
 70
     0
  9
$DIMTIH
 70
     0
  9
$DIMTOH
 70
     0
  9
$DIMSE1
 70
     0
  9
$DIMSE2
 70
     0
  9
$DIMTAD
 70
     1
  9
$DIMZIN
 70
     0
  9
$DIMBLK
  1

  9
$DIMASO
 70
     0
  9
$DIMSHO
 70
     0
  9
$DIMPOST
  1

  9
$DIMAPOST
  1

  9
$DIMALT
 70
     0
  9
$DIMALTD
 70
     2
  9
$DIMALTF
 40
25.399999999999999
  9
$DIMLFAC
 40
1.0
  9
$DIMTOFL
 70
     0
  9
$DIMTVP
 40
1.6000000000000001
  9
$DIMTIX
 70
     1
  9
$DIMSOXD
 70
     0
  9
$DIMSAH
 70
     0
  9
$DIMBLK1
  1

  9
$DIMBLK2
  1

  9
$DIMSTYLE
  2
STANDARD
  9
$DIMCLRD
 70
     0
  9
$DIMCLRE
 70
     0
  9
$DIMCLRT
 70
     0
  9
$DIMTFAC
 40
1.0
  9
$DIMGAP
 40
0.09
  9
$LUNITS
 70
     2
  9
$LUPREC
 70
     4
  9
$SKETCHINC
 40
0.1
  9
$FILLETRAD
 40
0.4
  9
$AUNITS
 70
     0
  9
$AUPREC
 70
     0
  9
$MENU
  1
E:\r13\win\SUPPORT\ACAD
  9
$ELEVATION
 40
0.0
  9
$PELEVATION
 40
0.0
  9
$THICKNESS
 40
0.0
  9
$LIMCHECK
 70
     0
  9
$BLIPMODE
 70
     0
  9
$CHAMFERA
 40
0.0
  9
$CHAMFERB
 40
0.0
  9
$SKPOLY
 70
     0
  9
$TDCREATE
 40
2451824.6906229062
  9
$TDUPDATE
 40
2456597.5874971179
  9
$TDINDWG
 40
0.0437749884
  9
$TDUSRTIMER
 40
0.0437749884
  9
$USRTIMER
 70
     1
  9
$ANGBASE
 50
0.0
  9
$ANGDIR
 70
     0
  9
$PDMODE
 70
     0
  9
$PDSIZE
 40
0.0
  9
$PLINEWID
 40
0.0
  9
$COORDS
 70
     1
  9
$SPLFRAME
 70
     0
  9
$SPLINETYPE
 70
     6
  9
$SPLINESEGS
 70
     8
  9
$ATTDIA
 70
     0
  9
$ATTREQ
 70
     1
  9
$HANDLING
 70
     1
  9
$HANDSEED
  5
334
  9
$SURFTAB1
 70
     6
  9
$SURFTAB2
 70
     6
  9
$SURFTYPE
 70
     6
  9
$SURFU
 70
     6
  9
$SURFV
 70
     6
  9
$UCSNAME
  2

  9
$UCSORG
 10
0.0
 20
0.0
 30
0.0
  9
$UCSXDIR
 10
1.0
 20
0.0
 30
0.0
  9
$UCSYDIR
 10
0.0
 20
1.0
 30
0.0
  9
$PUCSNAME
  2

  9
$PUCSORG
 10
0.0
 20
0.0
 30
0.0
  9
$PUCSXDIR
 10
1.0
 20
0.0
 30
0.0
  9
$PUCSYDIR
 10
0.0
 20
1.0
 30
0.0
  9
$USERI1
 70
     0
  9
$USERI2
 70
     1
  9
$USERI3
 70
     0
  9
$USERI4
 70
     0
  9
$USERI5
 70
     0
  9
$USERR1
 40
0.0
  9
$USERR2
 40
0.0
  9
$USERR3
 40
0.0
  9
$USERR4
 40
0.0
  9
$USERR5
 40
0.0
  9
$WORLDVIEW
 70
     1
  9
$SHADEDGE
 70
     3
  9
$SHADEDIF
 70
    70
  9
$TILEMODE
 70
     1
  9
$MAXACTVP
 70
    16
  9
$PLIMCHECK
 70
     0
  9
$PEXTMIN
 10
1.0000000000000000E+020
 20
1.0000000000000000E+020
 30
1.0000000000000000E+020
  9
$PEXTMAX
 10
-1.0000000000000000E+020
 20
-1.0000000000000000E+020
 30
-1.0000000000000000E+020
  9
$PLIMMIN
 10
0.0
 20
0.0
  9
$PLIMMAX
 10
12.0
 20
9.0
  9
$UNITMODE
 70
     0
  9
$VISRETAIN
 70
     0
  9
$PLINEGEN
 70
     0
  9
$PSLTSCALE
 70
     0
  0
ENDSEC
  0
SECTION
  2
TABLES
  0
TABLE
  2
VPORT
 70
     1
  0
VPORT
  2
*ACTIVE
 70
     0
 10
0.0
 20
0.0
 11
1.0
 21
1.0
 12
106.98114452124069
 22
141.3046600346467
 13
0.0
 23
0.0
 14
5.0
 24
5.0
 15
5.0
 25
5.0
 16
0.0
 26
0.0
 36
1.0
 17
0.0
 27
0.0
 37
0.0
 40
291.87321819193193
 41
2.304913294797688
 42
50.0
 43
0.0
 44
0.0
 50
0.0
 51
0.0
 71
     0
 72
   500
 73
     1
 74
     0
 75
     0
 76
     0
 77
     0
 78
     2
  0
ENDTAB
  0
TABLE
  2
LTYPE
 70
     4
  0
LTYPE
  2
CONTINUOUS
 70
     0
  3
Solid Line
 72
    65
 73
     0
 40
0.0
  0
LTYPE
  2
CENTER
 70
     0
  3
____ _ ____ _ ____ _ ____ _ ____ _ ____ _ ____
 72
    65
 73
     4
 40
2.0
 49
1.25
 49
-0.25
 49
0.25
 49
-0.25
  0
LTYPE
  2
HIDDEN
 70
     0
  3
__ __ __ __ __ __ __ __ __ __ __ __ __ __ __ __
 72
    65
 73
     2
 40
0.375
 49
0.25
 49
-0.125
  0
LTYPE
  2
PHANTOM2
 70
     0
  3
___ _ _ ___ _ _ ___ _ _ ___ _ _
 72
    65
 73
     6
 40
1.25
 49
0.625
 49
-0.125
 49
0.125
 49
-0.125
 49
0.125
 49
-0.125
  0
ENDTAB
  0
TABLE
  2
LAYER
 70
     4
  0
LAYER
  2
0
 70
     0
 62
     7
  6
CONTINUOUS
  0
LAYER
  2
1
 70
     0
 62
     1
  6
CENTER
  0
LAYER
  2
2
 70
     0
 62
     2
  6
HIDDEN
  0
LAYER
  2
3
 70
     0
 62
     3
  6
CONTINUOUS
  0
ENDTAB
  0
TABLE
  2
STYLE
 70
     2
  0
STYLE
  2
STANDARD
 70
     0
 40
0.0
 41
1.0
 50
0.0
 71
     0
 42
0.2
  3
TXT
  4
BIGFONT
  0
STYLE
  2
STANDARD1
 70
     0
 40
0.0
 41
1.0
 50
0.0
 71
     0
 42
3.0
  3
txt
  4

  0
ENDTAB
  0
TABLE
  2
VIEW
 70
     0
  0
ENDTAB
  0
TABLE
  2
UCS
 70
     0
  0
ENDTAB
  0
TABLE
  2
APPID
 70
     8
  0
APPID
  2
ACAD
 70
     0
  0
APPID
  2
GENIUS_GENODEF_13
 70
     0
  0
APPID
  2
GENIUS_GENOREF_13
 70
     0
  0
APPID
  2
GENIUS_GENOBJ-N-CEN_13
 70
     0
  0
APPID
  2
GENIUS_GENOBJ-N-FIL_13
 70
     0
  0
APPID
  2
ACAD_EXEMPT_FROM_CAD_STANDARDS
 70
     0
  0
APPID
  2
ACAD_MLEADERVER
 70
     0
  0
APPID
  2
ACAD_NAV_VCDISPLAY
 70
     0
  0
ENDTAB
  0
TABLE
  2
DIMSTYLE
 70
     1
  0
DIMSTYLE
  2
STANDARD
 70
     0
  3

  4

  5

  6

  7

 40
1.0
 41
0.18
 42
0.0625
 43
0.38
 44
0.18
 45
0.0
 46
0.0
 47
0.0
 48
0.0
140
0.18
141
0.09
142
0.0
143
25.399999999999999
144
1.0
145
0.0
146
1.0
147
0.09
 71
     0
 72
     0
 73
     1
 74
     1
 75
     0
 76
     0
 77
     0
 78
     0
170
     0
171
     2
172
     0
173
     0
174
     0
175
     0
176
     0
177
     0
178
     0
  0
ENDTAB
  0
ENDSEC
  0
SECTION
  2
BLOCKS
  0
BLOCK
  8
0
  2
$MODEL_SPACE
 70
     0
 10
0.0
 20
0.0
 30
0.0
  3
$MODEL_SPACE
  1

  0
ENDBLK
  5
9
  8
0
  0
BLOCK
 67
     1
  8
0
  2
$PAPER_SPACE
 70
     0
 10
0.0
 20
0.0
 30
0.0
  3
$PAPER_SPACE
  1

  0
ENDBLK
  5
E
 67
     1
  8
0
  0
ENDSEC
  0
SECTION
  2
ENTITIES
  0
LINE
  5
106
  8
2
 10
184.9622880493958
 20
171.3372764771072
 30
0.0
 11
188.9622880461429
 21
168.67060981261139
 31
0.0
  0
LINE
  5
107
  8
2
 10
188.9622880461429
 20
168.67060981261139
 30
0.0
 11
192.96228804288381
 21
171.3372764771072
 31
0.0
  0
LINE
  5
108
  8
3
 10
195.87978804614309
 20
55.254776477106731
 30
0.0
 11
195.87978804614309
 21
99.271467163979679
 31
0.0
  0
LINE
  5
109
  8
0
 10
196.9622880461429
 20
56.337276477106599
 30
0.0
 11
196.9622880461429
 21
99.271467163979636
 31
0.0
  0
LINE
  5
10A
  8
0
 10
194.9622880461435
 20
54.337276477107217
 30
0.0
 11
194.96228804614341
 21
48.33727277416736
 31
0.0
1001
GENIUS_GENOBJ-N-CEN_13
1002
{
1000
OWNER
1000
GEN
1002
}
1001
GENIUS_GENODEF_13
1002
{
1000
HIER
1070
     0
1002
}
1002
{
1000
MANEDIT
1070
     0
1002
}
1002
{
1000
NOSEL
1070
     0
1002
}
1002
{
1000
BEHIND
1070
     0
1002
}
1002
{
1000
OTHER
1070
     0
1002
}
1002
{
1000
REACTOR
1002
}
  0
LINE
  5
10B
  8
0
 10
194.9622880461435
 20
54.337276477107167
 30
0.0
 11
196.9622880461435
 21
56.337276477107167
 31
0.0
  0
LINE
  5
10C
  8
0
 10
194.96228804614341
 20
48.33727277416736
 30
0.0
 11
196.9622880461435
 21
46.33727277416741
 31
0.0
  0
LINE
  5
10D
  8
3
 10
182.04478804614291
 20
55.254776477107193
 30
0.0
 11
182.04478804614291
 21
99.271467163979636
 31
0.0
  0
LINE
  5
10E
  8
0
 10
180.9622880461429
 20
56.337276477107167
 30
0.0
 11
180.9622880461429
 21
99.271467163979636
 31
0.0
  0
LINE
  5
10F
  8
0
 10
182.9622880461431
 20
48.33727277416736
 30
0.0
 11
180.9622880461429
 21
46.33727277416741
 31
0.0
  0
LINE
  5
110
  8
0
 10
182.9622880461429
 20
54.337276477107167
 30
0.0
 11
180.9622880461429
 21
56.337276477107167
 31
0.0
  0
LINE
  5
111
  8
0
 10
182.9622880461429
 20
54.337276477107217
 30
0.0
 11
182.9622880461431
 21
48.33727277416736
 31
0.0
1001
GENIUS_GENOBJ-N-CEN_13
1002
{
1000
OWNER
1000
GEN
1002
}
1001
GENIUS_GENODEF_13
1002
{
1000
HIER
1070
     0
1002
}
1002
{
1000
MANEDIT
1070
     0
1002
}
1002
{
1000
NOSEL
1070
     0
1002
}
1002
{
1000
BEHIND
1070
     0
1002
}
1002
{
1000
OTHER
1070
     0
1002
}
1002
{
1000
REACTOR
1002
}
  0
LINE
  5
112
  8
0
 10
182.9622880461429
 20
179.3372764771072
 30
0.0
 11
194.9622880461429
 21
179.337276477107
 31
0.0
  0
LINE
  5
113
  8
0
 10
196.9622880461429
 20
43.771467163980297
 30
0.0
 11
196.9622880461429
 21
46.337272774167978
 31
0.0
  0
LINE
  5
114
  8
3
 10
195.87978804614309
 20
42.688967163982092
 30
0.0
 11
195.87978804614309
 21
47.419772774167683
 31
0.0
  0
LINE
  5
115
  8
3
 10
182.04478804614291
 20
42.688967163979008
 30
0.0
 11
182.04478804614291
 21
47.419772774167292
 31
0.0
  0
LINE
  5
116
  8
0
 10
180.9622880461429
 20
43.771467163980532
 30
0.0
 11
180.9622880461429
 21
46.33727277416741
 31
0.0
  0
LINE
  5
117
  8
0
 10
180.9622880461429
 20
177.33727647710731
 30
0.0
 11
182.9622880461429
 21
179.3372764771072
 31
0.0
  0
LINE
  5
118
  8
0
 10
194.9622880461429
 20
179.337276477107
 30
0.0
 11
196.9622880461429
 21
177.337276477107
 31
0.0
  0
LINE
  5
119
  8
0
 10
196.9622880461429
 20
177.337276477107
 30
0.0
 11
180.9622880461429
 21
177.33727647710731
 31
0.0
  0
LINE
  5
11A
  8
0
 10
164.71228804614381
 20
28.837276477107171
 30
0.0
 11
165.9622880461437
 21
25.337276477107171
 31
0.0
  0
LINE
  5
11B
  8
0
 10
213.21228804614361
 20
28.837276477107171
 30
0.0
 11
211.96228804614361
 21
25.337276477107171
 31
0.0
  0
LINE
  5
11D
  8
0
 10
165.9622880461437
 20
25.337276477107171
 30
0.0
 11
211.9622880461437
 21
25.337276477107231
 31
0.0
  0
LINE
  5
11E
  8
0
 10
195.46228804614151
 20
42.271467163980468
 30
0.0
 11
196.96228804614131
 21
43.771467163980468
 31
0.0
  0
LINE
  5
11F
  8
0
 10
182.4622880461414
 20
42.271467163980468
 30
0.0
 11
180.96228804614151
 21
43.771467163980468
 31
0.0
  0
LINE
  5
120
  8
0
 10
180.96228804614151
 20
43.771467163980468
 30
0.0
 11
196.96228804614131
 21
43.771467163980248
 31
0.0
  0
LINE
  5
121
  8
0
 10
182.46228804614111
 20
42.271467163980873
 30
0.0
 11
195.46228804614191
 21
42.27146716398024
 31
0.0
  0
LINE
  5
122
  8
0
 10
213.96228804614211
 20
28.837276477107171
 30
0.0
 11
213.96228804614211
 21
31.837276477107171
 31
0.0
  0
ARC
  5
123
  8
0
 10
198.83626668546049
 20
42.337276477107167
 30
0.0
 40
2.5
 50
217.8221236689354
 51
270.0
1001
GENIUS_GENODEF_13
1002
{
1000
HIER
1070
     0
1002
}
1002
{
1000
MANEDIT
1070
     0
1002
}
1002
{
1000
NOSEL
1070
     0
1002
}
1002
{
1000
BEHIND
1070
     0
1002
}
1002
{
1000
OTHER
1070
     0
1002
}
1002
{
1000
REACTOR
1002
}
1001
GENIUS_GENOBJ-N-FIL_13
1002
{
1000
OWNER
1000
GEN
1002
}
  0
ARC
  5
124
  8
0
 10
179.08830940682171
 20
42.337276477107167
 30
0.0
 40
2.5
 50
270.0
 51
322.17787633106451
1001
GENIUS_GENODEF_13
1002
{
1000
HIER
1070
     0
1002
}
1002
{
1000
MANEDIT
1070
     0
1002
}
1002
{
1000
NOSEL
1070
     0
1002
}
1002
{
1000
BEHIND
1070
     0
1002
}
1002
{
1000
OTHER
1070
     0
1002
}
1002
{
1000
REACTOR
1002
}
1001
GENIUS_GENOBJ-N-FIL_13
1002
{
1000
OWNER
1000
GEN
1002
}
  0
ARC
  5
125
  8
0
 10
205.96228804614211
 20
31.837276477107171
 30
0.0
 40
8.0
 50
0.0
 51
90.0
1001
GENIUS_GENOBJ-N-FIL_13
1002
{
1000
OWNER
1000
GEN
1002
}
1001
GENIUS_GENODEF_13
1002
{
1000
HIER
1070
     0
1002
}
1002
{
1000
MANEDIT
1070
     0
1002
}
1002
{
1000
NOSEL
1070
     0
1002
}
1002
{
1000
BEHIND
1070
     0
1002
}
1002
{
1000
OTHER
1070
     0
1002
}
1002
{
1000
REACTOR
1002
}
  0
LINE
  5
126
  8
1
 10
188.96228804614091
 20
184.33727647710711
 30
0.0
 11
188.96228804614381
 21
20.337276477107171
 31
0.0
1001
GENIUS_GENOBJ-N-CEN_13
1002
{
1000
OWNER
1000
GEN
1002
}
1001
GENIUS_GENODEF_13
1002
{
1000
HIER
1070
     0
1002
}
1002
{
1000
MANEDIT
1070
     0
1002
}
1002
{
1000
NOSEL
1070
     0
1002
}
1002
{
1000
BEHIND
1070
     0
1002
}
1002
{
1000
OTHER
1070
     0
1002
}
1002
{
1000
REACTOR
1002
}
  0
ARC
  5
127
  8
0
 10
188.9622880461414
 20
34.672125087195298
 30
0.0
 40
10.00000000000027
 50
130.5416018735026
 51
142.17787633106451
  0
ARC
  5
128
  8
0
 10
188.96228804614091
 20
34.672125087195298
 30
0.0
 40
10.00000000000027
 50
37.822123668935461
 51
49.458398126496888
  0
LINE
  5
129
  8
0
 10
163.96228804614211
 20
28.837276477107171
 30
0.0
 11
163.96228804614211
 21
31.837276477107171
 31
0.0
  0
ARC
  5
12A
  8
0
 10
171.96228804614219
 20
31.837276477107171
 30
0.0
 40
8.0
 50
90.0
 51
180.0
1001
GENIUS_GENOBJ-N-FIL_13
1002
{
1000
OWNER
1000
GEN
1002
}
1001
GENIUS_GENODEF_13
1002
{
1000
HIER
1070
     0
1002
}
1002
{
1000
MANEDIT
1070
     0
1002
}
1002
{
1000
NOSEL
1070
     0
1002
}
1002
{
1000
BEHIND
1070
     0
1002
}
1002
{
1000
OTHER
1070
     0
1002
}
1002
{
1000
REACTOR
1002
}
  0
LINE
  5
12B
  8
0
 10
163.96228804614211
 20
28.837276477107171
 30
0.0
 11
213.96228804614211
 21
28.837276477107171
 31
0.0
  0
LINE
  5
12C
  8
0
 10
171.96228804614219
 20
39.837276477107167
 30
0.0
 11
205.96228804614211
 21
39.837276477107167
 31
0.0
  0
LINE
  5
12D
  8
0
 10
180.9622880461429
 20
112.2714671639597
 30
0.0
 11
180.9622880461429
 21
177.33727647710731
 31
0.0
  0
LINE
  5
12E
  8
3
 10
182.04478804614291
 20
112.2714671639597
 30
0.0
 11
182.04478804614291
 21
178.41977647710709
 31
0.0
  0
LINE
  5
12F
  8
0
 10
196.9622880461429
 20
112.2714671639597
 30
0.0
 11
196.9622880461429
 21
177.337276477107
 31
0.0
  0
LINE
  5
130
  8
3
 10
195.87978804614309
 20
112.2714671639597
 30
0.0
 11
195.87978804614309
 21
178.41977647710701
 31
0.0
  0
LINE
  5
131
  8
2
 10
192.9622880428839
 20
179.3372764771072
 30
0.0
 11
192.96228804288381
 21
171.3372764771072
 31
0.0
  0
LINE
  5
132
  8
2
 10
188.96228804614299
 20
179.3372764771072
 30
0.0
 11
188.96228804614299
 21
171.33727647710711
 31
0.0
  0
LINE
  5
133
  8
2
 10
184.96228804939571
 20
179.3372764771072
 30
0.0
 11
184.9622880493958
 21
171.3372764771072
 31
0.0
  0
LINE
  5
134
  8
2
 10
184.9622880493958
 20
171.3372764771072
 30
0.0
 11
192.96228804288381
 21
171.3372764771072
 31
0.0
  0
LINE
  5
135
  8
2
 10
84.343485896385914
 20
171.33727647710469
 30
0.0
 11
93.58109019590006
 21
171.33727647710469
 31
0.0
  0
LINE
  5
136
  8
2
 10
84.343485896385857
 20
179.33727647710469
 30
0.0
 11
84.343485896385914
 21
171.33727647710469
 31
0.0
  0
LINE
  5
137
  8
2
 10
86.652886971265502
 20
179.33727647710469
 30
0.0
 11
86.652886971265502
 21
171.33727647710469
 31
0.0
  0
LINE
  5
138
  8
2
 10
84.343485896385914
 20
171.33727647710469
 30
0.0
 11
88.962288046143044
 21
168.67060981260889
 31
0.0
  0
LINE
  5
139
  8
2
 10
91.271689121020486
 20
179.33727647710469
 30
0.0
 11
91.271689121020486
 21
171.33727647710469
 31
0.0
  0
LINE
  5
13A
  8
2
 10
93.581090195900117
 20
179.33727647710469
 30
0.0
 11
93.58109019590006
 21
171.33727647710469
 31
0.0
  0
LINE
  5
13B
  8
2
 10
93.58109019590006
 20
171.33727647710469
 30
0.0
 11
88.962288046142945
 21
168.67060981260889
 31
0.0
  0
LINE
  5
13C
  8
0
 10
84.343485896384891
 20
254.33727647710481
 30
0.0
 11
86.652886973142586
 21
258.33727647710481
 31
0.0
  0
LINE
  5
13D
  8
0
 10
86.652886971261296
 20
250.33727648036071
 30
0.0
 11
84.343485894502237
 21
254.33727648036071
 31
0.0
  0
LINE
  5
13E
  8
0
 10
91.271689121018198
 20
250.33727648036071
 30
0.0
 11
86.652886967501445
 21
250.33727648036071
 31
0.0
  0
LINE
  5
13F
  8
0
 10
93.581090195896877
 20
254.33727647710481
 30
0.0
 11
91.271689119139168
 21
250.33727647710469
 31
0.0
  0
LINE
  5
140
  8
0
 10
91.271689121020486
 20
258.33727647384512
 30
0.0
 11
93.581090197779545
 21
254.33727647384879
 31
0.0
  0
LINE
  5
141
  8
0
 10
86.652886971260855
 20
258.33727647384882
 30
0.0
 11
91.271689124777595
 21
258.33727647384882
 31
0.0
  0
CIRCLE
  5
142
  8
0
 10
88.962288046140955
 20
254.33727647710359
 30
0.0
 40
16.99999999999789
  0
LINE
  5
143
  8
0
 10
200.46228804608819
 20
99.271467164018048
 30
0.0
 11
177.46228804630371
 21
99.271467164018048
 31
0.0
  0
LINE
  5
144
  8
0
 10
177.46228804619599
 20
112.2714671639597
 30
0.0
 11
200.46228804608819
 21
112.2714671639597
 31
0.0
  0
ARC
  5
145
  8
0
 10
199.35459289160951
 20
105.8488174336738
 30
0.0
 40
6.1339745957208214
 50
64.384247469851914
 51
124.3842474712076
  0
LINE
  5
146
  8
0
 10
202.81869450676899
 20
110.9109952595654
 30
0.0
 11
200.46228804608819
 21
112.2714671639597
 31
0.0
  0
LINE
  5
147
  8
0
 10
202.81869450676899
 20
100.63193906841219
 30
0.0
 11
200.46228804608819
 21
99.271467164018048
 31
0.0
  0
ARC
  5
148
  8
0
 10
199.35459289160951
 20
105.6941168943038
 30
0.0
 40
6.1339745957208214
 50
235.61575252879231
 51
295.61575253014809
  0
LINE
  5
149
  8
0
 10
202.81869450674719
 20
110.9109952595654
 30
0.0
 11
202.81869450674719
 21
100.6319390683996
 31
0.0
  0
LINE
  5
14A
  8
0
 10
195.89049127647129
 20
110.9109952595654
 30
0.0
 11
195.89049127647129
 21
100.63193906841219
 31
0.0
  0
LINE
  5
14B
  8
0
 10
182.03408481592061
 20
110.9109952595654
 30
0.0
 11
182.03408481592061
 21
100.63193906841219
 31
0.0
  0
LINE
  5
14C
  8
0
 10
175.10588158564479
 20
110.9109952595654
 30
0.0
 11
175.10588158564479
 21
100.6319390683996
 31
0.0
  0
ARC
  5
14D
  8
0
 10
188.96228804619599
 20
122.4883455267225
 30
0.0
 40
22.928203228139491
 50
252.41204622431411
 51
287.58795377568589
  0
ARC
  5
14E
  8
0
 10
178.5699832007825
 20
105.6941168943038
 30
0.0
 40
6.1339745957208214
 50
244.38424746985191
 51
304.38424747120769
  0
LINE
  5
14F
  8
0
 10
175.105881585623
 20
100.63193906841219
 30
0.0
 11
177.46228804630371
 21
99.271467164018048
 31
0.0
  0
LINE
  5
150
  8
0
 10
175.105881585623
 20
110.9109952595654
 30
0.0
 11
177.46228804630371
 21
112.2714671639597
 31
0.0
  0
ARC
  5
151
  8
0
 10
178.5699832007825
 20
105.8488174336738
 30
0.0
 40
6.1339745957208214
 50
55.615752528792306
 51
115.6157525301481
  0
ARC
  5
152
  8
0
 10
188.96228804619599
 20
89.054588801255164
 30
0.0
 40
22.928203228139491
 50
72.412046224314139
 51
107.5879537756858
  0
LINE
  5
153
  8
0
 10
100.4622880461753
 20
99.271467163957936
 30
0.0
 11
77.46228804610891
 21
99.271467163996363
 31
0.0
  0
LINE
  5
154
  8
0
 10
77.46228804610891
 20
112.271467163938
 30
0.0
 11
100.4622880461753
 21
112.2714671639764
 31
0.0
  0
ARC
  5
155
  8
0
 10
82.962288046175303
 20
94.652665012039677
 30
0.0
 40
17.330127017333279
 50
69.743841997639095
 51
110.25615800236091
  0
LINE
  5
156
  8
0
 10
76.962288046160296
 20
111.982792029373
 30
0.0
 11
77.462288046175303
 21
112.2714671639764
 31
0.0
  0
LINE
  5
157
  8
0
 10
76.962288046160296
 20
99.560142298561345
 30
0.0
 11
77.462288046175303
 21
99.271467163957936
 31
0.0
  0
ARC
  5
158
  8
0
 10
82.962288046175303
 20
116.8902693158947
 30
0.0
 40
17.330127017333279
 50
249.74384199763909
 51
290.25615800236068
  0
LINE
  5
159
  8
0
 10
76.962288046160296
 20
111.982792029373
 30
0.0
 11
76.962288046175303
 21
99.560142298552705
 31
0.0
  0
LINE
  5
15A
  8
0
 10
88.962288046175303
 20
100.63193906839059
 30
0.0
 11
88.962288046175303
 21
110.9109952595437
 31
0.0
  0
LINE
  5
15B
  8
0
 10
100.9622880461903
 20
111.982792029373
 30
0.0
 11
100.9622880461753
 21
99.560142298552705
 31
0.0
  0
ARC
  5
15C
  8
0
 10
94.962288046175303
 20
116.8902693158947
 30
0.0
 40
17.330127017333279
 50
249.74384199763909
 51
290.25615800236068
  0
LINE
  5
15D
  8
0
 10
100.9622880461903
 20
99.560142298561345
 30
0.0
 11
100.4622880461753
 21
99.271467163957936
 31
0.0
  0
LINE
  5
15E
  8
0
 10
100.9622880461903
 20
111.982792029373
 30
0.0
 11
100.4622880461753
 21
112.2714671639764
 31
0.0
  0
ARC
  5
15F
  8
0
 10
94.962288046175303
 20
94.652665012039677
 30
0.0
 40
17.330127017333279
 50
69.743841997639095
 51
110.25615800236091
  0
CIRCLE
  5
160
  8
3
 10
88.962288046140955
 20
254.33727647710359
 30
0.0
 40
6.9175000000000004
  0
CIRCLE
  5
161
  8
0
 10
88.962288046140955
 20
254.33727647710359
 30
0.0
 40
8.0
  0
CIRCLE
  5
162
  8
0
 10
88.962288046140955
 20
254.33727647710359
 30
0.0
 40
11.5
  0
LINE
  5
163
  8
0
 10
88.962288046140955
 20
240.48087001655259
 30
0.0
 11
100.962288046141
 21
247.40907324682809
 31
0.0
  0
LINE
  5
164
  8
0
 10
76.962288046140969
 20
247.40907324682809
 30
0.0
 11
88.962288046140955
 21
240.48087001655259
 31
0.0
  0
LINE
  5
165
  8
0
 10
76.962288046140969
 20
261.26547970737909
 30
0.0
 11
76.962288046140969
 21
247.40907324682809
 31
0.0
  0
LINE
  5
166
  8
0
 10
88.962288046140955
 20
268.19368293765473
 30
0.0
 11
76.962288046140969
 21
261.26547970737909
 31
0.0
  0
LINE
  5
167
  8
0
 10
100.962288046141
 20
261.26547970737909
 30
0.0
 11
88.962288046140955
 21
268.19368293765473
 31
0.0
  0
LINE
  5
168
  8
0
 10
100.962288046141
 20
247.40907324682809
 30
0.0
 11
100.962288046141
 21
261.26547970737909
 31
0.0
  0
LINE
  5
169
  8
3
 10
95.879788046143091
 20
112.2714671639572
 30
0.0
 11
95.879788046143091
 21
178.41977647710451
 31
0.0
  0
LINE
  5
16A
  8
0
 10
96.962288046142959
 20
112.2714671639572
 30
0.0
 11
96.962288046142959
 21
177.3372764771045
 31
0.0
  0
LINE
  5
16B
  8
3
 10
82.044788046142955
 20
112.2714671639572
 30
0.0
 11
82.044788046142955
 21
178.4197764771047
 31
0.0
  0
LINE
  5
16C
  8
0
 10
80.962288046142959
 20
112.2714671639572
 30
0.0
 11
80.962288046142959
 21
177.33727647710481
 31
0.0
  0
LINE
  5
16D
  8
0
 10
71.962288046142163
 20
39.837276477104702
 30
0.0
 11
105.96228804614211
 21
39.837276477104702
 31
0.0
  0
LINE
  5
16E
  8
0
 10
63.962288046142163
 20
28.837276477104702
 30
0.0
 11
113.96228804614211
 21
28.837276477104702
 31
0.0
  0
ARC
  5
16F
  8
0
 10
71.962288046142163
 20
31.837276477104691
 30
0.0
 40
8.0
 50
90.0
 51
180.0
1001
GENIUS_GENOBJ-N-FIL_13
1002
{
1000
OWNER
1000
GEN
1002
}
1001
GENIUS_GENODEF_13
1002
{
1000
HIER
1070
     0
1002
}
1002
{
1000
MANEDIT
1070
     0
1002
}
1002
{
1000
NOSEL
1070
     0
1002
}
1002
{
1000
BEHIND
1070
     0
1002
}
1002
{
1000
OTHER
1070
     0
1002
}
1002
{
1000
REACTOR
1002
}
  0
LINE
  5
170
  8
0
 10
63.962288046142163
 20
28.837276477104702
 30
0.0
 11
63.962288046142163
 21
31.837276477104691
 31
0.0
  0
ARC
  5
171
  8
0
 10
88.962288046140912
 20
34.672125087192832
 30
0.0
 40
10.00000000000027
 50
37.822123668935461
 51
49.458398126496888
  0
ARC
  5
172
  8
0
 10
88.962288046141396
 20
34.672125087192832
 30
0.0
 40
10.00000000000027
 50
130.5416018735026
 51
142.17787633106451
  0
LINE
  5
173
  8
1
 10
88.962288046140955
 20
184.33727647710461
 30
0.0
 11
88.962288046143783
 21
20.337276477104691
 31
0.0
1001
GENIUS_GENOBJ-N-CEN_13
1002
{
1000
OWNER
1000
GEN
1002
}
1001
GENIUS_GENODEF_13
1002
{
1000
HIER
1070
     0
1002
}
1002
{
1000
MANEDIT
1070
     0
1002
}
1002
{
1000
NOSEL
1070
     0
1002
}
1002
{
1000
BEHIND
1070
     0
1002
}
1002
{
1000
OTHER
1070
     0
1002
}
1002
{
1000
REACTOR
1002
}
  0
ARC
  5
174
  8
0
 10
105.96228804614211
 20
31.837276477104691
 30
0.0
 40
8.0
 50
0.0
 51
90.0
1001
GENIUS_GENOBJ-N-FIL_13
1002
{
1000
OWNER
1000
GEN
1002
}
1001
GENIUS_GENODEF_13
1002
{
1000
HIER
1070
     0
1002
}
1002
{
1000
MANEDIT
1070
     0
1002
}
1002
{
1000
NOSEL
1070
     0
1002
}
1002
{
1000
BEHIND
1070
     0
1002
}
1002
{
1000
OTHER
1070
     0
1002
}
1002
{
1000
REACTOR
1002
}
  0
ARC
  5
175
  8
0
 10
79.088309406821764
 20
42.337276477104687
 30
0.0
 40
2.5
 50
270.0
 51
322.17787633106451
1001
GENIUS_GENODEF_13
1002
{
1000
HIER
1070
     0
1002
}
1002
{
1000
MANEDIT
1070
     0
1002
}
1002
{
1000
NOSEL
1070
     0
1002
}
1002
{
1000
BEHIND
1070
     0
1002
}
1002
{
1000
OTHER
1070
     0
1002
}
1002
{
1000
REACTOR
1002
}
1001
GENIUS_GENOBJ-N-FIL_13
1002
{
1000
OWNER
1000
GEN
1002
}
  0
ARC
  5
176
  8
0
 10
98.836266685460515
 20
42.337276477104687
 30
0.0
 40
2.5
 50
217.8221236689354
 51
270.0
1001
GENIUS_GENODEF_13
1002
{
1000
HIER
1070
     0
1002
}
1002
{
1000
MANEDIT
1070
     0
1002
}
1002
{
1000
NOSEL
1070
     0
1002
}
1002
{
1000
BEHIND
1070
     0
1002
}
1002
{
1000
OTHER
1070
     0
1002
}
1002
{
1000
REACTOR
1002
}
1001
GENIUS_GENOBJ-N-FIL_13
1002
{
1000
OWNER
1000
GEN
1002
}
  0
LINE
  5
177
  8
0
 10
113.96228804614211
 20
28.837276477104702
 30
0.0
 11
113.96228804614211
 21
31.837276477104691
 31
0.0
  0
ARC
  5
178
  8
0
 10
88.962288046143698
 20
48.337276477104581
 30
0.0
 40
8.0000000000000853
 50
48.59037789072908
 51
131.4096221092708
  0
LINE
  5
179
  8
0
 10
83.670785424014426
 20
54.337276477104687
 30
0.0
 11
94.253790668272885
 21
54.337276477104687
 31
0.0
  0
LINE
  5
17A
  8
0
 10
94.253790668272885
 20
48.337272774164887
 30
0.0
 11
83.670785424014426
 21
48.337272774164887
 31
0.0
  0
ARC
  5
17B
  8
0
 10
88.962288046143698
 20
54.337272774165001
 30
0.0
 40
8.0000000000000622
 50
228.590377890729
 51
311.40962210927091
  0
LINE
  5
17C
  8
0
 10
82.46228804614114
 20
42.2714671639784
 30
0.0
 11
95.462288046141907
 21
42.271467163977768
 31
0.0
  0
LINE
  5
17D
  8
0
 10
80.962288046141467
 20
43.771467163978002
 30
0.0
 11
96.96228804614131
 21
43.771467163977768
 31
0.0
  0
LINE
  5
17E
  8
0
 10
83.670785424014497
 20
54.337276477104687
 30
0.0
 11
82.962288046143811
 21
53.628779099233782
 31
0.0
  0
LINE
  5
17F
  8
0
 10
83.670785424014426
 20
48.337272774165001
 30
0.0
 11
82.962288046143698
 21
49.045770152035679
 31
0.0
  0
LINE
  5
180
  8
0
 10
82.962288046143811
 20
53.628779099233782
 30
0.0
 11
82.962288046143698
 21
49.045770152035679
 31
0.0
  0
LINE
  5
181
  8
0
 10
82.462288046141396
 20
42.271467163978002
 30
0.0
 11
80.962288046141467
 21
43.771467163978002
 31
0.0
  0
LINE
  5
182
  8
0
 10
83.670785424014426
 20
48.337272774164887
 30
0.0
 11
83.670785424014426
 21
54.337276477104687
 31
0.0
  0
LINE
  5
183
  8
0
 10
94.962288046143641
 20
53.628779099233903
 30
0.0
 11
94.962288046143698
 21
49.0457701520358
 31
0.0
  0
LINE
  5
184
  8
0
 10
94.253790668272885
 20
54.337276477104687
 30
0.0
 11
94.253790668272885
 21
48.337272774164887
 31
0.0
  0
LINE
  5
185
  8
0
 10
94.253790668273027
 20
48.337272774165001
 30
0.0
 11
94.962288046143698
 21
49.0457701520358
 31
0.0
  0
LINE
  5
186
  8
0
 10
95.462288046141538
 20
42.271467163978002
 30
0.0
 11
96.96228804614131
 21
43.771467163978002
 31
0.0
  0
LINE
  5
187
  8
0
 10
94.253790668272842
 20
54.337276477104687
 30
0.0
 11
94.962288046143641
 21
53.628779099233903
 31
0.0
  0
CIRCLE
  5
188
  8
0
 10
88.962288046140955
 20
254.33727647710359
 30
0.0
 40
24.999999999998948
  0
LINE
  5
189
  8
1
 10
88.962288046140955
 20
284.33727647710259
 30
0.0
 11
88.962288046140955
 21
224.33727647710461
 31
0.0
1001
GENIUS_GENOREF_13
1005
0
  0
LINE
  5
18A
  8
1
 10
58.962288046142021
 20
254.33727647710359
 30
0.0
 11
118.9622880461399
 21
254.33727647710359
 31
0.0
1001
GENIUS_GENOREF_13
1005
0
  0
LINE
  5
18B
  8
0
 10
65.962288046143726
 20
25.337276477104691
 30
0.0
 11
111.9622880461436
 21
25.337276477104751
 31
0.0
  0
LINE
  5
18D
  8
0
 10
113.2122880461436
 20
28.837276477104702
 30
0.0
 11
111.9622880461436
 21
25.337276477104691
 31
0.0
  0
LINE
  5
18E
  8
0
 10
64.712288046143811
 20
28.837276477104702
 30
0.0
 11
65.962288046143755
 21
25.337276477104691
 31
0.0
  0
LINE
  5
18F
  8
0
 10
96.962288046142959
 20
177.3372764771045
 30
0.0
 11
80.962288046142959
 21
177.33727647710481
 31
0.0
  0
LINE
  5
190
  8
0
 10
94.962288046142945
 20
179.33727647710461
 30
0.0
 11
96.962288046142959
 21
177.3372764771045
 31
0.0
  0
LINE
  5
191
  8
0
 10
80.962288046142959
 20
177.33727647710481
 30
0.0
 11
82.962288046142959
 21
179.33727647710469
 31
0.0
  0
LINE
  5
192
  8
0
 10
80.962288046142959
 20
43.771467163978052
 30
0.0
 11
80.962288046142959
 21
99.271467163977135
 31
0.0
  0
LINE
  5
193
  8
3
 10
82.044788046142955
 20
42.688967163976542
 30
0.0
 11
82.044788046142955
 21
99.271467163977135
 31
0.0
  0
LINE
  5
194
  8
3
 10
95.879788046143091
 20
42.688967163979612
 30
0.0
 11
95.879788046143091
 21
99.271467163977221
 31
0.0
  0
LINE
  5
195
  8
0
 10
96.962288046142959
 20
43.771467163977832
 30
0.0
 11
96.962288046142959
 21
99.271467163977135
 31
0.0
  0
LINE
  5
196
  8
0
 10
82.962288046142959
 20
179.33727647710469
 30
0.0
 11
94.962288046142945
 21
179.33727647710461
 31
0.0
  0
TEXT
  5
2D1
  8
0
 62
     3
 10
0.0
 20
0.0
 30
0.0
 40
10.0
  1
LMR50-16C-SUS
  7
STANDARD1
  0
ENDSEC
  0
EOF
