  0
SECTION
  2
HEADER
  9
$ACADVER
  1
AC1009
  9
$INSBASE
 10
0.0
 20
0.0
 30
0.0
  9
$EXTMIN
 10
0.0
 20
-2.960436562073669
 30
0.0
  9
$EXTMAX
 10
336.22754530782828
 20
422.8660679473366
 30
0.0
  9
$LIMMIN
 10
0.0
 20
0.0
  9
$LIMMAX
 10
187.5
 20
135.0
  9
$ORTHOMODE
 70
     1
  9
$REGENMODE
 70
     1
  9
$FILLMODE
 70
     1
  9
$QTEXTMODE
 70
     0
  9
$MIRRTEXT
 70
     0
  9
$DRAGMODE
 70
     2
  9
$LTSCALE
 40
10.0
  9
$OSMODE
 70
  3071
  9
$ATTMODE
 70
     1
  9
$TEXTSIZE
 40
0.2
  9
$TRACEWID
 40
0.05
  9
$TEXTSTYLE
  7
STANDARD
  9
$CLAYER
  8
0
  9
$CELTYPE
  6
BYLAYER
  9
$CECOLOR
 62
   256
  9
$DIMSCALE
 40
0.5
  9
$DIMASZ
 40
3.0
  9
$DIMEXO
 40
2.0
  9
$DIMDLI
 40
0.3799999999999999
  9
$DIMRND
 40
0.0
  9
$DIMDLE
 40
0.0
  9
$DIMEXE
 40
2.0
  9
$DIMTP
 40
0.0
  9
$DIMTM
 40
0.0
  9
$DIMTXT
 40
3.2000000000000002
  9
$DIMCEN
 40
0.09
  9
$DIMTSZ
 40
0.0
  9
$DIMTOL
 70
     0
  9
$DIMLIM
 70
     0
  9
$DIMTIH
 70
     0
  9
$DIMTOH
 70
     0
  9
$DIMSE1
 70
     0
  9
$DIMSE2
 70
     0
  9
$DIMTAD
 70
     1
  9
$DIMZIN
 70
     0
  9
$DIMBLK
  1

  9
$DIMASO
 70
     0
  9
$DIMSHO
 70
     0
  9
$DIMPOST
  1

  9
$DIMAPOST
  1

  9
$DIMALT
 70
     0
  9
$DIMALTD
 70
     2
  9
$DIMALTF
 40
25.399999999999999
  9
$DIMLFAC
 40
1.0
  9
$DIMTOFL
 70
     0
  9
$DIMTVP
 40
1.6000000000000001
  9
$DIMTIX
 70
     1
  9
$DIMSOXD
 70
     0
  9
$DIMSAH
 70
     0
  9
$DIMBLK1
  1

  9
$DIMBLK2
  1

  9
$DIMSTYLE
  2
STANDARD
  9
$DIMCLRD
 70
     0
  9
$DIMCLRE
 70
     0
  9
$DIMCLRT
 70
     0
  9
$DIMTFAC
 40
1.0
  9
$DIMGAP
 40
0.09
  9
$LUNITS
 70
     2
  9
$LUPREC
 70
     4
  9
$SKETCHINC
 40
0.1
  9
$FILLETRAD
 40
0.4
  9
$AUNITS
 70
     0
  9
$AUPREC
 70
     0
  9
$MENU
  1
E:\r13\win\SUPPORT\ACAD
  9
$ELEVATION
 40
0.0
  9
$PELEVATION
 40
0.0
  9
$THICKNESS
 40
0.0
  9
$LIMCHECK
 70
     0
  9
$BLIPMODE
 70
     0
  9
$CHAMFERA
 40
0.0
  9
$CHAMFERB
 40
0.0
  9
$SKPOLY
 70
     0
  9
$TDCREATE
 40
2451824.6906229062
  9
$TDUPDATE
 40
2456597.587473426
  9
$TDINDWG
 40
0.1484746296
  9
$TDUSRTIMER
 40
0.1484746296
  9
$USRTIMER
 70
     1
  9
$ANGBASE
 50
0.0
  9
$ANGDIR
 70
     0
  9
$PDMODE
 70
     0
  9
$PDSIZE
 40
0.0
  9
$PLINEWID
 40
0.0
  9
$COORDS
 70
     1
  9
$SPLFRAME
 70
     0
  9
$SPLINETYPE
 70
     6
  9
$SPLINESEGS
 70
     8
  9
$ATTDIA
 70
     0
  9
$ATTREQ
 70
     1
  9
$HANDLING
 70
     1
  9
$HANDSEED
  5
5DC
  9
$SURFTAB1
 70
     6
  9
$SURFTAB2
 70
     6
  9
$SURFTYPE
 70
     6
  9
$SURFU
 70
     6
  9
$SURFV
 70
     6
  9
$UCSNAME
  2

  9
$UCSORG
 10
0.0
 20
0.0
 30
0.0
  9
$UCSXDIR
 10
1.0
 20
0.0
 30
0.0
  9
$UCSYDIR
 10
0.0
 20
1.0
 30
0.0
  9
$PUCSNAME
  2

  9
$PUCSORG
 10
0.0
 20
0.0
 30
0.0
  9
$PUCSXDIR
 10
1.0
 20
0.0
 30
0.0
  9
$PUCSYDIR
 10
0.0
 20
1.0
 30
0.0
  9
$USERI1
 70
     0
  9
$USERI2
 70
     1
  9
$USERI3
 70
     0
  9
$USERI4
 70
     0
  9
$USERI5
 70
     0
  9
$USERR1
 40
0.0
  9
$USERR2
 40
0.0
  9
$USERR3
 40
0.0
  9
$USERR4
 40
0.0
  9
$USERR5
 40
0.0
  9
$WORLDVIEW
 70
     1
  9
$SHADEDGE
 70
     3
  9
$SHADEDIF
 70
    70
  9
$TILEMODE
 70
     1
  9
$MAXACTVP
 70
    16
  9
$PLIMCHECK
 70
     0
  9
$PEXTMIN
 10
1.0000000000000000E+020
 20
1.0000000000000000E+020
 30
1.0000000000000000E+020
  9
$PEXTMAX
 10
-1.0000000000000000E+020
 20
-1.0000000000000000E+020
 30
-1.0000000000000000E+020
  9
$PLIMMIN
 10
0.0
 20
0.0
  9
$PLIMMAX
 10
12.0
 20
9.0
  9
$UNITMODE
 70
     0
  9
$VISRETAIN
 70
     0
  9
$PLINEGEN
 70
     0
  9
$PSLTSCALE
 70
     0
  0
ENDSEC
  0
SECTION
  2
TABLES
  0
TABLE
  2
VPORT
 70
     1
  0
VPORT
  2
*ACTIVE
 70
     0
 10
0.0
 20
0.0
 11
1.0
 21
1.0
 12
168.113773436755
 22
210.87088145147001
 13
0.0
 23
0.0
 14
5.0
 24
5.0
 15
5.0
 25
5.0
 16
0.0
 26
0.0
 36
1.0
 17
0.0
 27
0.0
 37
0.0
 40
432.59874328456698
 41
2.304913294797688
 42
50.0
 43
0.0
 44
0.0
 50
0.0
 51
0.0
 71
     0
 72
   500
 73
     1
 74
     0
 75
     0
 76
     0
 77
     0
 78
     2
  0
ENDTAB
  0
TABLE
  2
LTYPE
 70
     4
  0
LTYPE
  2
CONTINUOUS
 70
     0
  3
Solid Line
 72
    65
 73
     0
 40
0.0
  0
LTYPE
  2
CENTER
 70
     0
  3
____ _ ____ _ ____ _ ____ _ ____ _ ____ _ ____
 72
    65
 73
     4
 40
2.0
 49
1.25
 49
-0.25
 49
0.25
 49
-0.25
  0
LTYPE
  2
HIDDEN
 70
     0
  3
__ __ __ __ __ __ __ __ __ __ __ __ __ __ __ __
 72
    65
 73
     2
 40
0.375
 49
0.25
 49
-0.125
  0
LTYPE
  2
PHANTOM2
 70
     0
  3
___ _ _ ___ _ _ ___ _ _ ___ _ _
 72
    65
 73
     6
 40
1.25
 49
0.625
 49
-0.125
 49
0.125
 49
-0.125
 49
0.125
 49
-0.125
  0
ENDTAB
  0
TABLE
  2
LAYER
 70
     4
  0
LAYER
  2
0
 70
     0
 62
     7
  6
CONTINUOUS
  0
LAYER
  2
1
 70
     0
 62
     1
  6
CENTER
  0
LAYER
  2
2
 70
     0
 62
     2
  6
HIDDEN
  0
LAYER
  2
3
 70
     0
 62
     3
  6
CONTINUOUS
  0
ENDTAB
  0
TABLE
  2
STYLE
 70
     2
  0
STYLE
  2
STANDARD
 70
     0
 40
0.0
 41
1.0
 50
0.0
 71
     0
 42
0.2
  3
TXT
  4
BIGFONT
  0
STYLE
  2
STANDARD1
 70
     0
 40
0.0
 41
1.0
 50
0.0
 71
     0
 42
3.0
  3
txt
  4

  0
ENDTAB
  0
TABLE
  2
VIEW
 70
     0
  0
ENDTAB
  0
TABLE
  2
UCS
 70
     0
  0
ENDTAB
  0
TABLE
  2
APPID
 70
     8
  0
APPID
  2
ACAD
 70
     0
  0
APPID
  2
GENIUS_GENODEF_13
 70
     0
  0
APPID
  2
GENIUS_GENOREF_13
 70
     0
  0
APPID
  2
GENIUS_GENOBJ-N-CEN_13
 70
     0
  0
APPID
  2
GENIUS_GENOBJ-N-FIL_13
 70
     0
  0
APPID
  2
ACAD_EXEMPT_FROM_CAD_STANDARDS
 70
     0
  0
APPID
  2
ACAD_MLEADERVER
 70
     0
  0
APPID
  2
ACAD_NAV_VCDISPLAY
 70
     0
  0
ENDTAB
  0
TABLE
  2
DIMSTYLE
 70
     1
  0
DIMSTYLE
  2
STANDARD
 70
     0
  3

  4

  5

  6

  7

 40
1.0
 41
0.18
 42
0.0625
 43
0.38
 44
0.18
 45
0.0
 46
0.0
 47
0.0
 48
0.0
140
0.18
141
0.09
142
0.0
143
25.399999999999999
144
1.0
145
0.0
146
1.0
147
0.09
 71
     0
 72
     0
 73
     1
 74
     1
 75
     0
 76
     0
 77
     0
 78
     0
170
     0
171
     2
172
     0
173
     0
174
     0
175
     0
176
     0
177
     0
178
     0
  0
ENDTAB
  0
ENDSEC
  0
SECTION
  2
BLOCKS
  0
BLOCK
  8
0
  2
$MODEL_SPACE
 70
     0
 10
0.0
 20
0.0
 30
0.0
  3
$MODEL_SPACE
  1

  0
ENDBLK
  5
9
  8
0
  0
BLOCK
 67
     1
  8
0
  2
$PAPER_SPACE
 70
     0
 10
0.0
 20
0.0
 30
0.0
  3
$PAPER_SPACE
  1

  0
ENDBLK
  5
E
 67
     1
  8
0
  0
ENDSEC
  0
SECTION
  2
ENTITIES
  0
LINE
  5
36A
  8
3
 10
296.6035453078282
 20
73.341563917354392
 30
0.0
 11
296.6035453078282
 21
128.6658159323454
 31
0.0
  0
LINE
  5
36B
  8
0
 10
298.22754530782828
 20
74.965563917354515
 30
0.0
 11
298.22754530782851
 21
128.6658159323454
 31
0.0
  0
LINE
  5
36C
  8
0
 10
295.72754530782811
 20
72.465563917354302
 30
0.0
 11
295.72754530782822
 21
63.465563917354181
 31
0.0
1001
GENIUS_GENODEF_13
1002
{
1000
HIER
1070
     0
1002
}
1002
{
1000
MANEDIT
1070
     0
1002
}
1002
{
1000
NOSEL
1070
     0
1002
}
1002
{
1000
BEHIND
1070
     0
1002
}
1002
{
1000
OTHER
1070
     0
1002
}
1002
{
1000
REACTOR
1002
}
1001
GENIUS_GENOBJ-N-CEN_13
1002
{
1000
OWNER
1000
GEN
1002
}
  0
LINE
  5
36D
  8
0
 10
298.227545307828
 20
74.965563917354189
 30
0.0
 11
295.72754530782811
 21
72.465563917354302
 31
0.0
  0
LINE
  5
36E
  8
0
 10
295.72754530782811
 20
63.465563917354302
 30
0.0
 11
298.227545307828
 21
60.965563917354181
 31
0.0
  0
LINE
  5
36F
  8
0
 10
274.22754530782839
 20
74.965563917354302
 30
0.0
 11
274.22754530782839
 21
128.6658159323454
 31
0.0
  0
LINE
  5
370
  8
3
 10
275.85154530782842
 20
73.341563917354279
 30
0.0
 11
275.85154530782842
 21
128.6658159323452
 31
0.0
  0
LINE
  5
371
  8
0
 10
276.72754530782828
 20
63.465563917354302
 30
0.0
 11
274.22754530782839
 21
60.965563917354181
 31
0.0
  0
LINE
  5
372
  8
0
 10
274.22754530782839
 20
74.965563917354189
 30
0.0
 11
276.72754530782828
 21
72.465563917354302
 31
0.0
  0
LINE
  5
373
  8
0
 10
276.72754530782828
 20
72.465563917354302
 30
0.0
 11
276.72754530782822
 21
63.465563917354181
 31
0.0
1001
GENIUS_GENODEF_13
1002
{
1000
HIER
1070
     0
1002
}
1002
{
1000
MANEDIT
1070
     0
1002
}
1002
{
1000
NOSEL
1070
     0
1002
}
1002
{
1000
BEHIND
1070
     0
1002
}
1002
{
1000
OTHER
1070
     0
1002
}
1002
{
1000
REACTOR
1002
}
1001
GENIUS_GENOBJ-N-CEN_13
1002
{
1000
OWNER
1000
GEN
1002
}
  0
LINE
  5
374
  8
0
 10
336.22754530782828
 20
42.465563917354302
 30
0.0
 11
336.22754530782828
 21
40.465563917354302
 31
0.0
  0
ARC
  5
375
  8
0
 10
324.22754530782839
 20
42.465563917354302
 30
0.0
 40
12.0
 50
0.0
 51
90.0
1001
GENIUS_GENOBJ-N-FIL_13
1002
{
1000
OWNER
1000
GEN
1002
}
1001
GENIUS_GENODEF_13
1002
{
1000
HIER
1070
     0
1002
}
1002
{
1000
MANEDIT
1070
     0
1002
}
1002
{
1000
NOSEL
1070
     0
1002
}
1002
{
1000
BEHIND
1070
     0
1002
}
1002
{
1000
OTHER
1070
     0
1002
}
1002
{
1000
REACTOR
1002
}
  0
ARC
  5
376
  8
0
 10
286.22754530782839
 20
47.651855418369443
 30
0.0
 40
11.999999999999931
 50
39.016974918049058
 51
46.567463442211199
  0
LINE
  5
377
  8
0
 10
296.1275453078282
 20
56.366067947336433
 30
0.0
 11
298.22754530782811
 21
58.466067947336342
 31
0.0
  0
ARC
  5
378
  8
0
 10
297.10497802400391
 20
56.465563917354302
 30
0.0
 40
2.0
 50
219.0169749180491
 51
270.0
1001
GENIUS_GENOBJ-N-FIL_13
1002
{
1000
OWNER
1000
GEN
1002
}
1001
GENIUS_GENODEF_13
1002
{
1000
HIER
1070
     0
1002
}
1002
{
1000
MANEDIT
1070
     0
1002
}
1002
{
1000
NOSEL
1070
     0
1002
}
1002
{
1000
BEHIND
1070
     0
1002
}
1002
{
1000
OTHER
1070
     0
1002
}
1002
{
1000
REACTOR
1002
}
  0
LINE
  5
379
  8
0
 10
276.32754530782802
 20
56.366067947336433
 30
0.0
 11
274.22754530782811
 21
58.466067947336342
 31
0.0
  0
ARC
  5
37A
  8
0
 10
275.35011259165282
 20
56.465563917354302
 30
0.0
 40
2.0
 50
270.0
 51
320.98302508195093
1001
GENIUS_GENOBJ-N-FIL_13
1002
{
1000
OWNER
1000
GEN
1002
}
1001
GENIUS_GENODEF_13
1002
{
1000
HIER
1070
     0
1002
}
1002
{
1000
MANEDIT
1070
     0
1002
}
1002
{
1000
NOSEL
1070
     0
1002
}
1002
{
1000
BEHIND
1070
     0
1002
}
1002
{
1000
OTHER
1070
     0
1002
}
1002
{
1000
REACTOR
1002
}
  0
ARC
  5
37B
  8
0
 10
286.22754530782822
 20
47.651855418369443
 30
0.0
 40
11.999999999999931
 50
133.43253655778881
 51
140.9830250819509
  0
LINE
  5
37C
  8
0
 10
274.22754530782811
 20
58.466067947336342
 30
0.0
 11
298.22754530782851
 21
58.466067947336448
 31
0.0
  0
LINE
  5
37D
  8
0
 10
276.32754530782802
 20
56.366067947336433
 30
0.0
 11
296.1275453078282
 21
56.366067947336433
 31
0.0
  0
LINE
  5
37E
  8
0
 10
236.22754530782831
 20
42.465563917354302
 30
0.0
 11
236.22754530782831
 21
40.465563917354302
 31
0.0
  0
ARC
  5
37F
  8
0
 10
248.22754530782831
 20
42.465563917354302
 30
0.0
 40
12.0
 50
90.0
 51
180.0
1001
GENIUS_GENOBJ-N-FIL_13
1002
{
1000
OWNER
1000
GEN
1002
}
1001
GENIUS_GENODEF_13
1002
{
1000
HIER
1070
     0
1002
}
1002
{
1000
MANEDIT
1070
     0
1002
}
1002
{
1000
NOSEL
1070
     0
1002
}
1002
{
1000
BEHIND
1070
     0
1002
}
1002
{
1000
OTHER
1070
     0
1002
}
1002
{
1000
REACTOR
1002
}
  0
LINE
  5
380
  8
1
 10
286.22754530782839
 20
232.86606794733649
 30
0.0
 11
286.22754530782828
 21
24.465563917354189
 31
0.0
1001
GENIUS_GENODEF_13
1002
{
1000
HIER
1070
     0
1002
}
1002
{
1000
MANEDIT
1070
     0
1002
}
1002
{
1000
NOSEL
1070
     0
1002
}
1002
{
1000
BEHIND
1070
     0
1002
}
1002
{
1000
OTHER
1070
     0
1002
}
1002
{
1000
REACTOR
1002
}
1001
GENIUS_GENOBJ-N-CEN_13
1002
{
1000
OWNER
1000
GEN
1002
}
  0
LINE
  5
381
  8
0
 10
336.22754530782828
 20
40.465563917354302
 30
0.0
 11
236.22754530782831
 21
40.465563917354189
 31
0.0
  0
LINE
  5
382
  8
0
 10
324.22754530782839
 20
54.465563917354302
 30
0.0
 11
248.22754530782831
 21
54.465563917354302
 31
0.0
  0
LINE
  5
383
  8
0
 10
274.22754530782839
 20
219.4655639173545
 30
0.0
 11
298.22754530782851
 21
219.46556391735419
 31
0.0
  0
LINE
  5
384
  8
0
 10
295.22754530782839
 20
222.4655639173543
 30
0.0
 11
298.22754530782851
 21
219.46556391735419
 31
0.0
  0
LINE
  5
385
  8
0
 10
274.22754530782839
 20
219.4655639173547
 30
0.0
 11
277.22754530782851
 21
222.4655639173545
 31
0.0
  0
LINE
  5
386
  8
0
 10
274.22754530782839
 20
58.466067947336228
 30
0.0
 11
274.22754530782839
 21
60.965563917354082
 31
0.0
  0
LINE
  5
387
  8
3
 10
275.85154530782847
 20
56.842067947336197
 30
0.0
 11
275.85154530782847
 21
62.589563917354091
 31
0.0
  0
LINE
  5
388
  8
3
 10
296.6035453078282
 20
56.842067947336432
 30
0.0
 11
296.6035453078282
 21
62.589563917353992
 31
0.0
  0
LINE
  5
389
  8
0
 10
298.22754530782828
 20
58.466067947336569
 30
0.0
 11
298.22754530782828
 21
60.965563917353727
 31
0.0
  0
LINE
  5
38A
  8
0
 10
277.22754530782851
 20
222.4655639173545
 30
0.0
 11
295.22754530782839
 21
222.4655639173543
 31
0.0
  0
LINE
  5
38B
  8
2
 10
280.22754530782839
 20
222.46556391735439
 30
0.0
 11
280.22754530782839
 21
210.46556391735439
 31
0.0
  0
LINE
  5
38C
  8
2
 10
286.22754530782839
 20
222.46556391735439
 30
0.0
 11
286.22754530782839
 21
210.46556391735439
 31
0.0
  0
LINE
  5
38D
  8
2
 10
292.22754530782851
 20
222.46556391735439
 30
0.0
 11
292.22754530782851
 21
210.46556391735439
 31
0.0
  0
LINE
  5
38E
  8
2
 10
280.22754530782839
 20
210.46556391735439
 30
0.0
 11
292.22754530782851
 21
210.46556391735439
 31
0.0
  0
LINE
  5
38F
  8
2
 10
280.22754530782839
 20
210.46556391735439
 30
0.0
 11
286.22754530782839
 21
206.465563920612
 31
0.0
  0
LINE
  5
390
  8
2
 10
292.22754530782851
 20
210.46556391735439
 30
0.0
 11
286.22754530782839
 21
206.4655639206095
 31
0.0
  0
LINE
  5
391
  8
3
 10
275.85154530782842
 20
147.66581593234511
 30
0.0
 11
275.85154530782847
 21
221.0895639173545
 31
0.0
  0
LINE
  5
392
  8
0
 10
274.22754530782839
 20
147.66581593234551
 30
0.0
 11
274.22754530782839
 21
219.4655639173547
 31
0.0
  0
LINE
  5
393
  8
0
 10
298.22754530782851
 20
147.66581593234551
 30
0.0
 11
298.22754530782851
 21
219.46556391735419
 31
0.0
  0
LINE
  5
394
  8
3
 10
296.6035453078282
 20
147.66581593234551
 30
0.0
 11
296.60354530782843
 21
221.08956391735421
 31
0.0
  0
LINE
  5
395
  8
0
 10
238.27754530782821
 20
34.465563917354302
 30
0.0
 11
334.17754530782838
 21
34.465563917354302
 31
0.0
  0
LINE
  5
396
  8
0
 10
335.67754530782832
 20
40.465563917354302
 30
0.0
 11
334.17754530782838
 21
34.465563917354302
 31
0.0
  0
LINE
  5
397
  8
0
 10
236.77754530782821
 20
40.465563917354302
 30
0.0
 11
238.27754530782821
 21
34.465563917354302
 31
0.0
  0
LINE
  5
398
  8
0
 10
66.777545307828234
 20
40.465563917354302
 30
0.0
 11
68.277545307828177
 21
34.465563917354302
 31
0.0
  0
LINE
  5
399
  8
0
 10
165.6775453078283
 20
40.465563917354302
 30
0.0
 11
164.17754530782841
 21
34.465563917354302
 31
0.0
  0
LINE
  5
39A
  8
0
 10
68.277545307828177
 20
34.465563917354302
 30
0.0
 11
164.17754530782841
 21
34.465563917354302
 31
0.0
  0
LINE
  5
39B
  8
3
 10
126.6035453078282
 20
147.66581593234551
 30
0.0
 11
126.6035453078284
 21
221.08956391735421
 31
0.0
  0
LINE
  5
39C
  8
0
 10
128.22754530782851
 20
147.66581593234551
 30
0.0
 11
128.22754530782839
 21
219.46556391735419
 31
0.0
  0
LINE
  5
39D
  8
0
 10
104.22754530782839
 20
147.66581593234551
 30
0.0
 11
104.22754530782839
 21
219.4655639173547
 31
0.0
  0
LINE
  5
39E
  8
3
 10
105.8515453078283
 20
147.66581593234511
 30
0.0
 11
105.8515453078284
 21
221.0895639173545
 31
0.0
  0
LINE
  5
39F
  8
0
 10
269.22754530782851
 20
147.66581593234551
 30
0.0
 11
303.22754530782839
 21
147.6658159323454
 31
0.0
  0
LINE
  5
3A0
  8
0
 10
269.22754530782851
 20
128.6658159323454
 30
0.0
 11
303.22754530782862
 21
128.6658159323454
 31
0.0
  0
LINE
  5
3A1
  8
0
 10
265.44293563392932
 20
145.4807705183419
 30
0.0
 11
265.44293563392938
 21
130.85086134634881
 31
0.0
  0
LINE
  5
3A2
  8
0
 10
269.22754530782851
 20
147.66581593234551
 30
0.0
 11
265.44293563392932
 21
145.48077051834201
 31
0.0
  0
LINE
  5
3A3
  8
0
 10
275.8352404708794
 20
145.48077051834201
 30
0.0
 11
275.83524047087951
 21
130.85086134634881
 31
0.0
  0
LINE
  5
3A4
  8
0
 10
296.61985014478171
 20
145.48077051834201
 30
0.0
 11
296.61985014478182
 21
130.85086134634889
 31
0.0
  0
ARC
  5
3A5
  8
0
 10
286.2275453078305
 20
112.6961608540977
 30
0.0
 40
34.392304817516766
 50
72.412046226063154
 51
107.5879537739368
  0
ARC
  5
3A6
  8
0
 10
270.6390880524043
 20
137.8875037847607
 30
0.0
 40
9.2009618868538041
 50
55.615752532061599
 51
115.6157525320737
  0
ARC
  5
3A7
  8
0
 10
286.22754530783061
 20
163.63547101059331
 30
0.0
 40
34.392304817516766
 50
252.4120462260631
 51
287.58795377393682
  0
ARC
  5
3A8
  8
0
 10
270.63908805240442
 20
138.4441280799301
 30
0.0
 40
9.2009618868538041
 50
244.38424746792629
 51
304.38424746793839
  0
LINE
  5
3A9
  8
0
 10
269.22754530782868
 20
128.6658159323454
 30
0.0
 11
265.44293563392938
 21
130.85086134634881
 31
0.0
  0
LINE
  5
3AA
  8
0
 10
303.22754530782862
 20
128.6658159323454
 30
0.0
 11
307.0121549817278
 21
130.85086134634881
 31
0.0
  0
ARC
  5
3AB
  8
0
 10
301.81600256325282
 20
138.4441280799301
 30
0.0
 40
9.2009618868538041
 50
235.61575253206161
 51
295.61575253207371
  0
ARC
  5
3AC
  8
0
 10
301.81600256325271
 20
137.8875037847607
 30
0.0
 40
9.2009618868538041
 50
64.384247467926301
 51
124.38424746793839
  0
LINE
  5
3AD
  8
0
 10
303.22754530782839
 20
147.66581593234551
 30
0.0
 11
307.01215498172769
 21
145.48077051834201
 31
0.0
  0
LINE
  5
3AE
  8
0
 10
307.01215498172769
 20
145.4807705183419
 30
0.0
 11
307.0121549817278
 21
130.85086134634881
 31
0.0
  0
LINE
  5
3AF
  8
0
 10
116.22754530782809
 20
145.4807705183419
 30
0.0
 11
116.22754530782819
 21
130.85086134634889
 31
0.0
  0
LINE
  5
3B0
  8
0
 10
99.227545307828464
 20
128.66581593234531
 30
0.0
 11
133.22754530782811
 21
128.66581593234531
 31
0.0
  0
LINE
  5
3B1
  8
0
 10
134.22754529317709
 20
147.0884656716143
 30
0.0
 11
134.22754529317729
 21
129.24316619307641
 31
0.0
  0
LINE
  5
3B2
  8
0
 10
99.227545307828336
 20
147.6658159323454
 30
0.0
 11
133.227545307828
 21
147.6658159323454
 31
0.0
  0
LINE
  5
3B3
  8
0
 10
133.227545307828
 20
147.6658159323454
 30
0.0
 11
134.22754529317709
 21
147.08846567161439
 31
0.0
  0
ARC
  5
3B4
  8
0
 10
125.2275453005027
 20
121.0932751643023
 30
0.0
 40
25.995190507312159
 50
69.7438419996557
 51
110.2561580003443
  0
ARC
  5
3B5
  8
0
 10
125.2275453005028
 20
155.23835670038849
 30
0.0
 40
25.995190507312159
 50
249.7438419996557
 51
290.25615800034421
  0
LINE
  5
3B6
  8
0
 10
133.22754530782811
 20
128.66581593234531
 30
0.0
 11
134.22754529317729
 21
129.24316619307641
 31
0.0
  0
LINE
  5
3B7
  8
0
 10
99.227545307828464
 20
128.66581593234531
 30
0.0
 11
98.227545322479159
 21
129.24316619307641
 31
0.0
  0
ARC
  5
3B8
  8
0
 10
107.22754531515361
 20
155.23835670038849
 30
0.0
 40
25.995190507312159
 50
249.7438419996557
 51
290.25615800034421
  0
ARC
  5
3B9
  8
0
 10
107.22754531515351
 20
121.0932751643023
 30
0.0
 40
25.995190507312159
 50
69.7438419996557
 51
110.2561580003443
  0
LINE
  5
3BA
  8
0
 10
99.227545307828336
 20
147.6658159323454
 30
0.0
 11
98.227545322479045
 21
147.08846567161439
 31
0.0
  0
LINE
  5
3BB
  8
0
 10
98.227545322479045
 20
147.0884656716143
 30
0.0
 11
98.227545322479159
 21
129.24316619307641
 31
0.0
  0
CIRCLE
  5
3BC
  8
0
 10
116.22754530782839
 20
362.8660679473366
 30
0.0
 40
17.0
  0
LINE
  5
3BD
  8
0
 10
134.22754529317751
 20
373.2583727842968
 30
0.0
 11
134.22754529317751
 21
352.47376309347169
 31
0.0
  0
LINE
  5
3BE
  8
0
 10
134.2275452931629
 20
352.4737631103792
 30
0.0
 11
116.2275452931775
 21
342.08145826496298
 31
0.0
  0
LINE
  5
3BF
  8
0
 10
116.22754530783131
 20
342.08145827343589
 30
0.0
 11
98.227545307831292
 21
352.47376311884477
 31
0.0
  0
LINE
  5
3C0
  8
0
 10
98.227545322485085
 20
352.47376311039011
 30
0.0
 11
98.227545322485085
 21
373.25837280121527
 31
0.0
  0
LINE
  5
3C1
  8
0
 10
98.227545322485085
 20
373.25837278429498
 30
0.0
 11
116.227545322485
 21
383.65067762971131
 31
0.0
  0
LINE
  5
3C2
  8
0
 10
116.22754530783131
 20
383.6506776212384
 30
0.0
 11
134.22754530783129
 21
373.2583727758294
 31
0.0
  0
CIRCLE
  5
3C3
  8
0
 10
116.22754530782851
 20
362.8660679473366
 30
0.0
 40
12.0
  0
CIRCLE
  5
3C4
  8
3
 10
116.22754530782851
 20
362.8660679473366
 30
0.0
 40
10.375999999999999
  0
LINE
  5
3C5
  8
0
 10
109.2993420831942
 20
362.86606794733581
 30
0.0
 11
112.7634436983308
 21
368.86606794733581
 31
0.0
  0
LINE
  5
3C6
  8
0
 10
112.7634436955088
 20
356.86606795221979
 30
0.0
 11
109.2993420803702
 21
362.86606795221979
 31
0.0
  0
LINE
  5
3C7
  8
0
 10
119.69164692014419
 20
356.86606795221979
 30
0.0
 11
112.76344368986901
 21
356.86606795221979
 31
0.0
  0
LINE
  5
3C8
  8
0
 10
123.1557485324622
 20
362.86606794733581
 30
0.0
 11
119.6916469173257
 21
356.86606794733569
 31
0.0
  0
LINE
  5
3C9
  8
0
 10
119.6916469201476
 20
368.86606794244631
 30
0.0
 11
123.15574853528619
 21
362.86606794245171
 31
0.0
  0
LINE
  5
3CA
  8
0
 10
112.7634436955081
 20
368.86606794245182
 30
0.0
 11
119.6916469257833
 21
368.86606794245182
 31
0.0
  0
LINE
  5
3CB
  8
2
 10
123.15574853246621
 20
210.46556391735439
 30
0.0
 11
116.22754530782839
 21
206.4655639206095
 31
0.0
  0
LINE
  5
3CC
  8
2
 10
109.2993420831953
 20
210.46556391735439
 30
0.0
 11
116.22754530782839
 21
206.465563920612
 31
0.0
  0
LINE
  5
3CD
  8
2
 10
109.2993420831953
 20
210.46556391735439
 30
0.0
 11
123.15574853246621
 21
210.46556391735439
 31
0.0
  0
LINE
  5
3CE
  8
2
 10
123.15574853246621
 20
222.46556391735439
 30
0.0
 11
123.15574853246621
 21
210.46556391735439
 31
0.0
  0
LINE
  5
3CF
  8
2
 10
119.6916469201459
 20
222.46556391735439
 30
0.0
 11
119.6916469201459
 21
210.46556391735439
 31
0.0
  0
LINE
  5
3D0
  8
2
 10
112.76344369551239
 20
222.46556391735439
 30
0.0
 11
112.76344369551239
 21
210.46556391735439
 31
0.0
  0
LINE
  5
3D1
  8
2
 10
109.2993420831953
 20
222.46556391735439
 30
0.0
 11
109.2993420831953
 21
210.46556391735439
 31
0.0
  0
LINE
  5
3D2
  8
0
 10
107.22754530782839
 20
222.4655639173545
 30
0.0
 11
125.22754530782839
 21
222.4655639173543
 31
0.0
  0
LINE
  5
3D3
  8
0
 10
128.22754530782831
 20
58.466067947336569
 30
0.0
 11
128.22754530782851
 21
128.6658159323454
 31
0.0
  0
LINE
  5
3D4
  8
3
 10
126.6035453078282
 20
56.842067947336432
 30
0.0
 11
126.6035453078282
 21
128.6658159323454
 31
0.0
  0
LINE
  5
3D5
  8
3
 10
105.8515453078284
 20
56.842067947336197
 30
0.0
 11
105.8515453078283
 21
128.6658159323452
 31
0.0
  0
LINE
  5
3D6
  8
0
 10
104.22754530782839
 20
58.466067947336228
 30
0.0
 11
104.22754530782839
 21
128.6658159323454
 31
0.0
  0
LINE
  5
3D7
  8
0
 10
104.22754530782839
 20
219.4655639173547
 30
0.0
 11
107.22754530782839
 21
222.4655639173545
 31
0.0
  0
LINE
  5
3D8
  8
0
 10
125.22754530782839
 20
222.4655639173543
 30
0.0
 11
128.22754530782839
 21
219.46556391735419
 31
0.0
  0
LINE
  5
3D9
  8
0
 10
104.22754530782839
 20
219.4655639173545
 30
0.0
 11
128.22754530782839
 21
219.46556391735419
 31
0.0
  0
CIRCLE
  5
3DA
  8
0
 10
116.22754530782839
 20
362.8660679473366
 30
0.0
 40
38.049999999999727
  0
LINE
  5
3DB
  8
1
 10
116.22754530782839
 20
302.86606794733672
 30
0.0
 11
116.22754530782839
 21
422.8660679473366
 31
0.0
1001
GENIUS_GENOREF_13
1005
0
  0
CIRCLE
  5
3DC
  8
0
 10
116.22754530782839
 20
362.8660679473366
 30
0.0
 40
50.0
  0
LINE
  5
3DD
  8
1
 10
56.227545307828393
 20
362.8660679473366
 30
0.0
 11
176.22754530782839
 21
362.8660679473366
 31
0.0
1001
GENIUS_GENOREF_13
1005
0
  0
LINE
  5
3DE
  8
0
 10
154.22754530782831
 20
54.465563917354302
 30
0.0
 11
78.227545307828336
 21
54.465563917354302
 31
0.0
  0
LINE
  5
3DF
  8
0
 10
166.22754530782831
 20
40.465563917354302
 30
0.0
 11
66.227545307828336
 21
40.465563917354189
 31
0.0
  0
LINE
  5
3E0
  8
1
 10
116.22754530782839
 20
232.86606794733649
 30
0.0
 11
116.22754530782829
 21
24.465563917354189
 31
0.0
1001
GENIUS_GENODEF_13
1002
{
1000
HIER
1070
     0
1002
}
1002
{
1000
MANEDIT
1070
     0
1002
}
1002
{
1000
NOSEL
1070
     0
1002
}
1002
{
1000
BEHIND
1070
     0
1002
}
1002
{
1000
OTHER
1070
     0
1002
}
1002
{
1000
REACTOR
1002
}
1001
GENIUS_GENOBJ-N-CEN_13
1002
{
1000
OWNER
1000
GEN
1002
}
  0
ARC
  5
3E1
  8
0
 10
78.227545307828336
 20
42.465563917354302
 30
0.0
 40
12.0
 50
90.0
 51
180.0
1001
GENIUS_GENOBJ-N-FIL_13
1002
{
1000
OWNER
1000
GEN
1002
}
1001
GENIUS_GENODEF_13
1002
{
1000
HIER
1070
     0
1002
}
1002
{
1000
MANEDIT
1070
     0
1002
}
1002
{
1000
NOSEL
1070
     0
1002
}
1002
{
1000
BEHIND
1070
     0
1002
}
1002
{
1000
OTHER
1070
     0
1002
}
1002
{
1000
REACTOR
1002
}
  0
LINE
  5
3E2
  8
0
 10
66.227545307828336
 20
42.465563917354302
 30
0.0
 11
66.227545307828336
 21
40.465563917354302
 31
0.0
  0
LINE
  5
3E3
  8
0
 10
106.327545307828
 20
56.366067947336433
 30
0.0
 11
126.1275453078282
 21
56.366067947336433
 31
0.0
  0
LINE
  5
3E4
  8
0
 10
108.89610615852079
 20
72.465563917354302
 30
0.0
 11
123.55898445713579
 21
72.465563917354302
 31
0.0
  0
ARC
  5
3E5
  8
0
 10
116.22754530782829
 20
62.965563917354068
 30
0.0
 40
12.00000000000016
 50
52.341537993790418
 51
127.6584620062096
  0
LINE
  5
3E6
  8
0
 10
123.55898445713579
 20
63.465563917354302
 30
0.0
 11
108.89610615852079
 21
63.465563917354302
 31
0.0
  0
ARC
  5
3E7
  8
0
 10
116.22754530782829
 20
72.965563917354302
 30
0.0
 40
12.000000000000091
 50
232.34153799379041
 51
307.65846200620962
  0
LINE
  5
3E8
  8
0
 10
104.22754530782809
 20
58.466067947336342
 30
0.0
 11
128.22754530782839
 21
58.466067947336448
 31
0.0
  0
LINE
  5
3E9
  8
0
 10
108.89610615852079
 20
63.465563917354302
 30
0.0
 11
108.89610615852079
 21
72.465563917354302
 31
0.0
  0
LINE
  5
3EA
  8
0
 10
106.72754530782829
 20
71.21354472645271
 30
0.0
 11
106.72754530782829
 21
64.717583108255667
 31
0.0
  0
LINE
  5
3EB
  8
0
 10
108.89610615852079
 20
63.465563917354302
 30
0.0
 11
106.72754530782829
 21
64.717583108255667
 31
0.0
  0
ARC
  5
3EC
  8
0
 10
116.22754530782819
 20
47.651855418369443
 30
0.0
 40
11.999999999999931
 50
133.43253655778881
 51
140.9830250819509
  0
ARC
  5
3ED
  8
0
 10
105.3501125916527
 20
56.465563917354302
 30
0.0
 40
2.0
 50
270.0
 51
320.98302508195093
1001
GENIUS_GENOBJ-N-FIL_13
1002
{
1000
OWNER
1000
GEN
1002
}
1001
GENIUS_GENODEF_13
1002
{
1000
HIER
1070
     0
1002
}
1002
{
1000
MANEDIT
1070
     0
1002
}
1002
{
1000
NOSEL
1070
     0
1002
}
1002
{
1000
BEHIND
1070
     0
1002
}
1002
{
1000
OTHER
1070
     0
1002
}
1002
{
1000
REACTOR
1002
}
  0
LINE
  5
3EE
  8
0
 10
106.327545307828
 20
56.366067947336433
 30
0.0
 11
104.22754530782809
 21
58.466067947336342
 31
0.0
  0
LINE
  5
3EF
  8
0
 10
108.89610615852079
 20
72.465563917354302
 30
0.0
 11
106.72754530782829
 21
71.21354472645271
 31
0.0
  0
LINE
  5
3F0
  8
0
 10
125.72754530782829
 20
71.21354472645271
 30
0.0
 11
125.72754530782829
 21
64.717583108255667
 31
0.0
  0
LINE
  5
3F1
  8
0
 10
123.55898445713579
 20
72.465563917354302
 30
0.0
 11
123.55898445713579
 21
63.465563917354302
 31
0.0
  0
ARC
  5
3F2
  8
0
 10
127.1049780240039
 20
56.465563917354302
 30
0.0
 40
2.0
 50
219.0169749180491
 51
270.0
1001
GENIUS_GENOBJ-N-FIL_13
1002
{
1000
OWNER
1000
GEN
1002
}
1001
GENIUS_GENODEF_13
1002
{
1000
HIER
1070
     0
1002
}
1002
{
1000
MANEDIT
1070
     0
1002
}
1002
{
1000
NOSEL
1070
     0
1002
}
1002
{
1000
BEHIND
1070
     0
1002
}
1002
{
1000
OTHER
1070
     0
1002
}
1002
{
1000
REACTOR
1002
}
  0
LINE
  5
3F3
  8
0
 10
123.55898445713579
 20
63.465563917354302
 30
0.0
 11
125.72754530782829
 21
64.717583108255667
 31
0.0
  0
LINE
  5
3F4
  8
0
 10
126.1275453078282
 20
56.366067947336433
 30
0.0
 11
128.22754530782811
 21
58.466067947336342
 31
0.0
  0
ARC
  5
3F5
  8
0
 10
116.22754530782839
 20
47.651855418369443
 30
0.0
 40
11.999999999999931
 50
39.016974918049058
 51
46.567463442211199
  0
LINE
  5
3F6
  8
0
 10
123.55898445713579
 20
72.465563917354302
 30
0.0
 11
125.72754530782829
 21
71.21354472645271
 31
0.0
  0
ARC
  5
3F7
  8
0
 10
154.22754530782831
 20
42.465563917354302
 30
0.0
 40
12.0
 50
0.0
 51
90.0
1001
GENIUS_GENOBJ-N-FIL_13
1002
{
1000
OWNER
1000
GEN
1002
}
1001
GENIUS_GENODEF_13
1002
{
1000
HIER
1070
     0
1002
}
1002
{
1000
MANEDIT
1070
     0
1002
}
1002
{
1000
NOSEL
1070
     0
1002
}
1002
{
1000
BEHIND
1070
     0
1002
}
1002
{
1000
OTHER
1070
     0
1002
}
1002
{
1000
REACTOR
1002
}
  0
LINE
  5
3F8
  8
0
 10
166.22754530782831
 20
42.465563917354302
 30
0.0
 11
166.22754530782831
 21
40.465563917354302
 31
0.0
  0
TEXT
  5
579
  8
0
 62
     3
 10
0.0
 20
0.0
 30
0.0
 40
10.0
  1
LMR100-24B-SUS
  7
STANDARD1
  0
ENDSEC
  0
EOF
