  0
SECTION
  2
HEADER
  9
$ACADVER
  1
AC1009
  9
$INSBASE
 10
0.0
 20
0.0
 30
0.0
  9
$EXTMIN
 10
0.0
 20
-2.960436562073669
 30
0.0
  9
$EXTMAX
 10
155.61812686845491
 20
273.70886361337051
 30
0.0
  9
$LIMMIN
 10
0.0
 20
0.0
  9
$LIMMAX
 10
375.0
 20
270.0
  9
$ORTHOMODE
 70
     1
  9
$REGENMODE
 70
     1
  9
$FILLMODE
 70
     1
  9
$QTEXTMODE
 70
     0
  9
$MIRRTEXT
 70
     0
  9
$DRAGMODE
 70
     2
  9
$LTSCALE
 40
6.0
  9
$OSMODE
 70
  3071
  9
$ATTMODE
 70
     1
  9
$TEXTSIZE
 40
0.2
  9
$TRACEWID
 40
0.05
  9
$TEXTSTYLE
  7
STANDARD
  9
$CLAYER
  8
0
  9
$CELTYPE
  6
BYLAYER
  9
$CECOLOR
 62
   256
  9
$DIMSCALE
 40
1.0
  9
$DIMASZ
 40
3.0
  9
$DIMEXO
 40
1.0
  9
$DIMDLI
 40
6.0
  9
$DIMRND
 40
0.0
  9
$DIMDLE
 40
0.0
  9
$DIMEXE
 40
1.0
  9
$DIMTP
 40
495.0
  9
$DIMTM
 40
0.0
  9
$DIMTXT
 40
3.0
  9
$DIMCEN
 40
0.0
  9
$DIMTSZ
 40
0.0
  9
$DIMTOL
 70
     0
  9
$DIMLIM
 70
     0
  9
$DIMTIH
 70
     0
  9
$DIMTOH
 70
     0
  9
$DIMSE1
 70
     0
  9
$DIMSE2
 70
     0
  9
$DIMTAD
 70
     1
  9
$DIMZIN
 70
     0
  9
$DIMBLK
  1

  9
$DIMASO
 70
     0
  9
$DIMSHO
 70
     0
  9
$DIMPOST
  1

  9
$DIMAPOST
  1

  9
$DIMALT
 70
     0
  9
$DIMALTD
 70
     2
  9
$DIMALTF
 40
25.399999999999999
  9
$DIMLFAC
 40
1.0
  9
$DIMTOFL
 70
     1
  9
$DIMTVP
 40
0.0
  9
$DIMTIX
 70
     1
  9
$DIMSOXD
 70
     0
  9
$DIMSAH
 70
     0
  9
$DIMBLK1
  1

  9
$DIMBLK2
  1

  9
$DIMSTYLE
  2
STANDARD
  9
$DIMCLRD
 70
     0
  9
$DIMCLRE
 70
     0
  9
$DIMCLRT
 70
     4
  9
$DIMTFAC
 40
1.0
  9
$DIMGAP
 40
1.0
  9
$LUNITS
 70
     2
  9
$LUPREC
 70
     4
  9
$SKETCHINC
 40
0.1
  9
$FILLETRAD
 40
2.0
  9
$AUNITS
 70
     0
  9
$AUPREC
 70
     0
  9
$MENU
  1
C:\R13\WIN\SUPPORT\ACAD-I
  9
$ELEVATION
 40
0.0
  9
$PELEVATION
 40
0.0
  9
$THICKNESS
 40
0.0
  9
$LIMCHECK
 70
     0
  9
$BLIPMODE
 70
     0
  9
$CHAMFERA
 40
0.0
  9
$CHAMFERB
 40
0.0
  9
$SKPOLY
 70
     0
  9
$TDCREATE
 40
2451963.5882181828
  9
$TDUPDATE
 40
2456602.609597025
  9
$TDINDWG
 40
0.1245934375
  9
$TDUSRTIMER
 40
2456598.446714526
  9
$USRTIMER
 70
     1
  9
$ANGBASE
 50
0.0
  9
$ANGDIR
 70
     0
  9
$PDMODE
 70
     0
  9
$PDSIZE
 40
0.0
  9
$PLINEWID
 40
0.0
  9
$COORDS
 70
     1
  9
$SPLFRAME
 70
     0
  9
$SPLINETYPE
 70
     6
  9
$SPLINESEGS
 70
     8
  9
$ATTDIA
 70
     0
  9
$ATTREQ
 70
     1
  9
$HANDLING
 70
     1
  9
$HANDSEED
  5
E804
  9
$SURFTAB1
 70
     6
  9
$SURFTAB2
 70
     6
  9
$SURFTYPE
 70
     6
  9
$SURFU
 70
     6
  9
$SURFV
 70
     6
  9
$UCSNAME
  2

  9
$UCSORG
 10
0.0
 20
0.0
 30
0.0
  9
$UCSXDIR
 10
1.0
 20
0.0
 30
0.0
  9
$UCSYDIR
 10
0.0
 20
1.0
 30
0.0
  9
$PUCSNAME
  2

  9
$PUCSORG
 10
0.0
 20
0.0
 30
0.0
  9
$PUCSXDIR
 10
1.0
 20
0.0
 30
0.0
  9
$PUCSYDIR
 10
0.0
 20
1.0
 30
0.0
  9
$USERI1
 70
     4
  9
$USERI2
 70
     1
  9
$USERI3
 70
     0
  9
$USERI4
 70
     0
  9
$USERI5
 70
     0
  9
$USERR1
 40
1.0
  9
$USERR2
 40
3.0
  9
$USERR3
 40
3.0
  9
$USERR4
 40
3.0
  9
$USERR5
 40
10.0
  9
$WORLDVIEW
 70
     1
  9
$SHADEDGE
 70
     3
  9
$SHADEDIF
 70
    70
  9
$TILEMODE
 70
     1
  9
$MAXACTVP
 70
    16
  9
$PLIMCHECK
 70
     0
  9
$PEXTMIN
 10
1.0000000000000000E+020
 20
1.0000000000000000E+020
 30
1.0000000000000000E+020
  9
$PEXTMAX
 10
-1.0000000000000000E+020
 20
-1.0000000000000000E+020
 30
-1.0000000000000000E+020
  9
$PLIMMIN
 10
0.0
 20
0.0
  9
$PLIMMAX
 10
12.0
 20
9.0
  9
$UNITMODE
 70
     0
  9
$VISRETAIN
 70
     0
  9
$PLINEGEN
 70
     0
  9
$PSLTSCALE
 70
     0
  0
ENDSEC
  0
SECTION
  2
TABLES
  0
TABLE
  2
VPORT
 70
     1
  0
VPORT
  2
*ACTIVE
 70
     0
 10
0.0
 20
0.0
 11
1.0
 21
1.0
 12
246.34563831281201
 22
148.55798152292419
 13
0.0
 23
0.0
 14
10.0
 24
10.0
 15
10.0
 25
10.0
 16
0.0
 26
0.0
 36
1.0
 17
0.0
 27
0.0
 37
0.0
 40
346.05984632518351
 41
1.8318713450292401
 42
50.0
 43
0.0
 44
0.0
 50
0.0
 51
0.0
 71
    16
 72
   100
 73
     1
 74
     0
 75
     0
 76
     0
 77
     0
 78
     0
  0
ENDTAB
  0
TABLE
  2
LTYPE
 70
     3
  0
LTYPE
  2
CONTINUOUS
 70
     0
  3
Solid Line
 72
    65
 73
     0
 40
0.0
  0
LTYPE
  2
CENTER
 70
     0
  3
____ _ ____ _ ____ _ ____ _ ____ _ ____ _ ____
 72
    65
 73
     4
 40
2.0
 49
1.25
 49
-0.25
 49
0.25
 49
-0.25
  0
LTYPE
  2
PHANTOM2
 70
     0
  3
___ _ _ ___ _ _ ___ _ _ ___ _ _
 72
    65
 73
     6
 40
1.25
 49
0.625
 49
-0.125
 49
0.125
 49
-0.125
 49
0.125
 49
-0.125
  0
ENDTAB
  0
TABLE
  2
LAYER
 70
     3
  0
LAYER
  2
0
 70
     0
 62
     7
  6
CONTINUOUS
  0
LAYER
  2
1
 70
     0
 62
     1
  6
CENTER
  0
LAYER
  2
3
 70
     0
 62
     3
  6
CONTINUOUS
  0
ENDTAB
  0
TABLE
  2
STYLE
 70
     2
  0
STYLE
  2
STANDARD
 70
     0
 40
0.0
 41
1.0
 50
0.0
 71
     0
 42
0.2
  3
SIMPLEX
  4
BIGFONT
  0
STYLE
  2
STANDARD1
 70
     0
 40
0.0
 41
1.0
 50
0.0
 71
     0
 42
3.0
  3
txt
  4

  0
ENDTAB
  0
TABLE
  2
VIEW
 70
     0
  0
ENDTAB
  0
TABLE
  2
UCS
 70
     0
  0
ENDTAB
  0
TABLE
  2
APPID
 70
    29
  0
APPID
  2
ACAD
 70
     0
  0
APPID
  2
GENIUS_GENOREF_13
 70
     0
  0
APPID
  2
GENIUS_GENOENT_13
 70
     0
  0
APPID
  2
GENIUS_GENBH_13
 70
     0
  0
APPID
  2
GENIUS_GENOBJ_13
 70
     0
  0
APPID
  2
GENIUS_GENODEF_13
 70
     0
  0
APPID
  2
GENIUS_GENOLIS_13
 70
     0
  0
APPID
  2
GENIUS_GENOBJ-NBEHI-BHF_13
 70
     0
  0
APPID
  2
GENIUS_GENOBJ-NBEHI-BHB_13
 70
     0
  0
APPID
  2
GENIUS_GENOBJ-F-PART_13
 70
     0
  0
APPID
  2
GENIUS_GEFSTDP_13
 70
     0
  0
APPID
  2
GENIUS_GENOBJ-N-RSSYM_13
 70
     0
  0
APPID
  2
GENIUS_GENSYMENT_13
 70
     0
  0
APPID
  2
GENIUS_GENOBJ-N-TIT_13
 70
     0
  0
APPID
  2
GENIUS_GENTITLE_13
 70
     0
  0
APPID
  2
GENIUS_GENZVEED_13
 70
     0
  0
APPID
  2
GENIUS_GENOBJ-N-LEADER_13
 70
     0
  0
APPID
  2
GENIUS_GENOBJ-N-FIL_13
 70
     0
  0
APPID
  2
GENIUS_GENOBJ-N-SEC_13
 70
     0
  0
APPID
  2
GENIUS_GENOBJ-N-CRS_13
 70
     0
  0
APPID
  2
GENIUS_GENOBJ-N-ZOO_13
 70
     0
  0
APPID
  2
GENIUS_GENZOO_13
 70
     0
  0
APPID
  2
GENIUS_GENOBJ-F-TOL_13
 70
     0
  0
APPID
  2
GENIUS_GENFIL_13
 70
     0
  0
APPID
  2
GENIUS_GENOBJ-N-CHA_13
 70
     0
  0
APPID
  2
_CALL_MAC$
 70
     0
  0
APPID
  2
ACAD_EXEMPT_FROM_CAD_STANDARDS
 70
     0
  0
APPID
  2
ACAD_MLEADERVER
 70
     0
  0
APPID
  2
ACAD_NAV_VCDISPLAY
 70
     0
  0
ENDTAB
  0
TABLE
  2
DIMSTYLE
 70
     1
  0
DIMSTYLE
  2
STANDARD
 70
     0
  3

  4

  5

  6

  7

 40
1.0
 41
0.18
 42
0.0625
 43
0.38
 44
0.18
 45
0.0
 46
0.0
 47
0.0
 48
0.0
140
0.18
141
0.09
142
0.0
143
25.399999999999999
144
1.0
145
0.0
146
1.0
147
0.09
 71
     0
 72
     0
 73
     1
 74
     1
 75
     0
 76
     0
 77
     0
 78
     0
170
     0
171
     2
172
     0
173
     0
174
     0
175
     0
176
     0
177
     0
178
     0
  0
ENDTAB
  0
ENDSEC
  0
SECTION
  2
BLOCKS
  0
BLOCK
  8
0
  2
$MODEL_SPACE
 70
     0
 10
0.0
 20
0.0
 30
0.0
  3
$MODEL_SPACE
  1

  0
ENDBLK
  5
E383
  8
0
  0
BLOCK
 67
     1
  8
0
  2
$PAPER_SPACE
 70
     0
 10
0.0
 20
0.0
 30
0.0
  3
$PAPER_SPACE
  1

  0
ENDBLK
  5
E381
 67
     1
  8
0
  0
ENDSEC
  0
SECTION
  2
ENTITIES
  0
ARC
  5
E210
  8
0
 10
125.61812686845489
 20
50.553102000000003
 30
0.0
 40
11.75
 50
17.058806000000089
 51
30.373785999999971
  0
ARC
  5
E211
  8
0
 10
125.61812686845489
 20
50.553102000000003
 30
0.0
 40
11.75
 50
149.62621399999989
 51
162.94119399999991
  0
LINE
  5
E212
  8
0
 10
154.81812686845501
 20
30.0
 30
0.0
 11
96.41812686845492
 21
30.0
 31
0.0
  0
LINE
  5
E213
  8
0
 10
95.618126868454965
 20
38.5
 30
0.0
 11
155.61812686845491
 21
38.5
 31
0.0
  0
LINE
  5
E214
  8
0
 10
95.618126868454965
 20
30.800000000000001
 30
0.0
 11
155.61812686845491
 21
30.800000000000001
 31
0.0
  0
LINE
  5
E215
  8
0
 10
110.11812686845489
 20
45.499999999999993
 30
0.0
 11
95.618126868454965
 21
38.5
 31
0.0
  0
LINE
  5
E216
  8
0
 10
95.618126868454965
 20
30.800000000000001
 30
0.0
 11
95.618126868454965
 21
38.5
 31
0.0
  0
LINE
  5
E217
  8
0
 10
95.618126868454965
 20
30.800000000000001
 30
0.0
 11
96.41812686845492
 21
30.0
 31
0.0
  0
LINE
  5
E218
  8
0
 10
155.61812686845491
 20
38.5
 30
0.0
 11
155.61812686845491
 21
30.800000000000001
 31
0.0
  0
LINE
  5
E219
  8
0
 10
154.81812686845501
 20
30.0
 30
0.0
 11
155.61812686845491
 21
30.800000000000001
 31
0.0
  0
LINE
  5
E21A
  8
0
 10
138.11812686845491
 20
54.0
 30
0.0
 11
113.11812686845489
 21
54.0
 31
0.0
  0
LINE
  5
E21B
  8
0
 10
110.11812686845489
 20
45.499999999999993
 30
0.0
 11
141.11812686845499
 21
45.499999999999993
 31
0.0
  0
LINE
  5
E21C
  8
0
 10
113.11812686845489
 20
54.0
 30
0.0
 11
110.11812686845489
 21
45.499999999999993
 31
0.0
  0
LINE
  5
E21D
  8
0
 10
141.11812686845499
 20
45.499999999999993
 30
0.0
 11
155.61812686845491
 21
38.5
 31
0.0
  0
LINE
  5
E21E
  8
0
 10
138.11812686845491
 20
54.0
 30
0.0
 11
141.11812686845499
 21
45.499999999999993
 31
0.0
  0
LINE
  5
E228
  8
0
 10
116.5473218684549
 20
56.608510999999993
 30
0.0
 11
134.688931868455
 21
56.608510999999993
 31
0.0
  0
ARC
  5
E22D
  8
0
 10
114.61812686845489
 20
57.0
 30
0.0
 40
1.0
 50
329.62621399999972
 51
90.0
  0
ARC
  5
E235
  8
0
 10
136.61812686845491
 20
57.0
 30
0.0
 40
1.0
 50
90.0
 51
210.37378600000019
  0
CIRCLE
  5
E238
  8
0
 10
40.000000000001421
 20
238.70886361337051
 30
0.0
 40
30.0
  0
CIRCLE
  5
E239
  8
0
 10
40.000000000001421
 20
238.70886361337051
 30
0.0
 40
15.5
  0
LINE
  5
E23A
  8
3
 10
132.53562686845501
 20
72.0
 30
0.0
 11
133.61812686845499
 21
70.12505500080681
 31
0.0
  0
LINE
  5
E23B
  8
3
 10
118.7006268684549
 20
72.0
 30
0.0
 11
117.61812686845489
 21
70.12505500080681
 31
0.0
  0
LINE
  5
E23C
  8
0
 10
117.61812686845489
 20
72.0
 30
0.0
 11
133.61812686845499
 21
72.0
 31
0.0
  0
LINE
  5
E23D
  8
0
 10
133.61812686845499
 20
188.9999999999998
 30
0.0
 11
117.61812686845489
 21
189.0
 31
0.0
  0
LINE
  5
E23E
  8
0
 10
131.61812686845491
 20
190.99999999999989
 30
0.0
 11
133.61812686845499
 21
188.9999999999998
 31
0.0
  0
LINE
  5
E23F
  8
0
 10
117.61812686845489
 20
189.0
 30
0.0
 11
119.61812686845489
 21
191.0
 31
0.0
  0
LINE
  5
E240
  8
0
 10
117.61812686845489
 20
66.0
 30
0.0
 11
117.61812686845489
 21
88.000000000013387
 31
0.0
  0
LINE
  5
E241
  8
3
 10
118.7006268684549
 20
72.0
 30
0.0
 11
118.7006268684549
 21
88.000000000011553
 31
0.0
  0
LINE
  5
E242
  8
3
 10
132.53562686845501
 20
72.0
 30
0.0
 11
132.53562686845501
 21
87.999999999988447
 31
0.0
  0
LINE
  5
E243
  8
0
 10
133.61812686845499
 20
66.0
 30
0.0
 11
133.61812686845499
 21
87.999999999986656
 31
0.0
  0
LINE
  5
E244
  8
0
 10
119.61812686845489
 20
191.0
 30
0.0
 11
131.61812686845491
 21
190.99999999999989
 31
0.0
  0
LINE
  5
E245
  8
0
 10
34.0
 20
191.0
 30
0.0
 11
45.999999999999979
 21
190.99999999999989
 31
0.0
  0
LINE
  5
E246
  8
0
 10
47.999999999999979
 20
66.0
 30
0.0
 11
47.999999999999979
 21
88.000000000000114
 31
0.0
  0
LINE
  5
E247
  8
3
 10
46.917500000000061
 20
72.0
 30
0.0
 11
46.917500000000061
 21
88.000000000000114
 31
0.0
  0
LINE
  5
E248
  8
3
 10
33.082499999999982
 20
72.0
 30
0.0
 11
33.082499999999982
 21
88.000000000000114
 31
0.0
  0
LINE
  5
E249
  8
0
 10
32.0
 20
66.0
 30
0.0
 11
32.0
 21
88.000000000000114
 31
0.0
  0
LINE
  5
E24A
  8
0
 10
32.0
 20
189.0
 30
0.0
 11
34.0
 21
191.0
 31
0.0
  0
LINE
  5
E24B
  8
0
 10
45.999999999999979
 20
190.99999999999989
 30
0.0
 11
47.999999999999979
 21
188.9999999999998
 31
0.0
  0
LINE
  5
E24C
  8
0
 10
47.999999999999979
 20
188.9999999999998
 30
0.0
 11
32.0
 21
189.0
 31
0.0
  0
LINE
  5
E24D
  8
0
 10
32.0
 20
72.0
 30
0.0
 11
47.999999999999979
 21
72.0
 31
0.0
  0
LINE
  5
E24E
  8
3
 10
33.082499999999982
 20
72.0
 30
0.0
 11
32.0
 21
70.12505500080681
 31
0.0
  0
LINE
  5
E24F
  8
3
 10
46.917499999999997
 20
72.0
 30
0.0
 11
47.999999999999922
 21
70.12505500080681
 31
0.0
  0
ARC
  5
E250
  8
0
 10
50.999999999999979
 20
57.0
 30
0.0
 40
1.0
 50
90.0
 51
210.37378600000011
  0
ARC
  5
E252
  8
0
 10
29.0
 20
57.0
 30
0.0
 40
1.0
 50
329.62621399999978
 51
90.0
  0
LINE
  5
E253
  8
0
 10
30.929194999999989
 20
56.608510999999993
 30
0.0
 11
49.070804999999993
 21
56.608510999999993
 31
0.0
  0
LINE
  5
E255
  8
0
 10
52.499999999999993
 20
54.0
 30
0.0
 11
55.499999999999979
 21
45.499999999999993
 31
0.0
  0
LINE
  5
E256
  8
0
 10
55.499999999999979
 20
45.499999999999993
 30
0.0
 11
70.0
 21
38.5
 31
0.0
  0
LINE
  5
E257
  8
0
 10
27.5
 20
54.0
 30
0.0
 11
24.5
 21
45.499999999999993
 31
0.0
  0
LINE
  5
E258
  8
0
 10
24.5
 20
45.499999999999993
 30
0.0
 11
55.499999999999979
 21
45.499999999999993
 31
0.0
  0
LINE
  5
E259
  8
0
 10
52.499999999999993
 20
54.0
 30
0.0
 11
27.5
 21
54.0
 31
0.0
  0
LINE
  5
E25A
  8
0
 10
69.200000000000045
 20
30.0
 30
0.0
 11
70.0
 21
30.800000000000001
 31
0.0
  0
LINE
  5
E25B
  8
0
 10
70.0
 20
38.5
 30
0.0
 11
70.0
 21
30.800000000000001
 31
0.0
  0
LINE
  5
E25C
  8
0
 10
10.0
 20
30.800000000000001
 30
0.0
 11
10.80000000000001
 21
30.0
 31
0.0
  0
LINE
  5
E25D
  8
0
 10
10.0
 20
30.800000000000001
 30
0.0
 11
10.0
 21
38.5
 31
0.0
  0
LINE
  5
E25E
  8
0
 10
24.5
 20
45.499999999999993
 30
0.0
 11
10.0
 21
38.5
 31
0.0
  0
LINE
  5
E25F
  8
0
 10
10.0
 20
30.800000000000001
 30
0.0
 11
70.0
 21
30.800000000000001
 31
0.0
  0
LINE
  5
E260
  8
0
 10
10.0
 20
38.5
 30
0.0
 11
70.0
 21
38.5
 31
0.0
  0
LINE
  5
E261
  8
0
 10
69.200000000000045
 20
30.0
 30
0.0
 11
10.80000000000001
 21
30.0
 31
0.0
  0
ARC
  5
E262
  8
0
 10
40.0
 20
50.553102000000003
 30
0.0
 40
11.75
 50
149.62621399999989
 51
162.94119399999991
  0
ARC
  5
E263
  8
0
 10
40.0
 20
50.553102000000003
 30
0.0
 40
11.75
 50
17.0588060000001
 51
30.373785999999981
  0
LINE
  5
E271
  8
1
 10
39.99999999999995
 20
25.0
 30
0.0
 11
40.000000000001421
 21
196.0
 31
0.0
  0
LINE
  5
E272
  8
1
 10
125.61812686845489
 20
25.0
 30
0.0
 11
125.6181268684563
 21
196.0
 31
0.0
  0
LINE
  5
E273
  8
1
 10
40.000000000001421
 20
273.70886361337051
 30
0.0
 11
40.000000000001421
 21
203.70886361337051
 31
0.0
  0
LINE
  5
E274
  8
1
 10
75.000000000001364
 20
238.70886361337051
 30
0.0
 11
5.0000000000014211
 21
238.70886361337051
 31
0.0
  0
LINE
  5
E275
  8
0
 10
46.928203230276822
 20
250.70886361337051
 30
0.0
 11
33.0717967697259
 21
250.70886361337051
 31
0.0
  0
LINE
  5
E276
  8
0
 10
33.0717967697259
 20
250.70886361337051
 30
0.0
 11
26.143593539450311
 21
238.70886361337051
 31
0.0
  0
LINE
  5
E277
  8
0
 10
26.143593539450311
 20
238.70886361337051
 30
0.0
 11
33.0717967697259
 21
226.70886361337051
 31
0.0
  0
LINE
  5
E278
  8
0
 10
33.0717967697259
 20
226.70886361337051
 30
0.0
 11
46.928203230276822
 21
226.70886361337051
 31
0.0
  0
LINE
  5
E279
  8
0
 10
46.928203230276822
 20
226.70886361337051
 30
0.0
 11
53.8564064605524
 21
238.70886361337051
 31
0.0
  0
LINE
  5
E27A
  8
0
 10
53.8564064605524
 20
238.70886361337051
 30
0.0
 11
46.928203230276822
 21
250.70886361337051
 31
0.0
  0
CIRCLE
  5
E27B
  8
0
 10
40.000000000001357
 20
238.70886361337051
 30
0.0
 40
11.5
  0
CIRCLE
  5
E27C
  8
0
 10
40.000000000001357
 20
238.70886361337051
 30
0.0
 40
8.0
  0
CIRCLE
  5
E27D
  8
3
 10
40.000000000001357
 20
238.70886361337051
 30
0.0
 40
6.9175000000000004
  0
ARC
  5
E27E
  8
0
 10
131.61812686848879
 20
83.38119784806922
 30
0.0
 40
17.330127017333279
 50
69.743841997639095
 51
110.25615800236091
  0
LINE
  5
E27F
  8
0
 10
137.61812686850379
 20
100.7113248654025
 30
0.0
 11
137.11812686848879
 21
101.0000000000059
 31
0.0
  0
LINE
  5
E280
  8
0
 10
137.61812686850379
 20
88.288675134584196
 30
0.0
 11
137.11812686848879
 21
87.999999999980787
 31
0.0
  0
ARC
  5
E281
  8
0
 10
131.61812686848879
 20
105.61880215191751
 30
0.0
 40
17.330127017333279
 50
249.74384199763909
 51
290.25615800236091
  0
LINE
  5
E282
  8
0
 10
137.61812686850379
 20
100.7113248654025
 30
0.0
 11
137.61812686848879
 21
88.288675134575556
 31
0.0
  0
LINE
  5
E283
  8
0
 10
125.6181268684888
 20
89.360471904413416
 30
0.0
 11
125.6181268684888
 21
99.639528095573326
 31
0.0
  0
LINE
  5
E284
  8
0
 10
113.61812686847379
 20
100.7113248654025
 30
0.0
 11
113.6181268684888
 21
88.288675134575556
 31
0.0
  0
ARC
  5
E285
  8
0
 10
119.6181268684888
 20
105.61880215191751
 30
0.0
 40
17.330127017333279
 50
249.74384199763909
 51
290.25615800236091
  0
LINE
  5
E286
  8
0
 10
113.61812686847379
 20
88.288675134584196
 30
0.0
 11
114.1181268684888
 21
87.999999999980787
 31
0.0
  0
LINE
  5
E287
  8
0
 10
113.61812686847379
 20
100.7113248654025
 30
0.0
 11
114.1181268684888
 21
101.0000000000059
 31
0.0
  0
ARC
  5
E288
  8
0
 10
119.6181268684888
 20
83.38119784806922
 30
0.0
 40
17.330127017333279
 50
69.743841997639095
 51
110.25615800236091
  0
LINE
  5
E289
  8
0
 10
114.11812686842239
 20
100.9999999999675
 30
0.0
 11
137.11812686848879
 21
101.0000000000059
 31
0.0
  0
LINE
  5
E28A
  8
0
 10
137.11812686848879
 20
87.999999999980787
 30
0.0
 11
114.11812686842239
 21
88.000000000019199
 31
0.0
  0
ARC
  5
E28B
  8
0
 10
40.000000000000682
 20
77.783121637243923
 30
0.0
 40
22.928203228139491
 50
72.412046224313997
 51
107.587953775686
  0
ARC
  5
E28C
  8
0
 10
29.607695154587191
 20
94.577350269662631
 30
0.0
 40
6.1339745957208214
 50
55.615752528792193
 51
115.6157525301481
  0
LINE
  5
E28D
  8
0
 10
26.143593539427691
 20
99.639528095554226
 30
0.0
 11
28.500000000108461
 21
100.9999999999484
 31
0.0
  0
LINE
  5
E28E
  8
0
 10
26.143593539427691
 20
89.360471904394331
 30
0.0
 11
28.500000000108461
 21
88.000000000000114
 31
0.0
  0
ARC
  5
E28F
  8
0
 10
29.607695154587191
 20
94.422649730285897
 30
0.0
 40
6.1339745957208214
 50
244.38424746985191
 51
304.3842474712078
  0
ARC
  5
E290
  8
0
 10
40.000000000000682
 20
111.21687836270461
 30
0.0
 40
22.928203228139491
 50
252.412046224314
 51
287.587953775686
  0
LINE
  5
E291
  8
0
 10
26.143593539449508
 20
99.639528095554226
 30
0.0
 11
26.143593539449508
 21
89.360471904381725
 31
0.0
  0
LINE
  5
E292
  8
0
 10
33.071796769725331
 20
99.639528095554226
 30
0.0
 11
33.071796769725331
 21
89.360471904394331
 31
0.0
  0
LINE
  5
E293
  8
0
 10
46.928203230276033
 20
99.639528095554226
 30
0.0
 11
46.928203230276033
 21
89.360471904394331
 31
0.0
  0
LINE
  5
E294
  8
0
 10
53.856406460551831
 20
99.639528095554226
 30
0.0
 11
53.856406460551831
 21
89.360471904381725
 31
0.0
  0
ARC
  5
E295
  8
0
 10
50.392304845414159
 20
94.422649730285897
 30
0.0
 40
6.1339745957208214
 50
235.6157525287922
 51
295.61575253014809
  0
LINE
  5
E296
  8
0
 10
53.856406460573673
 20
89.360471904394331
 30
0.0
 11
51.499999999892893
 21
88.000000000000114
 31
0.0
  0
LINE
  5
E297
  8
0
 10
53.856406460573673
 20
99.639528095554226
 30
0.0
 11
51.499999999892893
 21
100.9999999999484
 31
0.0
  0
ARC
  5
E298
  8
0
 10
50.392304845414159
 20
94.577350269662631
 30
0.0
 40
6.1339745957208214
 50
64.3842474698519
 51
124.3842474712078
  0
LINE
  5
E299
  8
0
 10
28.500000000000679
 20
100.9999999999484
 30
0.0
 11
51.499999999892893
 21
100.9999999999484
 31
0.0
  0
LINE
  5
E29A
  8
0
 10
51.499999999892893
 20
88.000000000000114
 30
0.0
 11
28.500000000108461
 21
88.000000000000114
 31
0.0
  0
LINE
  5
E29B
  8
0
 10
133.61812686845499
 20
101.0000000000001
 30
0.0
 11
133.61812686845499
 21
188.9999999999998
 31
0.0
  0
LINE
  5
E29C
  8
3
 10
132.53562686845501
 20
100.99999999999829
 30
0.0
 11
132.53562686845501
 21
190.08249999999981
 31
0.0
  0
LINE
  5
E29D
  8
3
 10
118.7006268684549
 20
100.9999999999752
 30
0.0
 11
118.7006268684549
 21
190.08250000000001
 31
0.0
  0
LINE
  5
E29E
  8
0
 10
117.61812686845489
 20
100.9999999999733
 30
0.0
 11
117.61812686845489
 21
189.0
 31
0.0
  0
LINE
  5
E29F
  8
0
 10
47.999999999999979
 20
100.9999999999484
 30
0.0
 11
47.999999999999979
 21
188.9999999999998
 31
0.0
  0
LINE
  5
E2A0
  8
3
 10
46.917500000000061
 20
100.9999999999484
 30
0.0
 11
46.917499999999997
 21
190.08249999999981
 31
0.0
  0
LINE
  5
E2A1
  8
3
 10
33.082499999999982
 20
100.9999999999484
 30
0.0
 11
33.082499999999982
 21
190.08250000000001
 31
0.0
  0
LINE
  5
E2A2
  8
0
 10
32.0
 20
100.9999999999484
 30
0.0
 11
32.0
 21
189.0
 31
0.0
  0
LINE
  5
E604
  8
0
 10
40.000000000033531
 20
59.360824731064064
 30
0.0
 11
40.000000000033531
 21
64.639175268939326
 31
0.0
  0
ARC
  5
E641
  8
0
 10
46.000000000033538
 20
48.381197848086103
 30
0.0
 40
17.330127017333279
 50
69.743841997639095
 51
110.25615800236091
  0
LINE
  5
E642
  8
0
 10
52.000000000048537
 20
65.711324865419428
 30
0.0
 11
51.500000000033538
 21
66.000000000022837
 31
0.0
  0
LINE
  5
E643
  8
0
 10
52.000000000048431
 20
58.288675134581602
 30
0.0
 11
51.500000000033417
 21
57.999999999978193
 31
0.0
  0
ARC
  5
E644
  8
0
 10
46.000000000033417
 20
75.618802151914949
 30
0.0
 40
17.330127017333279
 50
249.74384199763909
 51
290.25615800236091
  0
LINE
  5
E645
  8
0
 10
52.000000000048537
 20
65.711324865419428
 30
0.0
 11
52.000000000036721
 21
58.288675134574831
 31
0.0
  0
LINE
  5
E646
  8
0
 10
28.000000000018531
 20
65.711324865419428
 30
0.0
 11
28.000000000030301
 21
58.288675134574738
 31
0.0
  0
ARC
  5
E647
  8
0
 10
34.000000000033431
 20
75.618802151914949
 30
0.0
 40
17.330127017333279
 50
249.74384199763909
 51
290.25615800236091
  0
LINE
  5
E648
  8
0
 10
28.000000000018421
 20
58.288675134581602
 30
0.0
 11
28.500000000033431
 21
57.999999999978193
 31
0.0
  0
LINE
  5
E649
  8
0
 10
28.000000000018531
 20
65.711324865419428
 30
0.0
 11
28.500000000033541
 21
66.000000000022837
 31
0.0
  0
ARC
  5
E64A
  8
0
 10
34.000000000033538
 20
48.381197848086103
 30
0.0
 40
17.330127017333279
 50
69.743841997639095
 51
110.25615800236091
  0
LINE
  5
E64B
  8
0
 10
28.499999999967152
 20
65.999999999984411
 30
0.0
 11
51.500000000033538
 21
66.000000000022837
 31
0.0
  0
LINE
  5
E64C
  8
0
 10
51.500000000033417
 20
57.999999999978193
 30
0.0
 11
28.499999999967031
 21
58.000000000016612
 31
0.0
  0
ARC
  5
E64D
  8
0
 10
125.61812686850919
 20
42.783121637299111
 30
0.0
 40
22.928203228139491
 50
72.412046224314778
 51
107.58795377568509
  0
ARC
  5
E64E
  8
0
 10
115.2258220230957
 20
59.577350269717819
 30
0.0
 40
6.1339745957208214
 50
55.615752528792193
 51
115.615752530148
  0
LINE
  5
E64F
  8
0
 10
111.7617204079362
 20
64.639528095609407
 30
0.0
 11
114.1181268686169
 21
66.000000000003624
 31
0.0
  0
LINE
  5
E650
  8
0
 10
111.76172040788219
 20
59.360471904391609
 30
0.0
 11
114.1181268685629
 21
57.999999999997399
 31
0.0
  0
ARC
  5
E651
  8
0
 10
115.2258220230417
 20
64.422649730283183
 30
0.0
 40
6.1339745957208214
 50
244.384247469852
 51
304.3842474712078
  0
ARC
  5
E652
  8
0
 10
125.61812686845521
 20
81.216878362701905
 30
0.0
 40
22.928203228139491
 50
252.41204622431439
 51
287.58795377568509
  0
LINE
  5
E653
  8
0
 10
111.76172040795799
 20
64.639528095609407
 30
0.0
 11
111.76172040795799
 21
59.360471904347818
 31
0.0
  0
LINE
  5
E654
  8
0
 10
118.68992363817981
 20
64.639528095592297
 30
0.0
 11
118.68992363817981
 21
59.360471904391609
 31
0.0
  0
LINE
  5
E655
  8
0
 10
132.54633009873049
 20
64.639528095626545
 30
0.0
 11
132.54633009873049
 21
59.360471904391609
 31
0.0
  0
LINE
  5
E656
  8
0
 10
139.47453332906031
 20
64.639528095609407
 30
0.0
 11
139.47453332906031
 21
59.360471904410197
 31
0.0
  0
ARC
  5
E657
  8
0
 10
136.01043171386871
 20
64.422649730283183
 30
0.0
 40
6.1339745957208214
 50
235.61575252879209
 51
295.61575253014809
  0
LINE
  5
E658
  8
0
 10
139.47453332902819
 20
59.360471904391609
 30
0.0
 11
137.11812686834739
 21
57.999999999997399
 31
0.0
  0
LINE
  5
E659
  8
0
 10
139.47453332908219
 20
64.639528095609407
 30
0.0
 11
137.11812686840139
 21
66.000000000003624
 31
0.0
  0
ARC
  5
E65A
  8
0
 10
136.01043171392271
 20
59.577350269717819
 30
0.0
 40
6.1339745957208214
 50
64.384247469851829
 51
124.3842474712077
  0
LINE
  5
E65B
  8
0
 10
114.11812686850919
 20
66.000000000003624
 30
0.0
 11
137.11812686840139
 21
66.000000000003624
 31
0.0
  0
LINE
  5
E65C
  8
0
 10
137.11812686834739
 20
57.999999999997399
 30
0.0
 11
114.1181268685629
 21
57.999999999997399
 31
0.0
  0
LINE
  5
E65D
  8
0
 10
39.999999999999893
 20
252.56527007392151
 30
0.0
 11
36.784609690826471
 21
250.70886361337051
 31
0.0
  0
LINE
  5
E65E
  8
0
 10
31.215390309175461
 20
247.49347330419809
 30
0.0
 11
27.99999999999989
 21
245.6370668436459
 31
0.0
  0
LINE
  5
E65F
  8
0
 10
51.999999999999943
 20
245.6370668436459
 30
0.0
 11
48.784609690828511
 21
247.4934733041957
 31
0.0
  0
LINE
  5
E660
  8
0
 10
43.215390309173301
 20
250.70886361337051
 30
0.0
 11
39.999999999999893
 21
252.56527007392151
 31
0.0
  0
LINE
  5
E661
  8
0
 10
51.999999999999943
 20
231.7806603830949
 30
0.0
 11
51.999999999999943
 21
235.49347330419451
 31
0.0
  0
LINE
  5
E662
  8
0
 10
51.999999999999943
 20
241.92425392254631
 30
0.0
 11
51.999999999999943
 21
245.6370668436459
 31
0.0
  0
LINE
  5
E663
  8
0
 10
39.999999999999893
 20
224.85245715281931
 30
0.0
 11
43.215390309173472
 21
226.70886361337051
 31
0.0
  0
LINE
  5
E664
  8
0
 10
48.784609690828511
 20
229.92425392254509
 30
0.0
 11
51.999999999999943
 21
231.7806603830949
 31
0.0
  0
LINE
  5
E665
  8
0
 10
27.99999999999989
 20
231.7806603830949
 30
0.0
 11
31.215390309175461
 21
229.9242539225427
 31
0.0
  0
LINE
  5
E666
  8
0
 10
36.784609690826301
 20
226.70886361337051
 30
0.0
 11
39.999999999999893
 21
224.85245715281931
 31
0.0
  0
LINE
  5
E667
  8
0
 10
27.99999999999989
 20
245.6370668436459
 30
0.0
 11
27.99999999999989
 21
241.92425392254151
 31
0.0
  0
LINE
  5
E668
  8
0
 10
27.99999999999989
 20
235.4934733041994
 30
0.0
 11
27.99999999999989
 21
231.7806603830949
 31
0.0
  0
TEXT
  5
E791
  8
0
 62
     3
 10
0.0
 20
0.0
 30
0.0
 40
10.0
  1
LM60-16B-SUS
  7
STANDARD1
  0
ENDSEC
  0
EOF
