  0
SECTION
  2
HEADER
  9
$ACADVER
  1
AC1009
  9
$INSBASE
 10
0.0
 20
0.0
 30
0.0
  9
$EXTMIN
 10
0.0
 20
-2.960436562073669
 30
0.0
  9
$EXTMAX
 10
90.061391541609808
 20
163.97002341334451
 30
0.0
  9
$LIMMIN
 10
0.0
 20
0.0
  9
$LIMMAX
 10
375.0
 20
270.0
  9
$ORTHOMODE
 70
     1
  9
$REGENMODE
 70
     1
  9
$FILLMODE
 70
     1
  9
$QTEXTMODE
 70
     0
  9
$MIRRTEXT
 70
     0
  9
$DRAGMODE
 70
     2
  9
$LTSCALE
 40
6.0
  9
$OSMODE
 70
  3071
  9
$ATTMODE
 70
     1
  9
$TEXTSIZE
 40
0.2
  9
$TRACEWID
 40
0.05
  9
$TEXTSTYLE
  7
STANDARD
  9
$CLAYER
  8
0
  9
$CELTYPE
  6
BYLAYER
  9
$CECOLOR
 62
   256
  9
$DIMSCALE
 40
1.0
  9
$DIMASZ
 40
3.0
  9
$DIMEXO
 40
1.0
  9
$DIMDLI
 40
6.0
  9
$DIMRND
 40
0.0
  9
$DIMDLE
 40
0.0
  9
$DIMEXE
 40
1.0
  9
$DIMTP
 40
495.0
  9
$DIMTM
 40
0.0
  9
$DIMTXT
 40
3.0
  9
$DIMCEN
 40
0.0
  9
$DIMTSZ
 40
0.0
  9
$DIMTOL
 70
     0
  9
$DIMLIM
 70
     0
  9
$DIMTIH
 70
     0
  9
$DIMTOH
 70
     0
  9
$DIMSE1
 70
     0
  9
$DIMSE2
 70
     0
  9
$DIMTAD
 70
     1
  9
$DIMZIN
 70
     0
  9
$DIMBLK
  1

  9
$DIMASO
 70
     0
  9
$DIMSHO
 70
     0
  9
$DIMPOST
  1

  9
$DIMAPOST
  1

  9
$DIMALT
 70
     0
  9
$DIMALTD
 70
     2
  9
$DIMALTF
 40
25.399999999999999
  9
$DIMLFAC
 40
1.0
  9
$DIMTOFL
 70
     1
  9
$DIMTVP
 40
0.0
  9
$DIMTIX
 70
     1
  9
$DIMSOXD
 70
     0
  9
$DIMSAH
 70
     0
  9
$DIMBLK1
  1

  9
$DIMBLK2
  1

  9
$DIMSTYLE
  2
STANDARD
  9
$DIMCLRD
 70
     0
  9
$DIMCLRE
 70
     0
  9
$DIMCLRT
 70
     4
  9
$DIMTFAC
 40
1.0
  9
$DIMGAP
 40
1.0
  9
$LUNITS
 70
     2
  9
$LUPREC
 70
     4
  9
$SKETCHINC
 40
0.1
  9
$FILLETRAD
 40
2.0
  9
$AUNITS
 70
     0
  9
$AUPREC
 70
     0
  9
$MENU
  1
C:\R13\WIN\SUPPORT\ACAD-I
  9
$ELEVATION
 40
0.0
  9
$PELEVATION
 40
0.0
  9
$THICKNESS
 40
0.0
  9
$LIMCHECK
 70
     0
  9
$BLIPMODE
 70
     0
  9
$CHAMFERA
 40
0.0
  9
$CHAMFERB
 40
0.0
  9
$SKPOLY
 70
     0
  9
$TDCREATE
 40
2451963.576788438
  9
$TDUPDATE
 40
2456602.6123804739
  9
$TDINDWG
 40
0.0539835532
  9
$TDUSRTIMER
 40
2456598.4441730208
  9
$USRTIMER
 70
     1
  9
$ANGBASE
 50
0.0
  9
$ANGDIR
 70
     0
  9
$PDMODE
 70
     0
  9
$PDSIZE
 40
0.0
  9
$PLINEWID
 40
0.0
  9
$COORDS
 70
     1
  9
$SPLFRAME
 70
     0
  9
$SPLINETYPE
 70
     6
  9
$SPLINESEGS
 70
     8
  9
$ATTDIA
 70
     0
  9
$ATTREQ
 70
     1
  9
$HANDLING
 70
     1
  9
$HANDSEED
  5
DBDA
  9
$SURFTAB1
 70
     6
  9
$SURFTAB2
 70
     6
  9
$SURFTYPE
 70
     6
  9
$SURFU
 70
     6
  9
$SURFV
 70
     6
  9
$UCSNAME
  2

  9
$UCSORG
 10
0.0
 20
0.0
 30
0.0
  9
$UCSXDIR
 10
1.0
 20
0.0
 30
0.0
  9
$UCSYDIR
 10
0.0
 20
1.0
 30
0.0
  9
$PUCSNAME
  2

  9
$PUCSORG
 10
0.0
 20
0.0
 30
0.0
  9
$PUCSXDIR
 10
1.0
 20
0.0
 30
0.0
  9
$PUCSYDIR
 10
0.0
 20
1.0
 30
0.0
  9
$USERI1
 70
     4
  9
$USERI2
 70
     1
  9
$USERI3
 70
     0
  9
$USERI4
 70
     0
  9
$USERI5
 70
     0
  9
$USERR1
 40
1.0
  9
$USERR2
 40
3.0
  9
$USERR3
 40
3.0
  9
$USERR4
 40
3.0
  9
$USERR5
 40
10.0
  9
$WORLDVIEW
 70
     1
  9
$SHADEDGE
 70
     3
  9
$SHADEDIF
 70
    70
  9
$TILEMODE
 70
     1
  9
$MAXACTVP
 70
    16
  9
$PLIMCHECK
 70
     0
  9
$PEXTMIN
 10
1.0000000000000000E+020
 20
1.0000000000000000E+020
 30
1.0000000000000000E+020
  9
$PEXTMAX
 10
-1.0000000000000000E+020
 20
-1.0000000000000000E+020
 30
-1.0000000000000000E+020
  9
$PLIMMIN
 10
0.0
 20
0.0
  9
$PLIMMAX
 10
12.0
 20
9.0
  9
$UNITMODE
 70
     0
  9
$VISRETAIN
 70
     0
  9
$PLINEGEN
 70
     0
  9
$PSLTSCALE
 70
     0
  0
ENDSEC
  0
SECTION
  2
TABLES
  0
TABLE
  2
VPORT
 70
     1
  0
VPORT
  2
*ACTIVE
 70
     0
 10
0.0
 20
0.0
 11
1.0
 21
1.0
 12
271.58865506367027
 22
72.430507105172126
 13
0.0
 23
0.0
 14
10.0
 24
10.0
 15
10.0
 25
10.0
 16
0.0
 26
0.0
 36
1.0
 17
0.0
 27
0.0
 37
0.0
 40
346.05984632518351
 41
1.8318713450292401
 42
50.0
 43
0.0
 44
0.0
 50
0.0
 51
0.0
 71
    16
 72
   100
 73
     1
 74
     0
 75
     0
 76
     0
 77
     0
 78
     0
  0
ENDTAB
  0
TABLE
  2
LTYPE
 70
     3
  0
LTYPE
  2
CONTINUOUS
 70
     0
  3
Solid Line
 72
    65
 73
     0
 40
0.0
  0
LTYPE
  2
CENTER
 70
     0
  3
____ _ ____ _ ____ _ ____ _ ____ _ ____ _ ____
 72
    65
 73
     4
 40
2.0
 49
1.25
 49
-0.25
 49
0.25
 49
-0.25
  0
LTYPE
  2
PHANTOM2
 70
     0
  3
___ _ _ ___ _ _ ___ _ _ ___ _ _
 72
    65
 73
     6
 40
1.25
 49
0.625
 49
-0.125
 49
0.125
 49
-0.125
 49
0.125
 49
-0.125
  0
ENDTAB
  0
TABLE
  2
LAYER
 70
     3
  0
LAYER
  2
0
 70
     0
 62
     7
  6
CONTINUOUS
  0
LAYER
  2
1
 70
     0
 62
     1
  6
CENTER
  0
LAYER
  2
3
 70
     0
 62
     3
  6
CONTINUOUS
  0
ENDTAB
  0
TABLE
  2
STYLE
 70
     2
  0
STYLE
  2
STANDARD
 70
     0
 40
0.0
 41
1.0
 50
0.0
 71
     0
 42
0.2
  3
SIMPLEX
  4
BIGFONT
  0
STYLE
  2
STANDARD1
 70
     0
 40
0.0
 41
1.0
 50
0.0
 71
     0
 42
3.0
  3
txt
  4

  0
ENDTAB
  0
TABLE
  2
VIEW
 70
     1
  0
VIEW
  2
OLE1
 70
     0
 40
158.8104670347528
 10
102.644155563426
 20
179.51070895419809
 41
285.17578489036259
 11
0.0
 21
0.0
 31
1.0
 12
0.0
 22
0.0
 32
0.0
 42
50.0
 43
0.0
 44
0.0
 50
0.0
 71
     0
  0
ENDTAB
  0
TABLE
  2
UCS
 70
     0
  0
ENDTAB
  0
TABLE
  2
APPID
 70
    29
  0
APPID
  2
ACAD
 70
     0
  0
APPID
  2
GENIUS_GENOREF_13
 70
     0
  0
APPID
  2
GENIUS_GENOENT_13
 70
     0
  0
APPID
  2
GENIUS_GENBH_13
 70
     0
  0
APPID
  2
GENIUS_GENOBJ_13
 70
     0
  0
APPID
  2
GENIUS_GENODEF_13
 70
     0
  0
APPID
  2
GENIUS_GENOLIS_13
 70
     0
  0
APPID
  2
GENIUS_GENOBJ-NBEHI-BHF_13
 70
     0
  0
APPID
  2
GENIUS_GENOBJ-NBEHI-BHB_13
 70
     0
  0
APPID
  2
GENIUS_GENOBJ-F-PART_13
 70
     0
  0
APPID
  2
GENIUS_GEFSTDP_13
 70
     0
  0
APPID
  2
GENIUS_GENOBJ-N-RSSYM_13
 70
     0
  0
APPID
  2
GENIUS_GENSYMENT_13
 70
     0
  0
APPID
  2
GENIUS_GENOBJ-N-TIT_13
 70
     0
  0
APPID
  2
GENIUS_GENTITLE_13
 70
     0
  0
APPID
  2
GENIUS_GENZVEED_13
 70
     0
  0
APPID
  2
GENIUS_GENOBJ-N-LEADER_13
 70
     0
  0
APPID
  2
GENIUS_GENOBJ-N-FIL_13
 70
     0
  0
APPID
  2
GENIUS_GENOBJ-N-SEC_13
 70
     0
  0
APPID
  2
GENIUS_GENOBJ-N-CRS_13
 70
     0
  0
APPID
  2
GENIUS_GENOBJ-N-ZOO_13
 70
     0
  0
APPID
  2
GENIUS_GENZOO_13
 70
     0
  0
APPID
  2
GENIUS_GENOBJ-F-TOL_13
 70
     0
  0
APPID
  2
GENIUS_GENFIL_13
 70
     0
  0
APPID
  2
GENIUS_GENOBJ-N-CHA_13
 70
     0
  0
APPID
  2
_CALL_MAC$
 70
     0
  0
APPID
  2
ACAD_EXEMPT_FROM_CAD_STANDARDS
 70
     0
  0
APPID
  2
ACAD_MLEADERVER
 70
     0
  0
APPID
  2
ACAD_NAV_VCDISPLAY
 70
     0
  0
ENDTAB
  0
TABLE
  2
DIMSTYLE
 70
     1
  0
DIMSTYLE
  2
STANDARD
 70
     0
  3

  4

  5

  6

  7

 40
1.0
 41
0.18
 42
0.0625
 43
0.38
 44
0.18
 45
0.0
 46
0.0
 47
0.0
 48
0.0
140
0.18
141
0.09
142
0.0
143
25.399999999999999
144
1.0
145
0.0
146
1.0
147
0.09
 71
     0
 72
     0
 73
     1
 74
     1
 75
     0
 76
     0
 77
     0
 78
     0
170
     0
171
     2
172
     0
173
     0
174
     0
175
     0
176
     0
177
     0
178
     0
  0
ENDTAB
  0
ENDSEC
  0
SECTION
  2
BLOCKS
  0
BLOCK
  8
0
  2
$MODEL_SPACE
 70
     0
 10
0.0
 20
0.0
 30
0.0
  3
$MODEL_SPACE
  1

  0
ENDBLK
  5
D77E
  8
0
  0
BLOCK
 67
     1
  8
0
  2
$PAPER_SPACE
 70
     0
 10
0.0
 20
0.0
 30
0.0
  3
$PAPER_SPACE
  1

  0
ENDBLK
  5
D77C
 67
     1
  8
0
  0
ENDSEC
  0
SECTION
  2
ENTITIES
  0
CIRCLE
  5
D614
  8
0
 10
22.5
 20
148.34725841334449
 30
0.0
 40
8.25
  0
CIRCLE
  5
D615
  8
0
 10
22.5
 20
148.34725841334449
 30
0.0
 40
12.5
  0
LINE
  5
D616
  8
0
 10
35.0
 20
34.0
 30
0.0
 11
30.75
 21
37.0
 31
0.0
  0
LINE
  5
D617
  8
0
 10
34.5
 20
30.0
 30
0.0
 11
10.5
 21
30.0
 31
0.0
  0
LINE
  5
D618
  8
0
 10
10.0
 20
34.0
 30
0.0
 11
35.0
 21
34.0
 31
0.0
  0
LINE
  5
D619
  8
0
 10
10.0
 20
30.5
 30
0.0
 11
35.0
 21
30.5
 31
0.0
  0
LINE
  5
D61A
  8
0
 10
10.0
 20
34.0
 30
0.0
 11
14.25
 21
37.0
 31
0.0
  0
LINE
  5
D61B
  8
0
 10
10.0
 20
30.5
 30
0.0
 11
10.0
 21
34.0
 31
0.0
  0
LINE
  5
D61C
  8
0
 10
10.5
 20
30.0
 30
0.0
 11
10.0
 21
30.5
 31
0.0
  0
LINE
  5
D61F
  8
0
 10
14.25
 20
37.0
 30
0.0
 11
30.75
 21
37.0
 31
0.0
  0
LINE
  5
D621
  8
0
 10
15.5
 20
41.5
 30
0.0
 11
14.25
 21
37.0
 31
0.0
  0
LINE
  5
D622
  8
0
 10
29.500000000000028
 20
41.499999999999979
 30
0.0
 11
15.5
 21
41.5
 31
0.0
  0
LINE
  5
D625
  8
0
 10
29.5
 20
41.5
 30
0.0
 11
30.75
 21
37.0
 31
0.0
  0
LINE
  5
D629
  8
0
 10
35.0
 20
34.0
 30
0.0
 11
35.0
 21
30.5
 31
0.0
  0
LINE
  5
D62A
  8
0
 10
35.0
 20
30.5
 30
0.0
 11
34.5
 21
30.0
 31
0.0
  0
LINE
  5
D62B
  8
3
 10
25.823500000000081
 20
53.000000000000078
 30
0.0
 11
26.5
 21
51.828267628679953
 31
0.0
  0
LINE
  5
D62C
  8
3
 10
19.176499999999919
 20
53.000000000000078
 30
0.0
 11
18.5
 21
51.828267628679953
 31
0.0
  0
LINE
  5
D62D
  8
0
 10
18.5
 20
53.000000000000107
 30
0.0
 11
26.5
 21
53.0
 31
0.0
  0
LINE
  5
D62E
  8
0
 10
18.5
 20
110.8
 30
0.0
 11
26.5
 21
110.7999999999999
 31
0.0
  0
LINE
  5
D62F
  8
0
 10
25.300000000000072
 20
111.9999999999999
 30
0.0
 11
26.5
 21
110.7999999999999
 31
0.0
  0
LINE
  5
D630
  8
0
 10
18.5
 20
110.8
 30
0.0
 11
19.700000000000038
 21
111.9999999999999
 31
0.0
  0
LINE
  5
D631
  8
0
 10
18.5
 20
49.0
 30
0.0
 11
18.5
 21
58.985368975489223
 31
0.0
  0
LINE
  5
D632
  8
3
 10
19.176499999999919
 20
53.000000000000078
 30
0.0
 11
19.176499999999919
 21
58.985368975489223
 31
0.0
  0
LINE
  5
D633
  8
3
 10
25.823500000000081
 20
53.000000000000028
 30
0.0
 11
25.823500000000081
 21
58.985368975489223
 31
0.0
  0
LINE
  5
D634
  8
0
 10
26.5
 20
49.0
 30
0.0
 11
26.5
 21
58.985368975489223
 31
0.0
  0
LINE
  5
D635
  8
0
 10
19.700000000000038
 20
111.9999999999999
 30
0.0
 11
25.300000000000072
 21
111.9999999999999
 31
0.0
  0
LINE
  5
D643
  8
0
 10
70.500231899708751
 20
111.9999999999999
 30
0.0
 11
76.100231899708774
 21
111.9999999999999
 31
0.0
  0
LINE
  5
D644
  8
0
 10
77.300231899708706
 20
49.0
 30
0.0
 11
77.300231899708706
 21
58.985368975489223
 31
0.0
  0
LINE
  5
D645
  8
3
 10
76.623731899708787
 20
53.000000000000028
 30
0.0
 11
76.623731899708787
 21
58.985368975489223
 31
0.0
  0
LINE
  5
D646
  8
3
 10
69.976731899708625
 20
53.000000000000078
 30
0.0
 11
69.976731899708625
 21
58.985368975489223
 31
0.0
  0
LINE
  5
D647
  8
0
 10
69.300231899708706
 20
49.0
 30
0.0
 11
69.300231899708706
 21
58.985368975489223
 31
0.0
  0
LINE
  5
D648
  8
0
 10
69.300231899708706
 20
110.8
 30
0.0
 11
70.500231899708751
 21
111.9999999999999
 31
0.0
  0
LINE
  5
D649
  8
0
 10
76.100231899708774
 20
111.9999999999999
 30
0.0
 11
77.300231899708706
 21
110.7999999999999
 31
0.0
  0
LINE
  5
D64A
  8
0
 10
69.300231899708706
 20
110.8
 30
0.0
 11
77.300231899708706
 21
110.7999999999999
 31
0.0
  0
LINE
  5
D64B
  8
0
 10
69.300231899708706
 20
53.000000000000107
 30
0.0
 11
77.300231899708706
 21
53.0
 31
0.0
  0
LINE
  5
D64C
  8
3
 10
69.976731899708625
 20
53.000000000000078
 30
0.0
 11
69.300231899708706
 21
51.828267628679953
 31
0.0
  0
LINE
  5
D64D
  8
3
 10
76.623731899708787
 20
53.000000000000078
 30
0.0
 11
77.300231899708706
 21
51.828267628679953
 31
0.0
  0
LINE
  5
D64E
  8
0
 10
85.800231899708706
 20
30.5
 30
0.0
 11
85.300231899708706
 21
30.0
 31
0.0
  0
LINE
  5
D64F
  8
0
 10
85.800231899708706
 20
34.0
 30
0.0
 11
85.800231899708706
 21
30.5
 31
0.0
  0
LINE
  5
D658
  8
0
 10
80.300231899708706
 20
41.5
 30
0.0
 11
81.550231899708706
 21
37.0
 31
0.0
  0
LINE
  5
D664
  8
0
 10
80.300231899708706
 20
41.499999999999979
 30
0.0
 11
66.300231899708706
 21
41.5
 31
0.0
  0
LINE
  5
D665
  8
0
 10
66.300231899708706
 20
41.5
 30
0.0
 11
65.050231899708706
 21
37.0
 31
0.0
  0
LINE
  5
D66A
  8
0
 10
65.050231899708706
 20
37.0
 30
0.0
 11
81.550231899708706
 21
37.0
 31
0.0
  0
LINE
  5
D671
  8
0
 10
61.300231899708699
 20
30.0
 30
0.0
 11
60.800231899708699
 21
30.5
 31
0.0
  0
LINE
  5
D672
  8
0
 10
60.800231899708699
 20
30.5
 30
0.0
 11
60.800231899708699
 21
34.0
 31
0.0
  0
LINE
  5
D673
  8
0
 10
60.800231899708699
 20
34.0
 30
0.0
 11
65.050231899708706
 21
37.0
 31
0.0
  0
LINE
  5
D674
  8
0
 10
60.800231899708699
 20
30.5
 30
0.0
 11
85.800231899708706
 21
30.5
 31
0.0
  0
LINE
  5
D675
  8
0
 10
60.800231899708699
 20
34.0
 30
0.0
 11
85.800231899708706
 21
34.0
 31
0.0
  0
LINE
  5
D676
  8
0
 10
85.300231899708706
 20
30.0
 30
0.0
 11
61.300231899708699
 21
30.0
 31
0.0
  0
LINE
  5
D677
  8
0
 10
85.800231899708706
 20
34.0
 30
0.0
 11
81.550231899708706
 21
37.0
 31
0.0
  0
LINE
  5
D678
  8
1
 10
22.5
 20
27.0
 30
0.0
 11
22.5
 21
114.9999999999999
 31
0.0
  0
LINE
  5
D679
  8
1
 10
73.300231899708706
 20
27.0
 30
0.0
 11
73.300231899708706
 21
114.9999999999999
 31
0.0
  0
LINE
  5
D67A
  8
1
 10
22.5
 20
163.97002341334451
 30
0.0
 11
22.5
 21
132.7244934133445
 31
0.0
  0
LINE
  5
D67B
  8
1
 10
38.122764999999958
 20
148.34725841334449
 30
0.0
 11
6.8772350000000406
 21
148.34725841334449
 31
0.0
  0
LINE
  5
D67C
  8
0
 10
18.747223250267659
 20
141.84725841334469
 30
0.0
 11
26.25277674973233
 21
141.84725841334469
 31
0.0
  0
LINE
  5
D67D
  8
0
 10
26.25277674973233
 20
141.84725841334469
 30
0.0
 11
30.005553499464781
 21
148.34725841334449
 31
0.0
  0
LINE
  5
D67E
  8
0
 10
30.005553499464781
 20
148.34725841334449
 30
0.0
 11
26.25277674973233
 21
154.84725841334421
 31
0.0
  0
LINE
  5
D67F
  8
0
 10
26.25277674973233
 20
154.84725841334421
 30
0.0
 11
18.747223250267659
 21
154.84725841334421
 31
0.0
  0
LINE
  5
D680
  8
0
 10
18.747223250267659
 20
154.84725841334421
 30
0.0
 11
14.99444650053522
 21
148.34725841334449
 31
0.0
  0
LINE
  5
D681
  8
0
 10
14.99444650053522
 20
148.34725841334449
 30
0.0
 11
18.747223250267659
 21
141.84725841334469
 31
0.0
  0
CIRCLE
  5
D682
  8
0
 10
22.5
 20
148.34725841334449
 30
0.0
 40
6.25
  0
CIRCLE
  5
D683
  8
3
 10
22.5
 20
148.34725841334449
 30
0.0
 40
3.3235000000000001
  0
CIRCLE
  5
D684
  8
0
 10
22.5
 20
148.34725841334449
 30
0.0
 40
4.0
  0
ARC
  5
D685
  8
0
 10
16.870834875402121
 20
62.018461835241169
 30
0.0
 40
3.3225695729499738
 50
55.615752531961213
 51
115.6157525321744
  0
ARC
  5
D686
  8
0
 10
22.500000000001592
 20
52.921587991798788
 30
0.0
 40
12.41944341639239
 50
72.41204622599615
 51
107.5879537740046
  0
LINE
  5
D687
  8
0
 10
14.99444650053578
 20
64.760474824590403
 30
0.0
 11
16.250000000002039
 21
65.485368975489223
 31
0.0
  0
LINE
  5
D688
  8
0
 10
14.99444650053578
 20
59.710263126388043
 30
0.0
 11
16.250000000002039
 21
58.985368975489223
 31
0.0
  0
ARC
  5
D689
  8
0
 10
16.870834875402121
 20
62.452276115737277
 30
0.0
 40
3.3225695729499738
 50
244.38424746782559
 51
304.38424746803969
  0
ARC
  5
D68A
  8
0
 10
22.500000000001592
 20
71.549149959179616
 30
0.0
 40
12.41944341639239
 50
252.4120462259954
 51
287.58795377400378
  0
LINE
  5
D68B
  8
0
 10
14.99444650053578
 20
64.760474824590403
 30
0.0
 11
14.99444650053578
 21
59.710263126388043
 31
0.0
  0
LINE
  5
D68C
  8
0
 10
18.74722325027005
 20
64.760474824590403
 30
0.0
 11
18.747223250268231
 21
59.710263126389577
 31
0.0
  0
LINE
  5
D68D
  8
0
 10
26.252776749731311
 20
64.760474824590403
 30
0.0
 11
26.25277674973313
 21
59.710263126389577
 31
0.0
  0
LINE
  5
D68E
  8
0
 10
30.005553499465581
 20
64.760474824590403
 30
0.0
 11
30.005553499465581
 21
59.710263126388043
 31
0.0
  0
ARC
  5
D68F
  8
0
 10
28.12916512459924
 20
62.452276115737277
 30
0.0
 40
3.3225695729499738
 50
235.61575253196031
 51
295.61575253217438
  0
LINE
  5
D690
  8
0
 10
30.005553499465581
 20
59.710263126388043
 30
0.0
 11
28.749999999999321
 21
58.985368975489223
 31
0.0
  0
LINE
  5
D691
  8
0
 10
30.005553499465581
 20
64.760474824590403
 30
0.0
 11
28.749999999999321
 21
65.485368975489223
 31
0.0
  0
ARC
  5
D692
  8
0
 10
28.12916512459924
 20
62.018461835241169
 30
0.0
 40
3.3225695729499738
 50
64.384247467825602
 51
124.38424746803879
  0
LINE
  5
D693
  8
0
 10
16.250000000000909
 20
65.485368975489223
 30
0.0
 11
28.749999999999091
 21
65.485368975489223
 31
0.0
  0
LINE
  5
D694
  8
0
 10
28.749999999999321
 20
58.985368975489223
 30
0.0
 11
16.25000000000227
 21
58.985368975489223
 31
0.0
  0
LINE
  5
D695
  8
0
 10
79.800231899708479
 20
65.341031408191157
 30
0.0
 11
79.550231899707342
 21
65.485368975489223
 31
0.0
  0
ARC
  5
D696
  8
0
 10
76.550231899708464
 20
55.953879272942459
 30
0.0
 40
9.3871521352487513
 50
69.74384199958358
 51
110.25615800041641
  0
ARC
  5
D697
  8
0
 10
76.550231899708464
 20
68.516858678035987
 30
0.0
 40
9.3871521352487513
 50
249.74384199958351
 51
290.25615800041641
  0
LINE
  5
D698
  8
0
 10
79.800231899708479
 20
59.129706542787289
 30
0.0
 11
79.550231899707342
 21
58.985368975489223
 31
0.0
  0
LINE
  5
D699
  8
0
 10
79.800231899708479
 20
65.341031408191157
 30
0.0
 11
79.800231899708479
 21
59.129706542787289
 31
0.0
  0
LINE
  5
D69A
  8
0
 10
73.300231899708706
 20
64.760474824590005
 30
0.0
 11
73.300231899708706
 21
59.710263126388043
 31
0.0
  0
LINE
  5
D69B
  8
0
 10
66.800231899708933
 20
65.341031408191157
 30
0.0
 11
66.800231899708933
 21
59.129706542787289
 31
0.0
  0
LINE
  5
D69C
  8
0
 10
66.800231899708933
 20
59.129706542787289
 30
0.0
 11
67.05023189971007
 21
58.985368975489223
 31
0.0
  0
ARC
  5
D69D
  8
0
 10
70.050231899708933
 20
68.516858678035987
 30
0.0
 40
9.3871521352487513
 50
249.74384199958351
 51
290.25615800041641
  0
ARC
  5
D69E
  8
0
 10
70.050231899708933
 20
55.953879272942459
 30
0.0
 40
9.3871521352487513
 50
69.74384199958358
 51
110.25615800041641
  0
LINE
  5
D69F
  8
0
 10
66.800231899708933
 20
65.341031408191157
 30
0.0
 11
67.05023189971007
 21
65.485368975489223
 31
0.0
  0
LINE
  5
D6A0
  8
0
 10
67.05023189971007
 20
65.485368975489223
 30
0.0
 11
79.550231899707342
 21
65.485368975489223
 31
0.0
  0
LINE
  5
D6A1
  8
0
 10
79.550231899707342
 20
58.985368975489223
 30
0.0
 11
67.05023189971007
 21
58.985368975489223
 31
0.0
  0
LINE
  5
D6A2
  8
0
 10
26.5
 20
65.485368975489223
 30
0.0
 11
26.5
 21
110.7999999999999
 31
0.0
  0
LINE
  5
D6A3
  8
3
 10
25.823500000000081
 20
65.485368975489223
 30
0.0
 11
25.823500000000081
 21
111.4764999999998
 31
0.0
  0
LINE
  5
D6A4
  8
3
 10
19.176499999999919
 20
65.485368975489223
 30
0.0
 11
19.176499999999919
 21
111.4764999999999
 31
0.0
  0
LINE
  5
D6A5
  8
0
 10
18.5
 20
65.485368975489223
 30
0.0
 11
18.5
 21
110.8
 31
0.0
  0
LINE
  5
D6A6
  8
3
 10
76.623731899708787
 20
65.485368975489223
 30
0.0
 11
76.623731899708787
 21
111.4764999999998
 31
0.0
  0
LINE
  5
D6A7
  8
0
 10
77.300231899708706
 20
65.485368975489223
 30
0.0
 11
77.300231899708706
 21
110.7999999999999
 31
0.0
  0
LINE
  5
D6A8
  8
3
 10
69.976731899708625
 20
65.485368975489223
 30
0.0
 11
69.976731899708625
 21
111.4764999999999
 31
0.0
  0
LINE
  5
D6A9
  8
0
 10
69.300231899708706
 20
65.485368975489223
 30
0.0
 11
69.300231899708706
 21
110.8
 31
0.0
  0
LINE
  5
D9A3
  8
0
 10
28.25001843632953
 20
43.999999999999979
 30
0.0
 11
16.749981563670531
 21
43.999999999999979
 31
0.0
  0
LINE
  5
D9A4
  8
0
 10
16.74998156367047
 20
49.0
 30
0.0
 11
28.25001843632959
 21
48.999999999999972
 31
0.0
  0
LINE
  5
D9A5
  8
0
 10
16.5
 20
48.855673076922407
 30
0.0
 11
16.74998156367047
 21
49.0
 31
0.0
  0
LINE
  5
D9A6
  8
0
 10
16.5
 20
44.1443269230776
 30
0.0
 11
16.74998156367047
 21
44.0
 31
0.0
  0
LINE
  5
D9A7
  8
0
 10
16.5
 20
48.855673076922407
 30
0.0
 11
16.5
 21
44.1443269230776
 31
0.0
  0
LINE
  5
D9A8
  8
0
 10
22.5
 20
48.27515930665384
 30
0.0
 11
22.5
 21
44.724840693345747
 31
0.0
  0
LINE
  5
D9A9
  8
0
 10
28.5
 20
48.855673076922407
 30
0.0
 11
28.5
 21
44.1443269230776
 31
0.0
  0
LINE
  5
D9AA
  8
0
 10
28.5
 20
44.1443269230776
 30
0.0
 11
28.25001843632959
 21
44.0
 31
0.0
  0
LINE
  5
D9AB
  8
0
 10
28.5
 20
48.855673076922407
 30
0.0
 11
28.25001843632959
 21
49.0
 31
0.0
  0
ARC
  5
D9C6
  8
0
 10
19.5
 20
40.814201694411942
 30
0.0
 40
8.0414607382899366
 50
68.095135980107003
 51
111.904864019893
  0
ARC
  5
D9C7
  8
0
 10
19.5
 20
52.18579830558815
 30
0.0
 40
8.0414607382900094
 50
248.0951359801069
 51
291.90486401989301
  0
ARC
  5
D9C8
  8
0
 10
25.5
 20
52.185798305588087
 30
0.0
 40
8.0414607382899579
 50
248.0951359801069
 51
291.90486401989301
  0
ARC
  5
D9C9
  8
0
 10
25.50006647691157
 20
40.813858178584702
 30
0.0
 40
8.0418042544366628
 50
68.096630573346957
 51
111.90439039070451
  0
LINE
  5
D9CA
  8
0
 10
78.972881630517634
 20
44.000000000000213
 30
0.0
 11
67.627582168899437
 21
44.000000000000192
 31
0.0
  0
LINE
  5
D9CB
  8
0
 10
67.627582168899494
 20
49.0
 30
0.0
 11
78.972881630518245
 21
48.999999999999972
 31
0.0
  0
ARC
  5
D9CC
  8
0
 10
78.496334951804556
 20
45.943239839414559
 30
0.0
 40
2.9047717092837142
 50
66.602713433843434
 51
126.6044818028361
  0
LINE
  5
D9CD
  8
0
 10
80.228435129984177
 20
48.275105849101351
 30
0.0
 11
78.972881630517918
 21
49.000000000000171
 31
0.0
  0
LINE
  5
D9CE
  8
0
 10
80.228435129984177
 20
44.72489415089921
 30
0.0
 11
78.972881630517918
 21
44.000000000000398
 31
0.0
  0
ARC
  5
D9CF
  8
0
 10
78.496345261795796
 20
47.018459877257179
 30
0.0
 40
2.8741223099590929
 50
232.94007193918
 51
292.94007193917668
  0
LINE
  5
D9D0
  8
0
 10
80.228435129984177
 20
48.275105849101351
 30
0.0
 11
80.228435129984177
 21
44.72489415089921
 31
0.0
  0
LINE
  5
D9D1
  8
0
 10
76.764255393606049
 20
48.27510584910118
 30
0.0
 11
76.764255393607868
 21
44.72489415090056
 31
0.0
  0
LINE
  5
D9D2
  8
0
 10
69.836130284570913
 20
48.27510584910118
 30
0.0
 11
69.836130284569094
 21
44.72489415090056
 31
0.0
  0
LINE
  5
D9D3
  8
0
 10
66.372028669433234
 20
48.27510584910118
 30
0.0
 11
66.372028669433234
 21
44.724894150899033
 31
0.0
  0
ARC
  5
D9D4
  8
0
 10
73.300192839088083
 20
54.76929271838199
 30
0.0
 40
10.624955151155669
 50
250.97196303024259
 51
289.02803696975741
  0
ARC
  5
D9D5
  8
0
 10
68.104079477001221
 20
47.018343341258451
 30
0.0
 40
2.8740057739603291
 50
247.0607067521259
 51
307.06070675212248
  0
LINE
  5
D9D6
  8
0
 10
66.372028669433234
 20
44.724894150899033
 30
0.0
 11
67.627582168899494
 21
44.000000000000213
 31
0.0
  0
LINE
  5
D9D7
  8
0
 10
66.372028669433234
 20
48.27510584910118
 30
0.0
 11
67.627582168899494
 21
49.0
 31
0.0
  0
ARC
  5
D9D8
  8
0
 10
73.300192839090187
 20
38.230707280315059
 30
0.0
 40
10.62495515238683
 50
70.971963032550804
 51
109.0280369674681
  0
ARC
  5
D9D9
  8
0
 10
68.104079477001221
 20
45.981656658740832
 30
0.0
 40
2.8740057739610489
 50
52.939293247889537
 51
112.93929324788461
  0
LINE
  5
D9DA
  8
0
 10
27.300000000000011
 20
43.943866786845497
 30
0.0
 11
27.300000000000011
 21
44.0
 31
0.0
  0
LINE
  5
D9DB
  8
0
 10
17.699999999999989
 20
44.0
 30
0.0
 11
17.699999999999989
 21
43.943866786845497
 31
0.0
  0
ARC
  5
D9DC
  8
0
 10
16.658333333333299
 20
43.943866786845518
 30
0.0
 40
1.0416666666666921
 50
323.23937733474628
 51
0.0
  0
ARC
  5
D9DD
  8
0
 10
28.341666666666701
 20
43.943866786845518
 30
0.0
 40
1.0416666666666741
 50
180.0
 51
216.76062266525349
  0
ARC
  5
D9DE
  8
0
 10
22.5
 20
39.579999999999977
 30
0.0
 40
6.2500000000000551
 50
143.23937598243771
 51
162.1281716536985
  0
ARC
  5
D9DF
  8
0
 10
22.49999999999994
 20
39.57999999999997
 30
0.0
 40
6.2500000000000764
 50
17.87182834630147
 51
36.7606240175623
  0
LINE
  5
D9E0
  8
0
 10
17.492857155468979
 20
43.320457262750402
 30
0.0
 11
27.507142844531021
 21
43.320457262750402
 31
0.0
  0
LINE
  5
D9E1
  8
0
 10
78.100231899708717
 20
43.943866786845497
 30
0.0
 11
78.100231899708717
 21
44.0
 31
0.0
  0
LINE
  5
D9E2
  8
0
 10
68.500231899708695
 20
44.0
 30
0.0
 11
68.500231899708695
 21
43.943866786845497
 31
0.0
  0
ARC
  5
D9E3
  8
0
 10
67.458565233042009
 20
43.943866786845518
 30
0.0
 40
1.0416666666666921
 50
323.23937733474662
 51
0.0
  0
ARC
  5
D9E4
  8
0
 10
79.141898566375403
 20
43.943866786845518
 30
0.0
 40
1.0416666666666901
 50
180.0
 51
216.76062266525341
  0
ARC
  5
D9E5
  8
0
 10
73.300231899708706
 20
39.579999999999977
 30
0.0
 40
6.2500000000000551
 50
143.23937598243771
 51
162.1281716536985
  0
ARC
  5
D9E6
  8
0
 10
73.300231899708649
 20
39.57999999999997
 30
0.0
 40
6.2500000000000764
 50
17.87182834630147
 51
36.760624017562321
  0
LINE
  5
D9E7
  8
0
 10
68.293089055177688
 20
43.320457262750402
 30
0.0
 11
78.307374744239723
 21
43.320457262750402
 31
0.0
  0
LINE
  5
D9E8
  8
0
 10
28.5
 20
144.8831567982067
 30
0.0
 11
28.5
 21
145.7395632587583
 31
0.0
  0
LINE
  5
D9E9
  8
0
 10
28.5
 20
150.95495356793069
 30
0.0
 11
28.5
 21
151.81136002848231
 31
0.0
  0
LINE
  5
D9EA
  8
0
 10
28.5
 20
151.81136002848231
 30
0.0
 11
27.758330249197229
 21
152.23956325875801
 31
0.0
  0
LINE
  5
D9EB
  8
0
 10
23.241669750802661
 20
154.84725841334421
 30
0.0
 11
22.5
 21
155.27546164361999
 31
0.0
  0
LINE
  5
D9EC
  8
0
 10
22.5
 20
155.27546164361999
 30
0.0
 11
21.758330249197229
 21
154.84725841334421
 31
0.0
  0
LINE
  5
D9ED
  8
0
 10
17.241669750802831
 20
152.2395632587581
 30
0.0
 11
16.5
 21
151.81136002848231
 31
0.0
  0
LINE
  5
D9EE
  8
0
 10
22.5
 20
141.41905518306899
 30
0.0
 11
23.241669750802661
 21
141.84725841334469
 31
0.0
  0
LINE
  5
D9EF
  8
0
 10
27.758330249197229
 20
144.45495356793089
 30
0.0
 11
28.5
 21
144.8831567982067
 31
0.0
  0
LINE
  5
D9F0
  8
0
 10
16.5
 20
144.8831567982067
 30
0.0
 11
17.241669750802771
 21
144.45495356793089
 31
0.0
  0
LINE
  5
D9F1
  8
0
 10
21.7583302491974
 20
141.84725841334469
 30
0.0
 11
22.5
 21
141.41905518306899
 31
0.0
  0
LINE
  5
D9F2
  8
0
 10
16.5
 20
151.81136002848231
 30
0.0
 11
16.5
 21
150.9549535679306
 31
0.0
  0
LINE
  5
D9F3
  8
0
 10
16.5
 20
145.7395632587583
 30
0.0
 11
16.5
 21
144.8831567982067
 31
0.0
  0
ARC
  5
DAC4
  8
0
 10
22.5
 20
148.34725841334449
 30
0.0
 40
7.0
 50
128.21321070173099
 51
171.78678929826879
  0
ARC
  5
DAC5
  8
0
 10
22.5
 20
148.34725841334449
 30
0.0
 40
7.0
 50
68.213210701732493
 51
111.78678929826749
  0
ARC
  5
DAC6
  8
0
 10
22.5
 20
148.34725841334449
 30
0.0
 40
7.0
 50
8.2132107017309046
 51
51.786789298269291
  0
ARC
  5
DAC7
  8
0
 10
22.5
 20
148.34725841334449
 30
0.0
 40
7.0
 50
308.21321070173173
 51
351.78678929826822
  0
ARC
  5
DAC8
  8
0
 10
22.5
 20
148.34725841334449
 30
0.0
 40
7.0
 50
248.21321070173391
 51
291.78678929826623
  0
ARC
  5
DAC9
  8
0
 10
22.5
 20
148.34725841334449
 30
0.0
 40
7.0
 50
188.21321070173161
 51
231.7867892982685
  0
TEXT
  5
DB66
  8
0
 62
     3
 10
0.0
 20
0.0
 30
0.0
 40
10.0
  1
LM25-8B-SUS
  7
STANDARD1
  0
ENDSEC
  0
EOF
