  0
SECTION
  2
HEADER
  9
$ACADVER
  1
AC1009
  9
$INSBASE
 10
0.0
 20
0.0
 30
0.0
  9
$EXTMIN
 10
0.0
 20
-2.960436562073669
 30
0.0
  9
$EXTMAX
 10
351.0
 20
252.5
 30
0.0
  9
$LIMMIN
 10
0.0
 20
0.0
  9
$LIMMAX
 10
375.0
 20
270.0
  9
$ORTHOMODE
 70
     1
  9
$REGENMODE
 70
     1
  9
$FILLMODE
 70
     1
  9
$QTEXTMODE
 70
     0
  9
$MIRRTEXT
 70
     0
  9
$DRAGMODE
 70
     2
  9
$LTSCALE
 40
10.0
  9
$OSMODE
 70
    37
  9
$ATTMODE
 70
     1
  9
$TEXTSIZE
 40
0.2
  9
$TRACEWID
 40
0.05
  9
$TEXTSTYLE
  7
STANDARD
  9
$CLAYER
  8
0
  9
$CELTYPE
  6
BYLAYER
  9
$CECOLOR
 62
   256
  9
$DIMSCALE
 40
1.0
  9
$DIMASZ
 40
3.0
  9
$DIMEXO
 40
2.0
  9
$DIMDLI
 40
0.38
  9
$DIMRND
 40
0.0
  9
$DIMDLE
 40
0.0
  9
$DIMEXE
 40
2.0
  9
$DIMTP
 40
0.0
  9
$DIMTM
 40
0.0
  9
$DIMTXT
 40
3.2000000000000002
  9
$DIMCEN
 40
0.0
  9
$DIMTSZ
 40
0.0
  9
$DIMTOL
 70
     0
  9
$DIMLIM
 70
     0
  9
$DIMTIH
 70
     0
  9
$DIMTOH
 70
     0
  9
$DIMSE1
 70
     0
  9
$DIMSE2
 70
     0
  9
$DIMTAD
 70
     1
  9
$DIMZIN
 70
     0
  9
$DIMBLK
  1

  9
$DIMASO
 70
     1
  9
$DIMSHO
 70
     0
  9
$DIMPOST
  1

  9
$DIMAPOST
  1

  9
$DIMALT
 70
     0
  9
$DIMALTD
 70
     2
  9
$DIMALTF
 40
25.399999999999999
  9
$DIMLFAC
 40
1.0
  9
$DIMTOFL
 70
     1
  9
$DIMTVP
 40
1.6000000000000001
  9
$DIMTIX
 70
     1
  9
$DIMSOXD
 70
     0
  9
$DIMSAH
 70
     0
  9
$DIMBLK1
  1

  9
$DIMBLK2
  1

  9
$DIMSTYLE
  2
STANDARD
  9
$DIMCLRD
 70
     0
  9
$DIMCLRE
 70
     0
  9
$DIMCLRT
 70
     0
  9
$DIMTFAC
 40
1.0
  9
$DIMGAP
 40
0.09
  9
$LUNITS
 70
     2
  9
$LUPREC
 70
     4
  9
$SKETCHINC
 40
0.1
  9
$FILLETRAD
 40
0.0
  9
$AUNITS
 70
     0
  9
$AUPREC
 70
     4
  9
$MENU
  1
E:\r13\win\SUPPORT\ACAD
  9
$ELEVATION
 40
0.0
  9
$PELEVATION
 40
0.0
  9
$THICKNESS
 40
0.0
  9
$LIMCHECK
 70
     0
  9
$BLIPMODE
 70
     0
  9
$CHAMFERA
 40
0.0
  9
$CHAMFERB
 40
0.0
  9
$SKPOLY
 70
     0
  9
$TDCREATE
 40
2449840.6056134258
  9
$TDUPDATE
 40
2458197.5453307522
  9
$TDINDWG
 40
0.0002651852
  9
$TDUSRTIMER
 40
0.0002651852
  9
$USRTIMER
 70
     1
  9
$ANGBASE
 50
0.0
  9
$ANGDIR
 70
     0
  9
$PDMODE
 70
     0
  9
$PDSIZE
 40
0.0
  9
$PLINEWID
 40
0.0
  9
$COORDS
 70
     1
  9
$SPLFRAME
 70
     0
  9
$SPLINETYPE
 70
     6
  9
$SPLINESEGS
 70
     8
  9
$ATTDIA
 70
     0
  9
$ATTREQ
 70
     1
  9
$HANDLING
 70
     1
  9
$HANDSEED
  5
2C9
  9
$SURFTAB1
 70
     6
  9
$SURFTAB2
 70
     6
  9
$SURFTYPE
 70
     6
  9
$SURFU
 70
     6
  9
$SURFV
 70
     6
  9
$UCSNAME
  2

  9
$UCSORG
 10
0.0
 20
0.0
 30
0.0
  9
$UCSXDIR
 10
1.0
 20
0.0
 30
0.0
  9
$UCSYDIR
 10
0.0
 20
1.0
 30
0.0
  9
$PUCSNAME
  2

  9
$PUCSORG
 10
0.0
 20
0.0
 30
0.0
  9
$PUCSXDIR
 10
1.0
 20
0.0
 30
0.0
  9
$PUCSYDIR
 10
0.0
 20
1.0
 30
0.0
  9
$USERI1
 70
     0
  9
$USERI2
 70
     1
  9
$USERI3
 70
     1
  9
$USERI4
 70
     0
  9
$USERI5
 70
     0
  9
$USERR1
 40
0.0
  9
$USERR2
 40
0.0
  9
$USERR3
 40
0.0
  9
$USERR4
 40
0.0
  9
$USERR5
 40
0.0
  9
$WORLDVIEW
 70
     1
  9
$SHADEDGE
 70
     3
  9
$SHADEDIF
 70
    70
  9
$TILEMODE
 70
     1
  9
$MAXACTVP
 70
    16
  9
$PLIMCHECK
 70
     0
  9
$PEXTMIN
 10
1.0000000000000000E+020
 20
1.0000000000000000E+020
 30
1.0000000000000000E+020
  9
$PEXTMAX
 10
-1.0000000000000000E+020
 20
-1.0000000000000000E+020
 30
-1.0000000000000000E+020
  9
$PLIMMIN
 10
0.0
 20
0.0
  9
$PLIMMAX
 10
12.0
 20
9.0
  9
$UNITMODE
 70
     0
  9
$VISRETAIN
 70
     0
  9
$PLINEGEN
 70
     0
  9
$PSLTSCALE
 70
     0
  0
ENDSEC
  0
SECTION
  2
TABLES
  0
TABLE
  2
VPORT
 70
     1
  0
VPORT
  2
*ACTIVE
 70
     0
 10
0.0
 20
0.0
 11
1.0
 21
1.0
 12
343.84072278791967
 22
124.7760917303535
 13
0.0
 23
0.0
 14
10.0
 24
10.0
 15
10.0
 25
10.0
 16
0.0
 26
0.0
 36
1.0
 17
0.0
 27
0.0
 37
0.0
 40
265.1996789661199
 41
2.6019575856443709
 42
50.0
 43
0.0
 44
0.0
 50
0.0
 51
0.0
 71
     0
 72
   500
 73
     1
 74
     0
 75
     0
 76
     0
 77
     0
 78
     2
  0
ENDTAB
  0
TABLE
  2
LTYPE
 70
     4
  0
LTYPE
  2
CONTINUOUS
 70
     0
  3
Solid Line
 72
    65
 73
     0
 40
0.0
  0
LTYPE
  2
CENTER
 70
     0
  3
____ _ ____ _ ____ _ ____ _ ____ _ ____ _ ____
 72
    65
 73
     4
 40
2.0
 49
1.25
 49
-0.25
 49
0.25
 49
-0.25
  0
LTYPE
  2
HIDDEN
 70
     0
  3
_ _ _ _ _ _ _ _ _ _ _ _ _ _ _ _ _ _ _ _ _ _ _
 72
    65
 73
     2
 40
0.375
 49
0.25
 49
-0.125
  0
LTYPE
  2
PHANTOM2
 70
     0
  3
___ _ _ ___ _ _ ___ _ _ ___ _ _
 72
    65
 73
     6
 40
1.25
 49
0.625
 49
-0.125
 49
0.125
 49
-0.125
 49
0.125
 49
-0.125
  0
ENDTAB
  0
TABLE
  2
LAYER
 70
     3
  0
LAYER
  2
0
 70
     0
 62
     7
  6
CONTINUOUS
  0
LAYER
  2
1
 70
     0
 62
     1
  6
CENTER
  0
LAYER
  2
2
 70
     0
 62
     2
  6
HIDDEN
  0
ENDTAB
  0
TABLE
  2
STYLE
 70
     2
  0
STYLE
  2
STANDARD
 70
     0
 40
0.0
 41
1.0
 50
0.0
 71
     0
 42
0.2
  3
TXT
  4
BIGFONT
  0
STYLE
  2
STANDARD1
 70
     0
 40
0.0
 41
1.0
 50
0.0
 71
     0
 42
3.0
  3
txt
  4

  0
ENDTAB
  0
TABLE
  2
VIEW
 70
     1
  0
VIEW
  2
ALL
 70
     0
 40
270.0
 10
220.99159663865549
 20
135.0
 41
0.0
 11
0.0
 21
0.0
 31
1.0
 12
0.0
 22
0.0
 32
0.0
 42
0.0
 43
0.0
 44
0.0
 50
0.0
 71
     0
  0
ENDTAB
  0
TABLE
  2
UCS
 70
     0
  0
ENDTAB
  0
TABLE
  2
APPID
 70
     3
  0
APPID
  2
ACAD
 70
     0
  0
APPID
  2
ACAD_MLEADERVER
 70
     0
  0
APPID
  2
ACAD_NAV_VCDISPLAY
 70
     0
  0
ENDTAB
  0
TABLE
  2
DIMSTYLE
 70
     1
  0
DIMSTYLE
  2
STANDARD
 70
     0
  3

  4

  5

  6

  7

 40
1.0
 41
0.18
 42
0.0625
 43
0.38
 44
0.18
 45
0.0
 46
0.0
 47
0.0
 48
0.0
140
0.18
141
0.09
142
0.0
143
25.399999999999999
144
1.0
145
0.0
146
1.0
147
0.09
 71
     0
 72
     0
 73
     1
 74
     1
 75
     0
 76
     0
 77
     0
 78
     0
170
     0
171
     2
172
     0
173
     0
174
     0
175
     0
176
     0
177
     0
178
     0
  0
ENDTAB
  0
ENDSEC
  0
SECTION
  2
BLOCKS
  0
BLOCK
  8
0
  2
$MODEL_SPACE
 70
     0
 10
0.0
 20
0.0
 30
0.0
  3
$MODEL_SPACE
  1

  0
ENDBLK
  5
FF
  8
0
  0
BLOCK
 67
     1
  8
0
  2
$PAPER_SPACE
 70
     0
 10
0.0
 20
0.0
 30
0.0
  3
$PAPER_SPACE
  1

  0
ENDBLK
  5
FD
 67
     1
  8
0
  0
ENDSEC
  0
SECTION
  2
ENTITIES
  0
LINE
  5
35
  8
0
 10
336.00000000000011
 20
147.5
 30
0.0
 11
340.3046768741375
 21
147.5
 31
0.0
  0
LINE
  5
36
  8
0
 10
336.0
 20
154.59729154525081
 30
0.0
 11
336.0
 21
138.02115894436619
 31
0.0
  0
LINE
  5
37
  8
0
 10
324.0
 20
154.5972915452499
 30
0.0
 11
324.0
 21
138.02115894438501
 31
0.0
  0
LINE
  5
38
  8
0
 10
76.0
 20
164.35670998046601
 30
0.0
 11
76.0
 21
147.5
 31
0.0
  0
LINE
  5
39
  8
0
 10
64.0
 20
164.35670998046601
 30
0.0
 11
64.0
 21
147.5
 31
0.0
  0
LINE
  5
3A
  8
1
 10
351.0
 20
169.42968851944121
 30
0.0
 11
309.0
 21
169.42968851944121
 31
0.0
  0
LINE
  5
3B
  8
1
 10
91.0
 20
169.42968851944121
 30
0.0
 11
49.0
 21
169.42968851944121
 31
0.0
  0
CIRCLE
  5
3C
  8
0
 10
330.0
 20
169.42968851944121
 30
0.0
 40
16.0
  0
ARC
  5
3D
  8
0
 10
70.0
 20
169.42968851944121
 30
0.0
 40
16.0
 50
292.0243128370422
 51
247.97568716295791
  0
LINE
  5
3E
  8
0
 10
313.0
 20
95.0
 30
0.0
 11
347.0
 21
95.0
 31
0.0
  0
LINE
  5
3F
  8
0
 10
312.5
 20
130.0
 30
0.0
 11
312.5
 21
95.5
 31
0.0
  0
LINE
  5
40
  8
0
 10
347.5
 20
130.0
 30
0.0
 11
347.5
 21
95.5
 31
0.0
  0
LINE
  5
41
  8
0
 10
319.6953231258625
 20
147.5
 30
0.0
 11
324.0
 21
147.5
 31
0.0
  0
LINE
  5
42
  8
0
 10
312.5
 20
130.0
 30
0.0
 11
318.75789785385268
 21
146.84818652960359
 31
0.0
  0
LINE
  5
43
  8
1
 10
330.0
 20
190.4296885194405
 30
0.0
 11
330.0
 21
90.0
 31
0.0
  0
LINE
  5
44
  8
0
 10
312.5
 20
95.5
 30
0.0
 11
313.0
 21
95.0
 31
0.0
  0
LINE
  5
45
  8
0
 10
347.0
 20
95.0
 30
0.0
 11
347.5
 21
95.5
 31
0.0
  0
LINE
  5
46
  8
2
 10
332.5
 20
95.5
 30
0.0
 11
332.5
 21
105.0
 31
0.0
  0
LINE
  5
47
  8
2
 10
332.5
 20
105.0
 30
0.0
 11
327.5
 21
105.0
 31
0.0
  0
LINE
  5
48
  8
2
 10
330.0
 20
106.4433756729736
 30
0.0
 11
332.5
 21
105.0
 31
0.0
  0
LINE
  5
49
  8
2
 10
332.5
 20
95.5
 30
0.0
 11
333.0
 21
95.0
 31
0.0
  0
LINE
  5
4A
  8
2
 10
332.5
 20
95.5
 30
0.0
 11
327.5
 21
95.5
 31
0.0
  0
ARC
  5
4B
  8
0
 10
319.6953231258625
 20
146.5
 30
0.0
 40
1.0
 50
90.0
 51
159.6235647861636
  0
ARC
  5
4C
  8
0
 10
340.3046768741375
 20
146.5
 30
0.0
 40
1.0
 50
20.376435213836249
 51
90.0
  0
LINE
  5
4D
  8
0
 10
347.5
 20
130.00000000000011
 30
0.0
 11
341.24210214614732
 21
146.84818652960359
 31
0.0
  0
LINE
  5
4E
  8
2
 10
327.5
 20
95.5
 30
0.0
 11
327.0
 21
95.0
 31
0.0
  0
LINE
  5
4F
  8
2
 10
330.0
 20
106.4433756729736
 30
0.0
 11
327.5
 21
105.0
 31
0.0
  0
LINE
  5
50
  8
2
 10
327.5
 20
95.5
 30
0.0
 11
327.5
 21
105.0
 31
0.0
  0
LINE
  5
51
  8
0
 10
312.5
 20
130.0
 30
0.0
 11
347.5
 21
130.0
 31
0.0
  0
LINE
  5
52
  8
0
 10
312.5
 20
95.5
 30
0.0
 11
347.5
 21
95.5
 31
0.0
  0
LINE
  5
53
  8
0
 10
53.0
 20
95.0
 30
0.0
 11
87.0
 21
95.0
 31
0.0
  0
LINE
  5
54
  8
0
 10
52.5
 20
130.0
 30
0.0
 11
52.5
 21
95.5
 31
0.0
  0
LINE
  5
55
  8
0
 10
87.5
 20
130.0
 30
0.0
 11
87.5
 21
95.5
 31
0.0
  0
LINE
  5
56
  8
0
 10
59.695323125862501
 20
147.5
 30
0.0
 11
80.304676874137513
 21
147.5
 31
0.0
  0
LINE
  5
57
  8
0
 10
52.5
 20
130.0
 30
0.0
 11
58.757897853852739
 21
146.84818652960359
 31
0.0
  0
LINE
  5
58
  8
1
 10
70.0
 20
190.42968851944121
 30
0.0
 11
70.0
 21
90.0
 31
0.0
  0
LINE
  5
59
  8
0
 10
52.5
 20
95.5
 30
0.0
 11
53.0
 21
95.0
 31
0.0
  0
LINE
  5
5A
  8
0
 10
87.0
 20
95.0
 30
0.0
 11
87.5
 21
95.5
 31
0.0
  0
LINE
  5
5B
  8
2
 10
72.5
 20
95.5
 30
0.0
 11
72.5
 21
105.0
 31
0.0
  0
LINE
  5
5C
  8
2
 10
72.5
 20
105.0
 30
0.0
 11
67.5
 21
105.0
 31
0.0
  0
LINE
  5
5D
  8
2
 10
70.0
 20
106.4433756729736
 30
0.0
 11
72.5
 21
105.0
 31
0.0
  0
LINE
  5
5E
  8
2
 10
72.5
 20
95.5
 30
0.0
 11
73.0
 21
95.0
 31
0.0
  0
LINE
  5
5F
  8
2
 10
72.5
 20
95.5
 30
0.0
 11
67.5
 21
95.5
 31
0.0
  0
ARC
  5
60
  8
0
 10
59.695323125862501
 20
146.5
 30
0.0
 40
1.0
 50
90.0
 51
159.6235647861636
  0
ARC
  5
61
  8
0
 10
80.304676874137513
 20
146.5
 30
0.0
 40
1.0
 50
20.376435213836249
 51
90.0
  0
LINE
  5
62
  8
0
 10
87.5
 20
130.00000000000011
 30
0.0
 11
81.242102146147289
 21
146.84818652960359
 31
0.0
  0
LINE
  5
63
  8
2
 10
67.5
 20
95.5
 30
0.0
 11
67.0
 21
95.0
 31
0.0
  0
LINE
  5
64
  8
2
 10
70.0
 20
106.4433756729736
 30
0.0
 11
67.5
 21
105.0
 31
0.0
  0
LINE
  5
65
  8
2
 10
67.5
 20
95.5
 30
0.0
 11
67.5
 21
105.0
 31
0.0
  0
LINE
  5
66
  8
0
 10
52.5
 20
130.0
 30
0.0
 11
87.5
 21
130.0
 31
0.0
  0
LINE
  5
67
  8
0
 10
52.5
 20
95.5
 30
0.0
 11
87.5
 21
95.5
 31
0.0
  0
LINE
  5
69
  8
0
 10
235.98254120362279
 20
224.0
 30
0.0
 11
164.52071239208391
 21
224.0
 31
0.0
  0
LINE
  5
6A
  8
0
 10
235.98254120362299
 20
236.0
 30
0.0
 11
164.52071239208351
 21
236.0
 31
0.0
  0
LINE
  5
6B
  8
1
 10
250.8149381778141
 20
251.0
 30
0.0
 11
250.8149381778141
 21
209.0
 31
0.0
  0
LINE
  5
6C
  8
1
 10
150.0
 20
252.5
 30
0.0
 11
150.0
 21
207.5
 31
0.0
  0
LINE
  5
6D
  8
1
 10
271.8149381778141
 20
230.0
 30
0.0
 11
127.5
 21
230.0
 31
0.0
  0
ARC
  5
6E
  8
0
 10
150.0
 20
230.0
 30
0.0
 40
17.5
 50
20.051042566505679
 51
339.948957433494
  0
CIRCLE
  5
6F
  8
0
 10
150.0
 20
40.0
 30
0.0
 40
2.500000000000028
  0
LINE
  5
70
  8
0
 10
236.8770441925993
 20
34.0
 30
0.0
 11
166.43928222277361
 21
34.0
 31
0.0
  0
LINE
  5
71
  8
0
 10
236.8770441925993
 20
46.0
 30
0.0
 11
166.43928222277361
 21
46.0
 31
0.0
  0
LINE
  5
72
  8
1
 10
250.8149381778141
 20
61.0
 30
0.0
 11
250.8149381778141
 21
19.0
 31
0.0
  0
ARC
  5
73
  8
0
 10
250.8149381778141
 20
40.0
 30
0.0
 40
16.0
 50
202.0243128370422
 51
157.9756871629578
  0
LINE
  5
74
  8
1
 10
150.0
 20
62.5
 30
0.0
 11
150.0
 21
17.5
 31
0.0
  0
LINE
  5
75
  8
1
 10
271.8149381778141
 20
40.0
 30
0.0
 11
127.5
 21
40.0
 31
0.0
  0
CIRCLE
  5
76
  8
0
 10
150.0
 20
40.0
 30
0.0
 40
17.0
  0
CIRCLE
  5
77
  8
0
 10
150.0
 20
40.0
 30
0.0
 40
17.5
  0
LINE
  5
78
  8
0
 10
132.5
 20
95.5
 30
0.0
 11
167.5
 21
95.5
 31
0.0
  0
LINE
  5
79
  8
0
 10
132.5
 20
130.0
 30
0.0
 11
167.5
 21
130.0
 31
0.0
  0
LINE
  5
7A
  8
2
 10
147.5
 20
95.5
 30
0.0
 11
147.5
 21
105.0
 31
0.0
  0
LINE
  5
7B
  8
2
 10
150.0
 20
106.4433756729736
 30
0.0
 11
147.5
 21
105.0
 31
0.0
  0
LINE
  5
7C
  8
2
 10
147.5
 20
95.5
 30
0.0
 11
147.0
 21
95.0
 31
0.0
  0
LINE
  5
7D
  8
1
 10
257.99736118765333
 20
149.696143482937
 30
0.0
 11
243.6325151679751
 21
189.1632335559452
 31
0.0
  0
ARC
  5
7E
  8
0
 10
250.8149381778141
 20
169.42968851944121
 30
0.0
 40
16.0
 50
222.02431283704209
 51
177.97568716295791
  0
LINE
  5
7F
  8
0
 10
162.43154812487609
 20
143.64583197148761
 30
0.0
 11
234.8249233326452
 21
169.99486570518039
 31
0.0
  0
LINE
  5
80
  8
0
 10
167.5
 20
130.00000000000011
 30
0.0
 11
166.60987665929221
 21
132.39648591729039
 31
0.0
  0
ARC
  5
82
  8
0
 10
160.3046768741375
 20
146.5
 30
0.0
 40
1.0
 50
20.376435213836249
 51
90.0
  0
ARC
  5
83
  8
0
 10
139.6953231258625
 20
146.5
 30
0.0
 40
1.0
 50
90.0
 51
159.6235647861636
  0
LINE
  5
84
  8
0
 10
234.8249233326452
 20
169.99486570518039
 30
0.0
 11
238.92916505255329
 21
158.7185542557495
 31
0.0
  0
LINE
  5
85
  8
1
 10
270.54848321431808
 20
176.61211152928021
 30
0.0
 11
142.51902140605549
 21
130.01319832195099
 31
0.0
  0
LINE
  5
86
  8
0
 10
238.92916505255329
 20
158.7185542557495
 30
0.0
 11
166.6098766592925
 21
132.3964859172894
 31
0.0
  0
LINE
  5
87
  8
2
 10
152.5
 20
95.5
 30
0.0
 11
147.5
 21
95.5
 31
0.0
  0
LINE
  5
88
  8
2
 10
152.5
 20
95.5
 30
0.0
 11
153.0
 21
95.0
 31
0.0
  0
LINE
  5
89
  8
2
 10
150.0
 20
106.4433756729736
 30
0.0
 11
152.5
 21
105.0
 31
0.0
  0
LINE
  5
8A
  8
2
 10
152.5
 20
105.0
 30
0.0
 11
147.5
 21
105.0
 31
0.0
  0
LINE
  5
8B
  8
2
 10
152.5
 20
95.5
 30
0.0
 11
152.5
 21
105.0
 31
0.0
  0
LINE
  5
8C
  8
0
 10
167.0
 20
95.0
 30
0.0
 11
167.5
 21
95.5
 31
0.0
  0
LINE
  5
8D
  8
0
 10
132.5
 20
95.5
 30
0.0
 11
133.0
 21
95.0
 31
0.0
  0
LINE
  5
8E
  8
1
 10
150.0
 20
152.5
 30
0.0
 11
150.0
 21
90.0
 31
0.0
  0
LINE
  5
8F
  8
0
 10
132.5
 20
130.0
 30
0.0
 11
138.75789785385271
 21
146.84818652960359
 31
0.0
  0
LINE
  5
90
  8
0
 10
139.6953231258625
 20
147.5
 30
0.0
 11
160.3046768741375
 21
147.5
 31
0.0
  0
LINE
  5
91
  8
0
 10
167.5
 20
130.0
 30
0.0
 11
167.5
 21
95.5
 31
0.0
  0
LINE
  5
92
  8
0
 10
132.5
 20
130.0
 30
0.0
 11
132.5
 21
95.5
 31
0.0
  0
LINE
  5
93
  8
0
 10
133.0
 20
95.0
 30
0.0
 11
167.0
 21
95.0
 31
0.0
  0
POLYLINE
  5
96
  8
0
 66
     1
 10
0.0
 20
0.0
 30
0.0
  0
VERTEX
  5
97
  8
0
 10
164.52071239208351
 20
236.0
 30
0.0
 42
0.2214616410549413
  0
VERTEX
  5
98
  8
0
 10
163.87056265079639
 20
235.69718174304799
 30
0.0
 42
0.0912407120028558
  0
VERTEX
  5
99
  8
0
 10
163.04345017172869
 20
234.2426406871194
 30
0.0
 42
0.047993319547901
 70
     2
 50
250.8021870422684
  0
VERTEX
  5
9A
  8
0
 10
162.54689576324881
 20
232.2060634449499
 30
0.0
 42
0.0455313706668012
 50
250.8021870422684
  0
VERTEX
  5
9B
  8
0
 10
162.4315481248762
 20
230.00000000000011
 30
0.0
 42
0.0358250541231279
  0
VERTEX
  5
9C
  8
0
 10
162.6077102868237
 20
227.5445107668761
 30
0.0
 42
0.0479933195478829
  0
VERTEX
  5
9D
  8
0
 10
163.0434501717283
 20
225.75735931288079
 30
0.0
 42
0.0912407120028666
 70
     2
 50
289.19781295772702
  0
VERTEX
  5
9E
  8
0
 10
163.87056265079599
 20
224.30281825695209
 30
0.0
 42
0.2214616410549839
 50
289.19781295772702
  0
VERTEX
  5
9F
  8
0
 10
164.520712392083
 20
224.0
 30
0.0
 42
0.2214616410549231
  0
SEQEND
  5
A0
  8
0
  0
POLYLINE
  5
A1
  8
0
 66
     1
 10
0.0
 20
0.0
 30
0.0
  0
VERTEX
  5
A2
  8
0
 10
76.0
 20
164.35670998047081
 30
0.0
 42
0.1041679131298214
  0
VERTEX
  5
A3
  8
0
 10
75.549185155674493
 20
166.49711511930579
 30
0.0
 42
0.1006642326454223
  0
VERTEX
  5
A4
  8
0
 10
74.242640687117671
 20
168.3434881267998
 30
0.0
 42
0.0960755927009361
 70
     2
 50
136.7808211063255
  0
VERTEX
  5
A5
  8
0
 10
72.31323623190201
 20
169.56054167108809
 30
0.0
 42
0.0930649262563682
 50
136.7808211063255
  0
VERTEX
  5
A6
  8
0
 10
69.999999999997712
 20
169.99486570518059
 30
0.0
 42
0.0930649262563758
  0
VERTEX
  5
A7
  8
0
 10
67.68676376809384
 20
169.56054167108621
 30
0.0
 42
0.0960755927009489
  0
VERTEX
  5
A8
  8
0
 10
65.757359312879103
 20
168.34348812679639
 30
0.0
 42
0.1006642326454168
 70
     2
 50
223.21917889372091
  0
VERTEX
  5
A9
  8
0
 10
64.450814844323759
 20
166.49711511930141
 30
0.0
 42
0.1041679131298188
 50
223.21917889372091
  0
VERTEX
  5
AA
  8
0
 10
64.0
 20
164.35670998046601
 30
0.0
 42
0.1041679131298188
  0
SEQEND
  5
AB
  8
0
  0
POLYLINE
  5
AC
  8
0
 66
     1
 10
0.0
 20
0.0
 30
0.0
  0
VERTEX
  5
AD
  8
0
 10
324.0
 20
138.02115894436619
 30
0.0
 42
0.1043914100760901
  0
VERTEX
  5
AE
  8
0
 10
324.45057864454679
 20
135.88655594650641
 30
0.0
 42
0.1007426005219265
  0
VERTEX
  5
AF
  8
0
 10
325.75735931289319
 20
134.04391450495481
 30
0.0
 42
0.0959781730402541
 70
     2
 50
316.8492721086065
  0
VERTEX
  5
B0
  8
0
 10
327.8606838817214
 20
132.7200966735318
 30
0.0
 42
0.1105732759107373
 50
316.8492721086065
  0
VERTEX
  5
B1
  8
0
 10
330.00000000001762
 20
132.39648591728849
 30
0.0
 42
0.0928610350064719
  0
VERTEX
  5
B2
  8
0
 10
332.31387203399908
 20
132.8299609508876
 30
0.0
 42
0.0959781730402731
  0
VERTEX
  5
B3
  8
0
 10
334.24264068713171
 20
134.0439145049813
 30
0.0
 42
0.1007426005219182
 70
     2
 50
43.150727891751799
  0
VERTEX
  5
B4
  8
0
 10
335.54942135546668
 20
135.88655594654119
 30
0.0
 42
0.1043914100751925
 50
43.150727891751799
  0
VERTEX
  5
B5
  8
0
 10
336.00000000000171
 20
138.02115894438501
 30
0.0
 42
0.10439141007608
  0
SEQEND
  5
B6
  8
0
  0
POLYLINE
  5
B7
  8
0
 66
     1
 10
0.0
 20
0.0
 30
0.0
  0
VERTEX
  5
B8
  8
0
 10
236.8770441925993
 20
34.0
 30
0.0
 42
0.2237701453317027
  0
VERTEX
  5
B9
  8
0
 10
237.51290844402919
 20
34.299575541338257
 30
0.0
 42
0.0904136542735405
  0
VERTEX
  5
BA
  8
0
 10
238.32811276848739
 20
35.757359312880723
 30
0.0
 42
0.0472389281878688
 70
     2
 50
71.118278769090693
  0
VERTEX
  5
BB
  8
0
 10
238.7560246760126
 20
37.543508703704219
 30
0.0
 42
0.0351977384400048
 50
71.118278769090693
  0
VERTEX
  5
BC
  8
0
 10
238.9291650525536
 20
40.0
 30
0.0
 42
0.0351977384400098
  0
VERTEX
  5
BD
  8
0
 10
238.75602467601249
 20
42.456491296296228
 30
0.0
 42
0.0472389281878548
  0
VERTEX
  5
BE
  8
0
 10
238.32811276848739
 20
44.242640687119277
 30
0.0
 42
0.0904136542735429
 70
     2
 50
108.88172123090931
  0
VERTEX
  5
BF
  8
0
 10
237.51290844402919
 20
45.700424458661729
 30
0.0
 42
0.2237701453317124
 50
108.88172123090931
  0
VERTEX
  5
C0
  8
0
 10
236.8770441925993
 20
46.0
 30
0.0
 42
0.2237701453317135
  0
SEQEND
  5
C1
  8
0
  0
ARC
  5
C2
  8
0
 10
182.36990949193881
 20
144.65086072433451
 30
0.0
 40
19.963675433086699
 50
182.88565386119669
 51
217.86721656647649
  0
LINE
  5
C3
  8
0
 10
162.4315481248764
 20
143.64583197148681
 30
0.0
 11
161.24210214614729
 21
146.84818652960359
 31
0.0
  0
CIRCLE
  5
C4
  8
0
 10
150.0
 20
230.0
 30
0.0
 40
11.00000000000008
  0
CIRCLE
  5
C5
  8
0
 10
250.8149381778141
 20
230.0
 30
0.0
 40
16.0
  0
TEXT
  5
1F1
  8
0
 62
     3
 10
0.0
 20
0.0
 30
0.0
 40
10.0
  1
LL100C
  7
STANDARD1
  0
ENDSEC
  0
EOF
