  0
SECTION
  2
HEADER
  9
$ACADVER
  1
AC1009
  9
$INSBASE
 10
0.0
 20
0.0
 30
0.0
  9
$EXTMIN
 10
0.0
 20
-2.960436562073669
 30
0.0
  9
$EXTMAX
 10
182.50412412789771
 20
94.075469692575481
 30
0.0
  9
$LIMMIN
 10
0.0
 20
0.0
  9
$LIMMAX
 10
187.5
 20
135.0
  9
$ORTHOMODE
 70
     1
  9
$REGENMODE
 70
     1
  9
$FILLMODE
 70
     1
  9
$QTEXTMODE
 70
     0
  9
$MIRRTEXT
 70
     0
  9
$DRAGMODE
 70
     2
  9
$LTSCALE
 40
5.0
  9
$OSMODE
 70
  3071
  9
$ATTMODE
 70
     1
  9
$TEXTSIZE
 40
2.5
  9
$TRACEWID
 40
0.05
  9
$TEXTSTYLE
  7
STANDARD
  9
$CLAYER
  8
0
  9
$CELTYPE
  6
BYLAYER
  9
$CECOLOR
 62
   256
  9
$DIMSCALE
 40
0.5
  9
$DIMASZ
 40
3.0
  9
$DIMEXO
 40
2.0
  9
$DIMDLI
 40
10.0
  9
$DIMRND
 40
0.0
  9
$DIMDLE
 40
0.0
  9
$DIMEXE
 40
2.0
  9
$DIMTP
 40
0.0
  9
$DIMTM
 40
0.0
  9
$DIMTXT
 40
3.0
  9
$DIMCEN
 40
0.09
  9
$DIMTSZ
 40
0.0
  9
$DIMTOL
 70
     0
  9
$DIMLIM
 70
     0
  9
$DIMTIH
 70
     0
  9
$DIMTOH
 70
     0
  9
$DIMSE1
 70
     0
  9
$DIMSE2
 70
     0
  9
$DIMTAD
 70
     1
  9
$DIMZIN
 70
     0
  9
$DIMBLK
  1

  9
$DIMASO
 70
     0
  9
$DIMSHO
 70
     0
  9
$DIMPOST
  1

  9
$DIMAPOST
  1

  9
$DIMALT
 70
     0
  9
$DIMALTD
 70
     2
  9
$DIMALTF
 40
25.399999999999999
  9
$DIMLFAC
 40
1.0
  9
$DIMTOFL
 70
     1
  9
$DIMTVP
 40
1.6000000000000001
  9
$DIMTIX
 70
     1
  9
$DIMSOXD
 70
     0
  9
$DIMSAH
 70
     0
  9
$DIMBLK1
  1

  9
$DIMBLK2
  1

  9
$DIMSTYLE
  2
STANDARD
  9
$DIMCLRD
 70
     0
  9
$DIMCLRE
 70
     0
  9
$DIMCLRT
 70
     0
  9
$DIMTFAC
 40
1.0
  9
$DIMGAP
 40
0.09
  9
$LUNITS
 70
     2
  9
$LUPREC
 70
     4
  9
$SKETCHINC
 40
0.1
  9
$FILLETRAD
 40
0.0
  9
$AUNITS
 70
     0
  9
$AUPREC
 70
     0
  9
$MENU
  1
E:\r13\win\SUPPORT\ACAD
  9
$ELEVATION
 40
0.0
  9
$PELEVATION
 40
0.0
  9
$THICKNESS
 40
0.0
  9
$LIMCHECK
 70
     0
  9
$BLIPMODE
 70
     0
  9
$CHAMFERA
 40
3.2000000000000002
  9
$CHAMFERB
 40
3.2000000000000002
  9
$SKPOLY
 70
     0
  9
$TDCREATE
 40
2449840.5944097228
  9
$TDUPDATE
 40
2456597.579170695
  9
$TDINDWG
 40
0.3018253935
  9
$TDUSRTIMER
 40
0.3018253935
  9
$USRTIMER
 70
     1
  9
$ANGBASE
 50
0.0
  9
$ANGDIR
 70
     0
  9
$PDMODE
 70
     0
  9
$PDSIZE
 40
0.0
  9
$PLINEWID
 40
0.0
  9
$COORDS
 70
     1
  9
$SPLFRAME
 70
     0
  9
$SPLINETYPE
 70
     6
  9
$SPLINESEGS
 70
     8
  9
$ATTDIA
 70
     0
  9
$ATTREQ
 70
     1
  9
$HANDLING
 70
     1
  9
$HANDSEED
  5
3CEE
  9
$SURFTAB1
 70
     6
  9
$SURFTAB2
 70
     6
  9
$SURFTYPE
 70
     6
  9
$SURFU
 70
     6
  9
$SURFV
 70
     6
  9
$UCSNAME
  2

  9
$UCSORG
 10
0.0
 20
0.0
 30
0.0
  9
$UCSXDIR
 10
1.0
 20
0.0
 30
0.0
  9
$UCSYDIR
 10
0.0
 20
1.0
 30
0.0
  9
$PUCSNAME
  2

  9
$PUCSORG
 10
0.0
 20
0.0
 30
0.0
  9
$PUCSXDIR
 10
1.0
 20
0.0
 30
0.0
  9
$PUCSYDIR
 10
0.0
 20
1.0
 30
0.0
  9
$USERI1
 70
     0
  9
$USERI2
 70
     1
  9
$USERI3
 70
     1
  9
$USERI4
 70
     0
  9
$USERI5
 70
     0
  9
$USERR1
 40
0.0
  9
$USERR2
 40
0.0
  9
$USERR3
 40
0.0
  9
$USERR4
 40
0.0
  9
$USERR5
 40
0.0
  9
$WORLDVIEW
 70
     1
  9
$SHADEDGE
 70
     3
  9
$SHADEDIF
 70
    70
  9
$TILEMODE
 70
     1
  9
$MAXACTVP
 70
    16
  9
$PLIMCHECK
 70
     0
  9
$PEXTMIN
 10
1.0000000000000000E+020
 20
1.0000000000000000E+020
 30
1.0000000000000000E+020
  9
$PEXTMAX
 10
-1.0000000000000000E+020
 20
-1.0000000000000000E+020
 30
-1.0000000000000000E+020
  9
$PLIMMIN
 10
0.0
 20
0.0
  9
$PLIMMAX
 10
12.0
 20
9.0
  9
$UNITMODE
 70
     0
  9
$VISRETAIN
 70
     0
  9
$PLINEGEN
 70
     0
  9
$PSLTSCALE
 70
     0
  0
ENDSEC
  0
SECTION
  2
TABLES
  0
TABLE
  2
VPORT
 70
     1
  0
VPORT
  2
*ACTIVE
 70
     0
 10
0.0
 20
0.0
 11
1.0
 21
1.0
 12
93.74713919532617
 22
80.848703909439024
 13
0.0
 23
0.0
 14
5.0
 24
5.0
 15
5.0
 25
5.0
 16
0.0
 26
0.0
 36
1.0
 17
0.0
 27
0.0
 37
0.0
 40
169.22413112104309
 41
1.9089595375722539
 42
50.0
 43
0.0
 44
0.0
 50
0.0
 51
0.0
 71
     0
 72
   100
 73
     1
 74
     0
 75
     0
 76
     0
 77
     0
 78
     0
  0
ENDTAB
  0
TABLE
  2
LTYPE
 70
     4
  0
LTYPE
  2
CONTINUOUS
 70
     0
  3
Solid Line
 72
    65
 73
     0
 40
0.0
  0
LTYPE
  2
CENTER
 70
     0
  3
____ _ ____ _ ____ _ ____ _ ____ _ ____ _ ____
 72
    65
 73
     4
 40
2.0
 49
1.25
 49
-0.25
 49
0.25
 49
-0.25
  0
LTYPE
  2
HIDDEN
 70
     0
  3
_ _ _ _ _ _ _ _ _ _ _ _ _ _ _ _ _ _ _ _ _ _ _
 72
    65
 73
     2
 40
0.375
 49
0.25
 49
-0.125
  0
LTYPE
  2
PHANTOM2
 70
     0
  3
___ _ _ ___ _ _ ___ _ _ ___ _ _
 72
    65
 73
     6
 40
1.25
 49
0.625
 49
-0.125
 49
0.125
 49
-0.125
 49
0.125
 49
-0.125
  0
ENDTAB
  0
TABLE
  2
LAYER
 70
     4
  0
LAYER
  2
0
 70
     0
 62
     7
  6
CONTINUOUS
  0
LAYER
  2
1
 70
     0
 62
     1
  6
CENTER
  0
LAYER
  2
2
 70
     0
 62
     2
  6
HIDDEN
  0
LAYER
  2
3
 70
     0
 62
     3
  6
CONTINUOUS
  0
ENDTAB
  0
TABLE
  2
STYLE
 70
     2
  0
STYLE
  2
STANDARD
 70
     0
 40
0.0
 41
1.0
 50
0.0
 71
     0
 42
2.5
  3
TXT
  4
BIGFONT
  0
STYLE
  2
STANDARD1
 70
     0
 40
0.0
 41
1.0
 50
0.0
 71
     0
 42
3.0
  3
txt
  4

  0
ENDTAB
  0
TABLE
  2
VIEW
 70
     1
  0
VIEW
  2
ALL
 70
     0
 40
135.0
 10
110.49579799999999
 20
67.5
 41
0.0
 11
0.0
 21
0.0
 31
1.0
 12
0.0
 22
0.0
 32
0.0
 42
0.0
 43
0.0
 44
0.0
 50
0.0
 71
     0
  0
ENDTAB
  0
TABLE
  2
UCS
 70
     0
  0
ENDTAB
  0
TABLE
  2
APPID
 70
     4
  0
APPID
  2
ACAD
 70
     0
  0
APPID
  2
DCO15
 70
     0
  0
APPID
  2
ACAD_MLEADERVER
 70
     0
  0
APPID
  2
ACAD_NAV_VCDISPLAY
 70
     0
  0
ENDTAB
  0
TABLE
  2
DIMSTYLE
 70
     1
  0
DIMSTYLE
  2
STANDARD
 70
     0
  3

  4

  5

  6

  7

 40
1.0
 41
0.18
 42
0.0625
 43
0.38
 44
0.18
 45
0.0
 46
0.0
 47
0.0
 48
0.0
140
0.18
141
0.09
142
0.0
143
25.399999999999999
144
1.0
145
0.0
146
1.0
147
0.09
 71
     0
 72
     0
 73
     1
 74
     1
 75
     0
 76
     0
 77
     0
 78
     0
170
     0
171
     2
172
     0
173
     0
174
     0
175
     0
176
     0
177
     0
178
     0
  0
ENDTAB
  0
ENDSEC
  0
SECTION
  2
BLOCKS
  0
BLOCK
  8
0
  2
$MODEL_SPACE
 70
     0
 10
0.0
 20
0.0
 30
0.0
  3
$MODEL_SPACE
  1

  0
ENDBLK
  5
15D
  8
0
  0
BLOCK
 67
     1
  8
0
  2
$PAPER_SPACE
 70
     0
 10
0.0
 20
0.0
 30
0.0
  3
$PAPER_SPACE
  1

  0
ENDBLK
  5
15B
 67
     1
  8
0
  0
BLOCK
  8
0
  2
STDGX5
 70
     0
 10
0.0
 20
0.0
 30
0.0
  3
STDGX5
  1

  0
ENDBLK
  5
41
  8
0
  0
ENDSEC
  0
SECTION
  2
ENTITIES
  0
INSERT
  5
CA
  8
0
  2
STDGX5
 10
0.0
 20
0.0
 30
0.0
  0
INSERT
  5
69A
  8
0
  2
STDGX5
 10
194.3272563481562
 20
13.52129245667936
 30
0.0
  0
LINE
  5
3B4D
  8
3
 10
74.704124127897757
 20
77.075469692575481
 30
0.0
 11
102.30412412789769
 21
77.07546969257551
 31
0.0
  0
LINE
  5
3B4E
  8
3
 10
74.704124127897757
 20
89.025469692575413
 30
0.0
 11
102.30412412789769
 21
89.025469692575456
 31
0.0
  0
LINE
  5
3B4F
  8
3
 10
74.704124127897757
 20
88.925469692575419
 30
0.0
 11
102.30412412789769
 21
88.925469692575462
 31
0.0
  0
LINE
  5
3B50
  8
3
 10
74.704124127897757
 20
82.675469692575462
 30
0.0
 11
102.30412412789769
 21
82.675469692575504
 31
0.0
  0
LINE
  5
3B51
  8
3
 10
74.704124127897757
 20
83.475469692575459
 30
0.0
 11
102.30412412789769
 21
83.475469692575487
 31
0.0
  0
LINE
  5
3B52
  8
3
 10
74.704124127897757
 20
84.275469692575456
 30
0.0
 11
102.30412412789769
 21
84.275469692575484
 31
0.0
  0
LINE
  5
3B53
  8
3
 10
74.704124127897757
 20
85.075469692575439
 30
0.0
 11
102.30412412789769
 21
85.075469692575481
 31
0.0
  0
LINE
  5
3B54
  8
3
 10
74.704124127897757
 20
86.675469692575447
 30
0.0
 11
102.30412412789769
 21
86.675469692575476
 31
0.0
  0
LINE
  5
3B55
  8
3
 10
74.704124127897757
 20
85.87546969257545
 30
0.0
 11
102.30412412789769
 21
85.875469692575479
 31
0.0
  0
LINE
  5
3B56
  8
3
 10
74.704124127897757
 20
87.325469692575439
 30
0.0
 11
102.30412412789769
 21
87.325469692575453
 31
0.0
  0
LINE
  5
3B57
  8
3
 10
74.704124127897757
 20
87.875469692575436
 30
0.0
 11
102.30412412789769
 21
87.875469692575464
 31
0.0
  0
LINE
  5
3B58
  8
3
 10
74.704124127897757
 20
88.325469692575439
 30
0.0
 11
102.30412412789769
 21
88.325469692575467
 31
0.0
  0
LINE
  5
3B59
  8
3
 10
74.704124127897757
 20
88.675469692575433
 30
0.0
 11
102.30412412789769
 21
88.675469692575462
 31
0.0
  0
LINE
  5
3B5A
  8
3
 10
74.704124127897757
 20
81.875469692575464
 30
0.0
 11
102.30412412789769
 21
81.875469692575493
 31
0.0
  0
LINE
  5
3B5B
  8
3
 10
74.704124127897757
 20
81.075469692575453
 30
0.0
 11
102.30412412789769
 21
81.075469692575496
 31
0.0
  0
LINE
  5
3B5C
  8
3
 10
74.704124127897757
 20
80.275469692575484
 30
0.0
 11
102.30412412789769
 21
80.275469692575484
 31
0.0
  0
LINE
  5
3B5D
  8
3
 10
74.704124127897757
 20
79.475469692575473
 30
0.0
 11
102.30412412789769
 21
79.475469692575501
 31
0.0
  0
LINE
  5
3B5E
  8
3
 10
74.704124127897757
 20
78.675469692575476
 30
0.0
 11
102.30412412789769
 21
78.675469692575504
 31
0.0
  0
LINE
  5
3B5F
  8
3
 10
74.704124127897757
 20
77.875469692575464
 30
0.0
 11
102.30412412789769
 21
77.875469692575507
 31
0.0
  0
LINE
  5
3B60
  8
0
 10
103.5041241278977
 20
73.075469692575751
 30
0.0
 11
122.30412412789779
 21
73.075469692575751
 31
0.0
  0
LINE
  5
3B61
  8
3
 10
103.5041241278977
 20
73.751969692575614
 30
0.0
 11
122.9806241278976
 21
73.751969692575614
 31
0.0
  0
LINE
  5
3B62
  8
3
 10
103.5041241278977
 20
80.398969692575903
 30
0.0
 11
122.9806241278976
 21
80.398969692575903
 31
0.0
  0
LINE
  5
3B63
  8
0
 10
103.5041241278977
 20
81.075469692575794
 30
0.0
 11
122.30412412789759
 21
81.075469692575851
 31
0.0
  0
LINE
  5
3B68
  8
2
 10
88.504124127897754
 20
74.114700177117172
 30
0.0
 11
89.104124127897833
 21
73.075469692575822
 31
0.0
  0
LINE
  5
3B69
  8
2
 10
88.504124127897768
 20
80.036239208034459
 30
0.0
 11
89.104124127897734
 21
81.075469692575808
 31
0.0
  0
LINE
  5
3B6B
  8
0
 10
123.5041241278978
 20
74.275469692575754
 30
0.0
 11
123.5041241278977
 21
79.875469692575834
 31
0.0
  0
LINE
  5
3B6C
  8
2
 10
88.504124127897754
 20
74.114700177117172
 30
0.0
 11
88.504124127897768
 21
80.036239208034459
 31
0.0
  0
LINE
  5
3B6D
  8
2
 10
89.104124127897734
 20
73.075469692575766
 30
0.0
 11
89.104124127897734
 21
81.075469692575766
 31
0.0
  0
LINE
  5
3B6E
  8
2
 10
88.713546670791146
 20
73.751969692575614
 30
0.0
 11
103.5041241278977
 21
73.751969692575599
 31
0.0
  0
LINE
  5
3B6F
  8
2
 10
88.713546670791047
 20
80.398969692575903
 30
0.0
 11
103.5041241278977
 21
80.398969692575875
 31
0.0
  0
LINE
  5
3B70
  8
2
 10
89.104124127897734
 20
81.075469692575766
 30
0.0
 11
103.5041241278977
 21
81.075469692575808
 31
0.0
  0
LINE
  5
3B71
  8
2
 10
89.104124127897734
 20
73.075469692575766
 30
0.0
 11
103.5041241278977
 21
73.075469692575751
 31
0.0
  0
LINE
  5
3B72
  8
0
 10
122.30412412789769
 20
81.075469692575808
 30
0.0
 11
123.5041241278977
 21
79.875469692575834
 31
0.0
  0
LINE
  5
3B73
  8
0
 10
123.5041241278978
 20
74.275469692575754
 30
0.0
 11
122.30412412789779
 21
73.075469692575766
 31
0.0
  0
LINE
  5
3B74
  8
0
 10
122.30412412789779
 20
73.075469692575709
 30
0.0
 11
122.30412412789779
 21
81.075469692575808
 31
0.0
  0
LINE
  5
3B77
  8
3
 10
74.704124127897757
 20
65.125469692575578
 30
0.0
 11
102.30412412789769
 21
65.12546969257555
 31
0.0
  0
LINE
  5
3B78
  8
3
 10
74.704124127897757
 20
65.225469692575572
 30
0.0
 11
102.30412412789769
 21
65.225469692575544
 31
0.0
  0
LINE
  5
3B79
  8
3
 10
74.704124127897757
 20
65.475469692575572
 30
0.0
 11
102.30412412789769
 21
65.475469692575544
 31
0.0
  0
LINE
  5
3B7A
  8
3
 10
74.704124127897757
 20
65.825469692575567
 30
0.0
 11
102.30412412789769
 21
65.825469692575538
 31
0.0
  0
LINE
  5
3B7B
  8
3
 10
74.704124127897757
 20
66.27546969257557
 30
0.0
 11
102.30412412789769
 21
66.275469692575541
 31
0.0
  0
LINE
  5
3B7C
  8
3
 10
74.704124127897757
 20
66.825469692575567
 30
0.0
 11
102.30412412789769
 21
66.825469692575538
 31
0.0
  0
LINE
  5
3B7D
  8
3
 10
74.704124127897757
 20
68.275469692575555
 30
0.0
 11
102.30412412789769
 21
68.275469692575527
 31
0.0
  0
LINE
  5
3B7E
  8
3
 10
74.704124127897757
 20
67.475469692575544
 30
0.0
 11
102.30412412789769
 21
67.47546969257553
 31
0.0
  0
LINE
  5
3B7F
  8
3
 10
74.704124127897757
 20
69.075469692575552
 30
0.0
 11
102.30412412789769
 21
69.075469692575524
 31
0.0
  0
LINE
  5
3B80
  8
3
 10
74.704124127897757
 20
69.87546969257555
 30
0.0
 11
102.30412412789769
 21
69.875469692575521
 31
0.0
  0
LINE
  5
3B81
  8
3
 10
74.704124127897757
 20
70.675469692575547
 30
0.0
 11
102.30412412789769
 21
70.675469692575518
 31
0.0
  0
LINE
  5
3B82
  8
3
 10
74.704124127897757
 20
71.475469692575544
 30
0.0
 11
102.30412412789769
 21
71.475469692575516
 31
0.0
  0
LINE
  5
3B83
  8
3
 10
74.704124127897757
 20
72.275469692575541
 30
0.0
 11
102.30412412789769
 21
72.275469692575513
 31
0.0
  0
LINE
  5
3B84
  8
3
 10
74.704124127897757
 20
73.075469692575538
 30
0.0
 11
102.30412412789769
 21
73.075469692575496
 31
0.0
  0
LINE
  5
3B85
  8
3
 10
74.704124127897757
 20
73.875469692575535
 30
0.0
 11
102.30412412789769
 21
73.875469692575507
 31
0.0
  0
LINE
  5
3B86
  8
3
 10
74.704124127897757
 20
74.675469692575533
 30
0.0
 11
102.30412412789769
 21
74.675469692575504
 31
0.0
  0
LINE
  5
3B87
  8
3
 10
74.704124127897757
 20
75.475469692575516
 30
0.0
 11
102.30412412789769
 21
75.475469692575501
 31
0.0
  0
LINE
  5
3B88
  8
3
 10
74.704124127897757
 20
76.275469692575527
 30
0.0
 11
102.30412412789769
 21
76.275469692575498
 31
0.0
  0
CIRCLE
  5
3B89
  8
0
 10
165.50412412789771
 20
77.075469692575481
 30
0.0
 40
4.0000000000000284
  0
CIRCLE
  5
3B8A
  8
3
 10
165.50412412789771
 20
77.075469692575481
 30
0.0
 40
3.3235000000001231
  0
CIRCLE
  5
3B8B
  8
0
 10
165.50412412789771
 20
77.075469692575481
 30
0.0
 40
10.80000000000002
  0
LINE
  5
3B8C
  8
0
 10
102.30412412789769
 20
65.075469692575481
 30
0.0
 11
102.30412412789769
 21
89.075469692575496
 31
0.0
  0
LINE
  5
3B8D
  8
0
 10
74.704124127897757
 20
89.075469692575496
 30
0.0
 11
74.704124127897742
 21
65.075469692575496
 31
0.0
  0
LINE
  5
3B8E
  8
0
 10
102.30412412789769
 20
89.075469692575496
 30
0.0
 11
103.5041241278977
 21
87.875469692575507
 31
0.0
  0
LINE
  5
3B8F
  8
0
 10
102.30412412789769
 20
65.075469692575481
 30
0.0
 11
103.5041241278977
 21
66.275469692575484
 31
0.0
  0
LINE
  5
3B90
  8
0
 10
73.50412412789774
 20
66.275469692575498
 30
0.0
 11
74.704124127897742
 21
65.075469692575496
 31
0.0
  0
LINE
  5
3B91
  8
0
 10
74.704124127897757
 20
89.075469692575496
 30
0.0
 11
73.504124127897754
 21
87.875469692575507
 31
0.0
  0
LINE
  5
3B92
  8
0
 10
73.504124127897754
 20
87.875469692575507
 30
0.0
 11
73.50412412789774
 21
66.275469692575498
 31
0.0
  0
LINE
  5
3B93
  8
0
 10
103.5041241278977
 20
87.875469692575507
 30
0.0
 11
103.5041241278977
 21
66.275469692575484
 31
0.0
  0
LINE
  5
3B94
  8
0
 10
102.30412412789769
 20
65.075469692575481
 30
0.0
 11
74.704124127897742
 21
65.075469692575496
 31
0.0
  0
LINE
  5
3B95
  8
0
 10
102.30412412789769
 20
89.075469692575496
 30
0.0
 11
74.704124127897757
 21
89.075469692575496
 31
0.0
  0
CIRCLE
  5
3B96
  8
0
 10
165.50412412789771
 20
77.075469692575481
 30
0.0
 40
12.0
  0
LINE
  5
3B97
  8
1
 10
165.50412412789771
 20
94.075469692575481
 30
0.0
 11
165.50412412789771
 21
60.075469692575481
 31
0.0
  0
LINE
  5
3B98
  8
1
 10
182.50412412789771
 20
77.075469692575481
 30
0.0
 11
148.50412412789771
 21
77.075469692575481
 31
0.0
  0
LINE
  5
3B99
  8
1
 10
68.50412412789774
 20
77.075469692575524
 30
0.0
 11
128.50412412789771
 21
77.075469692575481
 31
0.0
  0
LINE
  5
3B9B
  8
1
 10
31.50412412789774
 20
94.075469692575481
 30
0.0
 11
31.50412412789774
 21
60.075469692575481
 31
0.0
  0
CIRCLE
  5
3B9C
  8
0
 10
31.50412412789774
 20
77.075469692575481
 30
0.0
 40
12.0
  0
CIRCLE
  5
3B9D
  8
0
 10
31.50412412789774
 20
77.075469692575481
 30
0.0
 40
10.80000000000002
  0
LINE
  5
3B9E
  8
1
 10
14.50412412789774
 20
77.075469692575481
 30
0.0
 11
48.50412412789774
 21
77.075469692575481
 31
0.0
  0
TEXT
  5
3C5D
  8
0
 62
     3
 10
0.0
 20
0.0
 30
0.0
 40
10.0
  1
LKS8X20-SUS
  7
STANDARD1
  0
ENDSEC
  0
EOF
