  0
SECTION
  2
HEADER
  9
$ACADVER
  1
AC1009
  9
$INSBASE
 10
0.0
 20
0.0
 30
0.0
  9
$EXTMIN
 10
0.0
 20
-2.960436562073669
 30
0.0
  9
$EXTMAX
 10
121.7451999933145
 20
67.566037810003422
 30
0.0
  9
$LIMMIN
 10
0.0
 20
0.0
  9
$LIMMAX
 10
187.5
 20
135.0
  9
$ORTHOMODE
 70
     0
  9
$REGENMODE
 70
     1
  9
$FILLMODE
 70
     1
  9
$QTEXTMODE
 70
     0
  9
$MIRRTEXT
 70
     0
  9
$DRAGMODE
 70
     2
  9
$LTSCALE
 40
5.0
  9
$OSMODE
 70
  3071
  9
$ATTMODE
 70
     1
  9
$TEXTSIZE
 40
2.5
  9
$TRACEWID
 40
0.05
  9
$TEXTSTYLE
  7
STANDARD
  9
$CLAYER
  8
0
  9
$CELTYPE
  6
BYLAYER
  9
$CECOLOR
 62
   256
  9
$DIMSCALE
 40
0.5
  9
$DIMASZ
 40
3.0
  9
$DIMEXO
 40
2.0
  9
$DIMDLI
 40
10.0
  9
$DIMRND
 40
0.0
  9
$DIMDLE
 40
0.0
  9
$DIMEXE
 40
2.0
  9
$DIMTP
 40
0.0
  9
$DIMTM
 40
0.0
  9
$DIMTXT
 40
3.0
  9
$DIMCEN
 40
0.09
  9
$DIMTSZ
 40
0.0
  9
$DIMTOL
 70
     0
  9
$DIMLIM
 70
     0
  9
$DIMTIH
 70
     0
  9
$DIMTOH
 70
     0
  9
$DIMSE1
 70
     0
  9
$DIMSE2
 70
     0
  9
$DIMTAD
 70
     1
  9
$DIMZIN
 70
     0
  9
$DIMBLK
  1

  9
$DIMASO
 70
     0
  9
$DIMSHO
 70
     0
  9
$DIMPOST
  1

  9
$DIMAPOST
  1

  9
$DIMALT
 70
     0
  9
$DIMALTD
 70
     2
  9
$DIMALTF
 40
25.399999999999999
  9
$DIMLFAC
 40
1.0
  9
$DIMTOFL
 70
     1
  9
$DIMTVP
 40
1.6000000000000001
  9
$DIMTIX
 70
     1
  9
$DIMSOXD
 70
     0
  9
$DIMSAH
 70
     0
  9
$DIMBLK1
  1

  9
$DIMBLK2
  1

  9
$DIMSTYLE
  2
STANDARD
  9
$DIMCLRD
 70
     0
  9
$DIMCLRE
 70
     0
  9
$DIMCLRT
 70
     0
  9
$DIMTFAC
 40
1.0
  9
$DIMGAP
 40
0.09
  9
$LUNITS
 70
     2
  9
$LUPREC
 70
     4
  9
$SKETCHINC
 40
0.1
  9
$FILLETRAD
 40
0.0
  9
$AUNITS
 70
     0
  9
$AUPREC
 70
     0
  9
$MENU
  1
E:\r13\win\SUPPORT\ACAD
  9
$ELEVATION
 40
0.0
  9
$PELEVATION
 40
0.0
  9
$THICKNESS
 40
0.0
  9
$LIMCHECK
 70
     0
  9
$BLIPMODE
 70
     0
  9
$CHAMFERA
 40
3.2000000000000002
  9
$CHAMFERB
 40
3.2000000000000002
  9
$SKPOLY
 70
     0
  9
$TDCREATE
 40
2449840.5944097228
  9
$TDUPDATE
 40
2456597.579063206
  9
$TDINDWG
 40
0.2826399769
  9
$TDUSRTIMER
 40
0.2826399769
  9
$USRTIMER
 70
     1
  9
$ANGBASE
 50
0.0
  9
$ANGDIR
 70
     0
  9
$PDMODE
 70
     0
  9
$PDSIZE
 40
0.0
  9
$PLINEWID
 40
0.0
  9
$COORDS
 70
     1
  9
$SPLFRAME
 70
     0
  9
$SPLINETYPE
 70
     6
  9
$SPLINESEGS
 70
     8
  9
$ATTDIA
 70
     0
  9
$ATTREQ
 70
     1
  9
$HANDLING
 70
     1
  9
$HANDSEED
  5
3AF7
  9
$SURFTAB1
 70
     6
  9
$SURFTAB2
 70
     6
  9
$SURFTYPE
 70
     6
  9
$SURFU
 70
     6
  9
$SURFV
 70
     6
  9
$UCSNAME
  2

  9
$UCSORG
 10
0.0
 20
0.0
 30
0.0
  9
$UCSXDIR
 10
1.0
 20
0.0
 30
0.0
  9
$UCSYDIR
 10
0.0
 20
1.0
 30
0.0
  9
$PUCSNAME
  2

  9
$PUCSORG
 10
0.0
 20
0.0
 30
0.0
  9
$PUCSXDIR
 10
1.0
 20
0.0
 30
0.0
  9
$PUCSYDIR
 10
0.0
 20
1.0
 30
0.0
  9
$USERI1
 70
     0
  9
$USERI2
 70
     1
  9
$USERI3
 70
     1
  9
$USERI4
 70
     0
  9
$USERI5
 70
     0
  9
$USERR1
 40
0.0
  9
$USERR2
 40
0.0
  9
$USERR3
 40
0.0
  9
$USERR4
 40
0.0
  9
$USERR5
 40
0.0
  9
$WORLDVIEW
 70
     1
  9
$SHADEDGE
 70
     3
  9
$SHADEDIF
 70
    70
  9
$TILEMODE
 70
     1
  9
$MAXACTVP
 70
    16
  9
$PLIMCHECK
 70
     0
  9
$PEXTMIN
 10
1.0000000000000000E+020
 20
1.0000000000000000E+020
 30
1.0000000000000000E+020
  9
$PEXTMAX
 10
-1.0000000000000000E+020
 20
-1.0000000000000000E+020
 30
-1.0000000000000000E+020
  9
$PLIMMIN
 10
0.0
 20
0.0
  9
$PLIMMAX
 10
12.0
 20
9.0
  9
$UNITMODE
 70
     0
  9
$VISRETAIN
 70
     0
  9
$PLINEGEN
 70
     0
  9
$PSLTSCALE
 70
     0
  0
ENDSEC
  0
SECTION
  2
TABLES
  0
TABLE
  2
VPORT
 70
     1
  0
VPORT
  2
*ACTIVE
 70
     0
 10
0.0
 20
0.0
 11
1.0
 21
1.0
 12
93.74713919532617
 22
80.848703909439024
 13
0.0
 23
0.0
 14
5.0
 24
5.0
 15
5.0
 25
5.0
 16
0.0
 26
0.0
 36
1.0
 17
0.0
 27
0.0
 37
0.0
 40
169.22413112104309
 41
1.9089595375722539
 42
50.0
 43
0.0
 44
0.0
 50
0.0
 51
0.0
 71
     0
 72
   100
 73
     1
 74
     0
 75
     0
 76
     0
 77
     0
 78
     0
  0
ENDTAB
  0
TABLE
  2
LTYPE
 70
     4
  0
LTYPE
  2
CONTINUOUS
 70
     0
  3
Solid Line
 72
    65
 73
     0
 40
0.0
  0
LTYPE
  2
CENTER
 70
     0
  3
____ _ ____ _ ____ _ ____ _ ____ _ ____ _ ____
 72
    65
 73
     4
 40
2.0
 49
1.25
 49
-0.25
 49
0.25
 49
-0.25
  0
LTYPE
  2
HIDDEN
 70
     0
  3
_ _ _ _ _ _ _ _ _ _ _ _ _ _ _ _ _ _ _ _ _ _ _
 72
    65
 73
     2
 40
0.375
 49
0.25
 49
-0.125
  0
LTYPE
  2
PHANTOM2
 70
     0
  3
___ _ _ ___ _ _ ___ _ _ ___ _ _
 72
    65
 73
     6
 40
1.25
 49
0.625
 49
-0.125
 49
0.125
 49
-0.125
 49
0.125
 49
-0.125
  0
ENDTAB
  0
TABLE
  2
LAYER
 70
     4
  0
LAYER
  2
0
 70
     0
 62
     7
  6
CONTINUOUS
  0
LAYER
  2
1
 70
     0
 62
     1
  6
CENTER
  0
LAYER
  2
2
 70
     0
 62
     2
  6
HIDDEN
  0
LAYER
  2
3
 70
     0
 62
     3
  6
CONTINUOUS
  0
ENDTAB
  0
TABLE
  2
STYLE
 70
     2
  0
STYLE
  2
STANDARD
 70
     0
 40
0.0
 41
1.0
 50
0.0
 71
     0
 42
2.5
  3
TXT
  4
BIGFONT
  0
STYLE
  2
STANDARD1
 70
     0
 40
0.0
 41
1.0
 50
0.0
 71
     0
 42
3.0
  3
txt
  4

  0
ENDTAB
  0
TABLE
  2
VIEW
 70
     1
  0
VIEW
  2
ALL
 70
     0
 40
135.0
 10
110.49579799999999
 20
67.5
 41
0.0
 11
0.0
 21
0.0
 31
1.0
 12
0.0
 22
0.0
 32
0.0
 42
0.0
 43
0.0
 44
0.0
 50
0.0
 71
     0
  0
ENDTAB
  0
TABLE
  2
UCS
 70
     0
  0
ENDTAB
  0
TABLE
  2
APPID
 70
     4
  0
APPID
  2
ACAD
 70
     0
  0
APPID
  2
DCO15
 70
     0
  0
APPID
  2
ACAD_MLEADERVER
 70
     0
  0
APPID
  2
ACAD_NAV_VCDISPLAY
 70
     0
  0
ENDTAB
  0
TABLE
  2
DIMSTYLE
 70
     1
  0
DIMSTYLE
  2
STANDARD
 70
     0
  3

  4

  5

  6

  7

 40
1.0
 41
0.18
 42
0.0625
 43
0.38
 44
0.18
 45
0.0
 46
0.0
 47
0.0
 48
0.0
140
0.18
141
0.09
142
0.0
143
25.399999999999999
144
1.0
145
0.0
146
1.0
147
0.09
 71
     0
 72
     0
 73
     1
 74
     1
 75
     0
 76
     0
 77
     0
 78
     0
170
     0
171
     2
172
     0
173
     0
174
     0
175
     0
176
     0
177
     0
178
     0
  0
ENDTAB
  0
ENDSEC
  0
SECTION
  2
BLOCKS
  0
BLOCK
  8
0
  2
$MODEL_SPACE
 70
     0
 10
0.0
 20
0.0
 30
0.0
  3
$MODEL_SPACE
  1

  0
ENDBLK
  5
15D
  8
0
  0
BLOCK
 67
     1
  8
0
  2
$PAPER_SPACE
 70
     0
 10
0.0
 20
0.0
 30
0.0
  3
$PAPER_SPACE
  1

  0
ENDBLK
  5
15B
 67
     1
  8
0
  0
BLOCK
  8
0
  2
STDGX5
 70
     0
 10
0.0
 20
0.0
 30
0.0
  3
STDGX5
  1

  0
ENDBLK
  5
41
  8
0
  0
ENDSEC
  0
SECTION
  2
ENTITIES
  0
INSERT
  5
CA
  8
0
  2
STDGX5
 10
0.0
 20
0.0
 30
0.0
  0
INSERT
  5
69A
  8
0
  2
STDGX5
 10
194.3272563481562
 20
13.52129245667936
 30
0.0
  0
LINE
  5
3957
  8
3
 10
23.945199993314588
 20
38.616037810003512
 30
0.0
 11
51.545199993314583
 21
38.616037810003469
 31
0.0
  0
LINE
  5
3958
  8
3
 10
23.945199993314588
 20
38.716037810003499
 30
0.0
 11
51.545199993314583
 21
38.716037810003471
 31
0.0
  0
LINE
  5
3959
  8
3
 10
23.945199993314588
 20
38.966037810003499
 30
0.0
 11
51.545199993314583
 21
38.966037810003471
 31
0.0
  0
LINE
  5
395A
  8
3
 10
23.945199993314588
 20
39.3160378100035
 30
0.0
 11
51.545199993314583
 21
39.316037810003472
 31
0.0
  0
LINE
  5
395B
  8
3
 10
23.945199993314588
 20
39.766037810003489
 30
0.0
 11
51.545199993314583
 21
39.766037810003468
 31
0.0
  0
LINE
  5
395C
  8
3
 10
23.945199993314588
 20
40.316037810003493
 30
0.0
 11
51.545199993314583
 21
40.316037810003458
 31
0.0
  0
LINE
  5
395D
  8
3
 10
23.945199993314588
 20
41.766037810003482
 30
0.0
 11
51.545199993314583
 21
41.766037810003454
 31
0.0
  0
LINE
  5
395E
  8
3
 10
23.945199993314588
 20
40.966037810003478
 30
0.0
 11
51.545199993314583
 21
40.966037810003463
 31
0.0
  0
LINE
  5
395F
  8
3
 10
23.945199993314588
 20
42.566037810003479
 30
0.0
 11
51.545199993314583
 21
42.566037810003451
 31
0.0
  0
LINE
  5
3960
  8
3
 10
23.945199993314588
 20
43.366037810003483
 30
0.0
 11
51.545199993314583
 21
43.366037810003441
 31
0.0
  0
LINE
  5
3961
  8
3
 10
23.945199993314588
 20
44.166037810003473
 30
0.0
 11
51.545199993314583
 21
44.166037810003438
 31
0.0
  0
LINE
  5
3962
  8
3
 10
23.945199993314588
 20
44.966037810003471
 30
0.0
 11
51.545199993314583
 21
44.966037810003442
 31
0.0
  0
LINE
  5
3963
  8
3
 10
23.945199993314588
 20
45.766037810003461
 30
0.0
 11
51.545199993314583
 21
45.766037810003432
 31
0.0
  0
LINE
  5
3964
  8
3
 10
23.945199993314588
 20
46.566037810003458
 30
0.0
 11
51.545199993314583
 21
46.566037810003436
 31
0.0
  0
LINE
  5
3965
  8
3
 10
23.945199993314588
 20
47.366037810003462
 30
0.0
 11
51.545199993314583
 21
47.366037810003427
 31
0.0
  0
LINE
  5
3966
  8
3
 10
23.945199993314588
 20
48.166037810003452
 30
0.0
 11
51.545199993314583
 21
48.166037810003431
 31
0.0
  0
LINE
  5
3967
  8
3
 10
23.945199993314588
 20
48.966037810003449
 30
0.0
 11
51.545199993314583
 21
48.966037810003428
 31
0.0
  0
LINE
  5
3968
  8
3
 10
23.945199993314588
 20
49.766037810003461
 30
0.0
 11
51.545199993314583
 21
49.766037810003418
 31
0.0
  0
CIRCLE
  5
3969
  8
3
 10
104.7451999933145
 20
50.566037810003422
 30
0.0
 40
4.0000000000000284
  0
CIRCLE
  5
396A
  8
0
 10
104.7451999933145
 20
50.566037810003422
 30
0.0
 40
3.3235000000001231
  0
LINE
  5
396B
  8
2
 10
51.545199993314569
 20
53.889537810003468
 30
0.0
 11
52.745199993314593
 21
55.089537810003492
 31
0.0
  0
LINE
  5
3972
  8
2
 10
51.54519999331459
 20
53.88953781000356
 30
0.0
 11
23.945199993314478
 21
53.88953781000356
 31
0.0
  0
CIRCLE
  5
3973
  8
0
 10
104.7451999933145
 20
50.566037810003422
 30
0.0
 40
10.80000000000002
  0
LINE
  5
3974
  8
0
 10
51.545199993314569
 20
38.566037810003408
 30
0.0
 11
51.545199993314569
 21
62.566037810003436
 31
0.0
  0
LINE
  5
3975
  8
0
 10
23.945199993314599
 20
62.566037810003458
 30
0.0
 11
23.945199993314571
 21
38.566037810003422
 31
0.0
  0
LINE
  5
3976
  8
0
 10
51.545199993314569
 20
62.566037810003429
 30
0.0
 11
52.745199993314571
 21
61.366037810003427
 31
0.0
  0
LINE
  5
3977
  8
0
 10
51.545199993314569
 20
38.566037810003408
 30
0.0
 11
52.745199993314571
 21
39.766037810003411
 31
0.0
  0
LINE
  5
3978
  8
0
 10
22.745199993314571
 20
39.766037810003418
 30
0.0
 11
23.945199993314571
 21
38.566037810003422
 31
0.0
  0
LINE
  5
3979
  8
0
 10
23.945199993314588
 20
62.566037810003429
 30
0.0
 11
22.745199993314589
 21
61.366037810003427
 31
0.0
  0
LINE
  5
397A
  8
0
 10
22.745199993314589
 20
61.366037810003427
 30
0.0
 11
22.745199993314571
 21
39.766037810003418
 31
0.0
  0
LINE
  5
397B
  8
0
 10
52.745199993314571
 20
61.366037810003427
 30
0.0
 11
52.745199993314571
 21
39.766037810003411
 31
0.0
  0
LINE
  5
397C
  8
0
 10
51.545199993314569
 20
38.566037810003408
 30
0.0
 11
23.945199993314571
 21
38.566037810003422
 31
0.0
  0
LINE
  5
397D
  8
0
 10
51.545199993314569
 20
62.566037810003429
 30
0.0
 11
23.945199993314588
 21
62.566037810003429
 31
0.0
  0
CIRCLE
  5
397E
  8
0
 10
104.7451999933145
 20
50.566037810003422
 30
0.0
 40
12.0
  0
LINE
  5
397F
  8
1
 10
104.7451999933145
 20
67.566037810003422
 30
0.0
 11
104.7451999933145
 21
33.566037810003422
 31
0.0
  0
LINE
  5
3980
  8
1
 10
121.7451999933145
 20
50.566037810003422
 30
0.0
 11
87.745199993314586
 21
50.566037810003422
 31
0.0
  0
LINE
  5
3981
  8
1
 10
17.745199993314571
 20
50.566037810003451
 30
0.0
 11
57.745199993314571
 21
50.566037810003422
 31
0.0
  0
LINE
  5
3983
  8
2
 10
51.545199993314583
 20
47.242537810003299
 30
0.0
 11
23.945199993314549
 21
47.242537810003341
 31
0.0
  0
LINE
  5
3984
  8
2
 10
52.221699993314537
 20
46.566037810003408
 30
0.0
 11
23.268699993314641
 21
46.566037810003429
 31
0.0
  0
LINE
  5
3986
  8
2
 10
51.545199993314561
 20
47.242537810003377
 30
0.0
 11
52.745199993314579
 21
46.04253781000336
 31
0.0
  0
LINE
  5
3989
  8
3
 10
23.945199993314588
 20
51.366037810003441
 30
0.0
 11
51.545199993314583
 21
51.366037810003427
 31
0.0
  0
LINE
  5
398A
  8
3
 10
23.945199993314588
 20
52.166037810003438
 30
0.0
 11
51.545199993314583
 21
52.166037810003431
 31
0.0
  0
LINE
  5
398B
  8
3
 10
23.945199993314588
 20
52.966037810003428
 30
0.0
 11
51.545199993314583
 21
52.966037810003421
 31
0.0
  0
LINE
  5
398C
  8
3
 10
23.945199993314588
 20
53.766037810003432
 30
0.0
 11
51.545199993314583
 21
53.766037810003418
 31
0.0
  0
LINE
  5
398D
  8
3
 10
23.945199993314588
 20
54.566037810003422
 30
0.0
 11
51.545199993314583
 21
54.566037810003422
 31
0.0
  0
LINE
  5
398E
  8
3
 10
23.945199993314599
 20
55.366037810003427
 30
0.0
 11
51.545199993314583
 21
55.366037810003419
 31
0.0
  0
LINE
  5
398F
  8
3
 10
23.945199993314599
 20
56.166037810003431
 30
0.0
 11
51.545199993314583
 21
56.166037810003417
 31
0.0
  0
LINE
  5
3990
  8
3
 10
23.945199993314599
 20
56.966037810003421
 30
0.0
 11
51.545199993314583
 21
56.966037810003407
 31
0.0
  0
LINE
  5
3991
  8
3
 10
23.945199993314599
 20
57.766037810003418
 30
0.0
 11
51.545199993314583
 21
57.766037810003411
 31
0.0
  0
LINE
  5
3992
  8
3
 10
23.945199993314599
 20
58.566037810003408
 30
0.0
 11
51.545199993314583
 21
58.566037810003408
 31
0.0
  0
LINE
  5
3993
  8
3
 10
23.945199993314599
 20
60.166037810003409
 30
0.0
 11
51.54519999331459
 21
60.166037810003402
 31
0.0
  0
LINE
  5
3994
  8
3
 10
23.945199993314599
 20
59.366037810003412
 30
0.0
 11
51.54519999331459
 21
59.366037810003398
 31
0.0
  0
LINE
  5
3995
  8
3
 10
23.945199993314599
 20
60.816037810003401
 30
0.0
 11
51.54519999331459
 21
60.816037810003387
 31
0.0
  0
LINE
  5
3996
  8
3
 10
23.945199993314599
 20
61.366037810003391
 30
0.0
 11
51.54519999331459
 21
61.366037810003391
 31
0.0
  0
LINE
  5
3997
  8
3
 10
23.945199993314599
 20
61.816037810003401
 30
0.0
 11
51.54519999331459
 21
61.816037810003387
 31
0.0
  0
LINE
  5
3998
  8
3
 10
23.945199993314599
 20
62.166037810003402
 30
0.0
 11
51.54519999331459
 21
62.166037810003388
 31
0.0
  0
LINE
  5
3999
  8
3
 10
23.945199993314599
 20
62.416037810003388
 30
0.0
 11
51.54519999331459
 21
62.416037810003388
 31
0.0
  0
LINE
  5
399A
  8
3
 10
23.945199993314599
 20
62.51603781000339
 30
0.0
 11
51.54519999331459
 21
62.516037810003382
 31
0.0
  0
LINE
  5
399B
  8
2
 10
51.545199993314569
 20
47.242537810003377
 30
0.0
 11
51.545199993314661
 21
53.88953781000356
 31
0.0
  0
LINE
  5
39A2
  8
3
 10
23.945199993314571
 20
50.566037810003436
 30
0.0
 11
51.545199993314569
 21
50.566037810003436
 31
0.0
  0
LINE
  5
39AA
  8
2
 10
23.945199993314581
 20
47.242537810003363
 30
0.0
 11
23.945199993314489
 21
53.889537810003539
 31
0.0
  0
LINE
  5
39AB
  8
2
 10
23.945199993314588
 20
47.24253781000337
 30
0.0
 11
22.745199993314571
 21
46.042537810003338
 31
0.0
  0
LINE
  5
39AC
  8
2
 10
23.945199993314571
 20
53.889537810003461
 30
0.0
 11
22.745199993314561
 21
55.08953781000347
 31
0.0
  0
LINE
  5
39AD
  8
2
 10
52.221699993314537
 20
54.566037810003451
 30
0.0
 11
23.268699993314652
 21
54.566037810003429
 31
0.0
  0
TEXT
  5
3A66
  8
0
 62
     3
 10
0.0
 20
0.0
 30
0.0
 40
10.0
  1
LKN8T-SUS
  7
STANDARD1
  0
ENDSEC
  0
EOF
