  0
SECTION
  2
HEADER
  9
$ACADVER
  1
AC1009
  9
$INSBASE
 10
0.0
 20
0.0
 30
0.0
  9
$EXTMIN
 10
0.0
 20
-1.4802182810368341
 30
0.0
  9
$EXTMAX
 10
79.5
 20
42.700000000000003
 30
0.0
  9
$LIMMIN
 10
0.0
 20
0.0
  9
$LIMMAX
 10
187.5
 20
135.0
  9
$ORTHOMODE
 70
     1
  9
$REGENMODE
 70
     1
  9
$FILLMODE
 70
     1
  9
$QTEXTMODE
 70
     0
  9
$MIRRTEXT
 70
     0
  9
$DRAGMODE
 70
     2
  9
$LTSCALE
 40
2.0
  9
$OSMODE
 70
    37
  9
$ATTMODE
 70
     1
  9
$TEXTSIZE
 40
4.0
  9
$TRACEWID
 40
0.05
  9
$TEXTSTYLE
  7
STANDARD
  9
$CLAYER
  8
0
  9
$CELTYPE
  6
BYLAYER
  9
$CECOLOR
 62
   256
  9
$DIMSCALE
 40
0.5
  9
$DIMASZ
 40
3.0
  9
$DIMEXO
 40
2.0
  9
$DIMDLI
 40
0.38
  9
$DIMRND
 40
0.0
  9
$DIMDLE
 40
0.0
  9
$DIMEXE
 40
2.0
  9
$DIMTP
 40
0.0
  9
$DIMTM
 40
0.0
  9
$DIMTXT
 40
3.0
  9
$DIMCEN
 40
0.0
  9
$DIMTSZ
 40
0.0
  9
$DIMTOL
 70
     0
  9
$DIMLIM
 70
     0
  9
$DIMTIH
 70
     0
  9
$DIMTOH
 70
     0
  9
$DIMSE1
 70
     0
  9
$DIMSE2
 70
     0
  9
$DIMTAD
 70
     1
  9
$DIMZIN
 70
     8
  9
$DIMBLK
  1

  9
$DIMASO
 70
     0
  9
$DIMSHO
 70
     0
  9
$DIMPOST
  1

  9
$DIMAPOST
  1

  9
$DIMALT
 70
     0
  9
$DIMALTD
 70
     2
  9
$DIMALTF
 40
25.399999999999999
  9
$DIMLFAC
 40
1.0
  9
$DIMTOFL
 70
     1
  9
$DIMTVP
 40
1.6000000000000001
  9
$DIMTIX
 70
     1
  9
$DIMSOXD
 70
     0
  9
$DIMSAH
 70
     0
  9
$DIMBLK1
  1

  9
$DIMBLK2
  1

  9
$DIMSTYLE
  2
STANDARD
  9
$DIMCLRD
 70
   256
  9
$DIMCLRE
 70
   256
  9
$DIMCLRT
 70
   256
  9
$DIMTFAC
 40
1.0
  9
$DIMGAP
 40
1.0
  9
$LUNITS
 70
     2
  9
$LUPREC
 70
     1
  9
$SKETCHINC
 40
0.1
  9
$FILLETRAD
 40
1.0
  9
$AUNITS
 70
     0
  9
$AUPREC
 70
     0
  9
$MENU
  1
E:\r13\win\SUPPORT\ACAD
  9
$ELEVATION
 40
0.0
  9
$PELEVATION
 40
0.0
  9
$THICKNESS
 40
0.0
  9
$LIMCHECK
 70
     0
  9
$BLIPMODE
 70
     0
  9
$CHAMFERA
 40
0.0
  9
$CHAMFERB
 40
0.0
  9
$SKPOLY
 70
     0
  9
$TDCREATE
 40
2449840.6143865739
  9
$TDUPDATE
 40
2459255.6465926268
  9
$TDINDWG
 40
0.9277802431
  9
$TDUSRTIMER
 40
0.9277802431
  9
$USRTIMER
 70
     1
  9
$ANGBASE
 50
0.0
  9
$ANGDIR
 70
     0
  9
$PDMODE
 70
     0
  9
$PDSIZE
 40
0.0
  9
$PLINEWID
 40
0.0
  9
$COORDS
 70
     1
  9
$SPLFRAME
 70
     0
  9
$SPLINETYPE
 70
     6
  9
$SPLINESEGS
 70
     8
  9
$ATTDIA
 70
     0
  9
$ATTREQ
 70
     1
  9
$HANDLING
 70
     1
  9
$HANDSEED
  5
3B57
  9
$SURFTAB1
 70
     6
  9
$SURFTAB2
 70
     6
  9
$SURFTYPE
 70
     6
  9
$SURFU
 70
     6
  9
$SURFV
 70
     6
  9
$UCSNAME
  2

  9
$UCSORG
 10
0.0
 20
0.0
 30
0.0
  9
$UCSXDIR
 10
1.0
 20
0.0
 30
0.0
  9
$UCSYDIR
 10
0.0
 20
1.0
 30
0.0
  9
$PUCSNAME
  2

  9
$PUCSORG
 10
0.0
 20
0.0
 30
0.0
  9
$PUCSXDIR
 10
1.0
 20
0.0
 30
0.0
  9
$PUCSYDIR
 10
0.0
 20
1.0
 30
0.0
  9
$USERI1
 70
     0
  9
$USERI2
 70
     1
  9
$USERI3
 70
     1
  9
$USERI4
 70
     0
  9
$USERI5
 70
     0
  9
$USERR1
 40
0.0
  9
$USERR2
 40
0.0
  9
$USERR3
 40
0.0
  9
$USERR4
 40
0.0
  9
$USERR5
 40
0.0
  9
$WORLDVIEW
 70
     1
  9
$SHADEDGE
 70
     3
  9
$SHADEDIF
 70
    70
  9
$TILEMODE
 70
     1
  9
$MAXACTVP
 70
    16
  9
$PLIMCHECK
 70
     0
  9
$PEXTMIN
 10
1.0000000000000000E+020
 20
1.0000000000000000E+020
 30
1.0000000000000000E+020
  9
$PEXTMAX
 10
-1.0000000000000000E+020
 20
-1.0000000000000000E+020
 30
-1.0000000000000000E+020
  9
$PLIMMIN
 10
0.0
 20
0.0
  9
$PLIMMAX
 10
12.0
 20
9.0
  9
$UNITMODE
 70
     0
  9
$VISRETAIN
 70
     0
  9
$PLINEGEN
 70
     0
  9
$PSLTSCALE
 70
     0
  0
ENDSEC
  0
SECTION
  2
TABLES
  0
TABLE
  2
VPORT
 70
     1
  0
VPORT
  2
*ACTIVE
 70
     0
 10
0.0
 20
0.0
 11
1.0
 21
1.0
 12
130.0978792822186
 22
50.0
 13
0.0
 23
0.0
 14
5.0
 24
5.0
 15
5.0
 25
5.0
 16
0.0
 26
0.0
 36
1.0
 17
0.0
 27
0.0
 37
0.0
 40
100.0
 41
2.6019575856443722
 42
50.0
 43
0.0
 44
0.0
 50
0.0
 51
0.0
 71
     0
 72
   100
 73
     1
 74
     0
 75
     0
 76
     0
 77
     0
 78
     0
  0
ENDTAB
  0
TABLE
  2
LTYPE
 70
     4
  0
LTYPE
  2
CONTINUOUS
 70
     0
  3
Solid Line
 72
    65
 73
     0
 40
0.0
  0
LTYPE
  2
CENTER
 70
     0
  3
____ _ ____ _ ____ _ ____ _ ____ _ ____ _ ____
 72
    65
 73
     4
 40
2.0
 49
1.25
 49
-0.25
 49
0.25
 49
-0.25
  0
LTYPE
  2
HIDDEN
 70
     0
  3
_ _ _ _ _ _ _ _ _ _ _ _ _ _ _ _ _ _ _ _ _ _ _
 72
    65
 73
     2
 40
0.375
 49
0.25
 49
-0.125
  0
LTYPE
  2
PHANTOM2
 70
     0
  3
___ _ _ ___ _ _ ___ _ _ ___ _ _
 72
    65
 73
     6
 40
1.25
 49
0.625
 49
-0.125
 49
0.125
 49
-0.125
 49
0.125
 49
-0.125
  0
ENDTAB
  0
TABLE
  2
LAYER
 70
     5
  0
LAYER
  2
0
 70
     0
 62
     7
  6
CONTINUOUS
  0
LAYER
  2
1
 70
     0
 62
     1
  6
CENTER
  0
LAYER
  2
3
 70
     0
 62
     3
  6
CONTINUOUS
  0
LAYER
  2
2
 70
     0
 62
     2
  6
HIDDEN
  0
LAYER
  2
DEFPOINTS
 70
     0
 62
     7
  6
CONTINUOUS
  0
ENDTAB
  0
TABLE
  2
STYLE
 70
     2
  0
STYLE
  2
STANDARD
 70
     0
 40
0.0
 41
1.0
 50
0.0
 71
     0
 42
4.0
  3
TXT
  4
BIGFONT
  0
STYLE
  2
STANDARD1
 70
     0
 40
0.0
 41
1.0
 50
0.0
 71
     0
 42
3.0
  3
txt
  4

  0
ENDTAB
  0
TABLE
  2
VIEW
 70
     1
  0
VIEW
  2
ALL
 70
     0
 40
179.66152299999999
 10
141.903918
 20
89.830760999999995
 41
0.0
 11
0.0
 21
0.0
 31
1.0
 12
0.0
 22
0.0
 32
0.0
 42
0.0
 43
0.0
 44
0.0
 50
0.0
 71
     0
  0
ENDTAB
  0
TABLE
  2
UCS
 70
     0
  0
ENDTAB
  0
TABLE
  2
APPID
 70
    10
  0
APPID
  2
ACAD
 70
     0
  0
APPID
  2
DCO15
 70
     0
  0
APPID
  2
ACAD_MLEADERVER
 70
     0
  0
APPID
  2
ACAD_NAV_VCDISPLAY
 70
     0
  0
APPID
  2
ACAD_EXEMPT_FROM_CAD_STANDARDS
 70
     0
  0
APPID
  2
ACAD_DSTYLE_DIMRADIAL_EXTENSION
 70
     0
  0
APPID
  2
ACAD_DSTYLE_DIMJAG
 70
     0
  0
APPID
  2
ACAD_DSTYLE_DIMTALN
 70
     0
  0
APPID
  2
GRADIENTCOLOR1ACI
 70
     0
  0
APPID
  2
GRADIENTCOLOR2ACI
 70
     0
  0
ENDTAB
  0
TABLE
  2
DIMSTYLE
 70
     1
  0
DIMSTYLE
  2
STANDARD
 70
     0
  3

  4

  5

  6

  7

 40
1.0
 41
0.18
 42
0.0625
 43
0.38
 44
0.18
 45
0.0
 46
0.0
 47
0.0
 48
0.0
140
0.18
141
0.09
142
0.0
143
25.399999999999999
144
1.0
145
0.0
146
1.0
147
0.09
 71
     0
 72
     0
 73
     1
 74
     1
 75
     0
 76
     0
 77
     0
 78
     0
170
     0
171
     2
172
     0
173
     0
174
     0
175
     0
176
     0
177
     0
178
     0
  0
ENDTAB
  0
ENDSEC
  0
SECTION
  2
BLOCKS
  0
BLOCK
  8
0
  2
$MODEL_SPACE
 70
     0
 10
0.0
 20
0.0
 30
0.0
  3
$MODEL_SPACE
  1

  0
ENDBLK
  5
1BD
  8
0
  0
BLOCK
 67
     1
  8
0
  2
$PAPER_SPACE
 70
     0
 10
0.0
 20
0.0
 30
0.0
  3
$PAPER_SPACE
  1

  0
ENDBLK
  5
1BB
 67
     1
  8
0
  0
ENDSEC
  0
SECTION
  2
ENTITIES
  0
TEXT
  5
14AC
  8
0
 62
     3
 10
0.0
 20
0.0
 30
0.0
 40
5.0
  1
LHSSP05X21
  7
STANDARD1
  0
LINE
  5
3781
  8
2
 10
40.499999999999993
 20
41.450000000000003
 30
0.0
 11
37.5
 21
41.450000000000003
 31
0.0
  0
LINE
  5
3782
  8
2
 10
40.499999999999993
 20
38.950000000000003
 30
0.0
 11
37.5
 21
38.950000000000003
 31
0.0
  0
LINE
  5
3783
  8
2
 10
40.499999999999993
 20
40.200000000000003
 30
0.0
 11
37.5
 21
40.200000000000003
 31
0.0
  0
LINE
  5
3784
  8
2
 10
40.499999999999993
 20
41.450000000000003
 30
0.0
 11
40.499999999999993
 21
38.950000000000003
 31
0.0
  0
LINE
  5
3785
  8
0
 10
56.699999999999989
 20
38.700000000000003
 30
0.0
 11
58.300000000000011
 21
38.700000000000003
 31
0.0
  0
LINE
  5
3786
  8
0
 10
58.300000000000011
 20
41.700000000000003
 30
0.0
 11
56.699999999999989
 21
41.700000000000003
 31
0.0
  0
LINE
  5
378A
  8
0
 10
58.5
 20
41.5
 30
0.0
 11
58.5
 21
38.899999999999999
 31
0.0
  0
LINE
  5
378B
  8
0
 10
58.300000000000011
 20
41.700000000000003
 30
0.0
 11
58.300000000000011
 21
38.700000000000003
 31
0.0
  0
LINE
  5
378C
  8
0
 10
58.5
 20
41.5
 30
0.0
 11
58.300000000000011
 21
41.700000000000003
 31
0.0
  0
LINE
  5
378D
  8
0
 10
58.300000000000011
 20
38.700000000000003
 30
0.0
 11
58.5
 21
38.899999999999999
 31
0.0
  0
LINE
  5
3791
  8
0
 10
55.800000000000011
 20
38.350000000000001
 30
0.0
 11
56.699999999999989
 21
38.350000000000001
 31
0.0
  0
LINE
  5
3792
  8
0
 10
56.699999999999989
 20
42.049999999999997
 30
0.0
 11
55.800000000000011
 21
42.049999999999997
 31
0.0
  0
LINE
  5
3793
  8
0
 10
56.699999999999989
 20
42.049999999999997
 30
0.0
 11
56.699999999999989
 21
38.350000000000001
 31
0.0
  0
LINE
  5
3794
  8
0
 10
55.800000000000011
 20
39.850000000000001
 30
0.0
 11
55.800000000000011
 21
38.350000000000001
 31
0.0
  0
LINE
  5
3795
  8
0
 10
55.800000000000011
 20
42.049999999999997
 30
0.0
 11
55.149999999999999
 21
42.700000000000003
 31
0.0
  0
LINE
  5
3796
  8
0
 10
55.149999999999999
 20
37.700000000000003
 30
0.0
 11
55.800000000000011
 21
38.350000000000001
 31
0.0
  0
LINE
  5
3798
  8
0
 10
55.800000000000011
 20
42.049999999999997
 30
0.0
 11
55.800000000000011
 21
40.549999999999997
 31
0.0
  0
LINE
  5
3799
  8
0
 10
37.5
 20
42.200000000000003
 30
0.0
 11
37.5
 21
38.200000000000003
 31
0.0
  0
LINE
  5
379A
  8
0
 10
37.5
 20
38.200000000000003
 30
0.0
 11
38.0
 21
37.700000000000003
 31
0.0
  0
LINE
  5
379B
  8
0
 10
38.0
 20
42.700000000000003
 30
0.0
 11
37.5
 21
42.200000000000003
 31
0.0
  0
LINE
  5
379C
  8
0
 10
46.0
 20
40.549999999999997
 30
0.0
 11
46.0
 21
39.850000000000001
 31
0.0
  0
LINE
  5
379D
  8
0
 10
56.699999999999989
 20
40.549999999999997
 30
0.0
 11
46.0
 21
40.549999999999997
 31
0.0
  0
LINE
  5
379E
  8
0
 10
55.149999999999999
 20
39.850000000000001
 30
0.0
 11
55.149999999999999
 21
37.700000000000003
 31
0.0
  0
LINE
  5
379F
  8
0
 10
56.699999999999989
 20
39.850000000000001
 30
0.0
 11
46.0
 21
39.850000000000001
 31
0.0
  0
LINE
  5
37A0
  8
0
 10
38.0
 20
42.700000000000003
 30
0.0
 11
38.0
 21
37.700000000000003
 31
0.0
  0
LINE
  5
37A1
  8
0
 10
38.0
 20
37.700000000000003
 30
0.0
 11
55.149999999999999
 21
37.700000000000003
 31
0.0
  0
LINE
  5
37A2
  8
0
 10
55.149999999999999
 20
42.700000000000003
 30
0.0
 11
38.0
 21
42.700000000000003
 31
0.0
  0
LINE
  5
37A4
  8
0
 10
55.149999999999999
 20
42.700000000000003
 30
0.0
 11
55.149999999999999
 21
40.549999999999997
 31
0.0
  0
LINE
  5
37A5
  8
0
 10
48.0
 20
39.850000000000001
 30
0.0
 11
48.0
 21
40.549999999999997
 31
0.0
  0
LINE
  5
37A6
  8
0
 10
54.0
 20
39.850000000000001
 30
0.0
 11
54.0
 21
40.549999999999997
 31
0.0
  0
LINE
  5
37A7
  8
3
 10
37.509500000000003
 20
38.1905
 30
0.0
 11
55.640500000000003
 21
38.1905
 31
0.0
  0
LINE
  5
37A9
  8
3
 10
37.509500000000003
 20
42.209500000000013
 30
0.0
 11
55.640500000000031
 21
42.209500000000013
 31
0.0
  0
LINE
  5
37CB
  8
0
 10
21.25
 20
19.278312163512972
 30
0.0
 11
21.25
 21
20.721687836487028
 31
0.0
  0
LINE
  5
37CC
  8
0
 10
18.75
 20
20.721687836487028
 30
0.0
 11
18.75
 21
19.278312163512972
 31
0.0
  0
LINE
  5
37CD
  8
0
 10
20.0
 20
18.556624327025929
 30
0.0
 11
21.25
 21
19.278312163512972
 31
0.0
  0
LINE
  5
37CE
  8
0
 10
18.75
 20
19.278312163512972
 30
0.0
 11
20.0
 21
18.556624327025929
 31
0.0
  0
LINE
  5
37CF
  8
0
 10
20.0
 20
21.44337567297406
 30
0.0
 11
18.75
 21
20.721687836487028
 31
0.0
  0
LINE
  5
37D0
  8
0
 10
21.25
 20
20.721687836487028
 30
0.0
 11
20.0
 21
21.44337567297406
 31
0.0
  0
LINE
  5
37D2
  8
0
 10
19.649999999999999
 20
22.699999999999999
 30
0.0
 11
20.350000000000001
 21
22.699999999999999
 31
0.0
  0
LINE
  5
37D5
  8
0
 10
19.650000000000031
 20
22.47537875889731
 30
0.0
 11
19.649999999999999
 21
22.699999999999999
 31
0.0
  0
LINE
  5
37D8
  8
0
 10
20.350000000000001
 20
22.47537875889731
 30
0.0
 11
20.350000000000001
 21
22.699999999999999
 31
0.0
  0
LINE
  5
3804
  8
0
 10
75.650000000000006
 20
22.699999999999999
 30
0.0
 11
76.349999999999994
 21
22.699999999999999
 31
0.0
  0
ARC
  5
3805
  8
0
 10
76.0
 20
20.0
 30
0.0
 40
2.5
 50
98.04784624731073
 51
81.952153752689284
  0
LINE
  5
3807
  8
0
 10
75.650000000000006
 20
21.800000000000001
 30
0.0
 11
75.650000000000006
 21
22.699999999999999
 31
0.0
  0
LINE
  5
3808
  8
0
 10
75.650000000000006
 20
21.800000000000001
 30
0.0
 11
76.349999999999994
 21
21.800000000000001
 31
0.0
  0
ARC
  5
3809
  8
0
 10
76.0
 20
20.0
 30
0.0
 40
1.8500000000000001
 50
100.9054699967306
 51
79.094530003269412
  0
LINE
  5
380A
  8
0
 10
76.349999999999994
 20
21.800000000000001
 30
0.0
 11
76.349999999999994
 21
22.699999999999999
 31
0.0
  0
CIRCLE
  5
380B
  8
0
 10
76.0
 20
20.0
 30
0.0
 40
1.5
  0
LINE
  5
38B9
  8
2
 10
40.499999999999993
 20
18.556624327025929
 30
0.0
 11
37.5
 21
18.556624327025929
 31
0.0
  0
LINE
  5
38BA
  8
2
 10
40.499999999999993
 20
21.44337567297406
 30
0.0
 11
37.5
 21
21.44337567297406
 31
0.0
  0
LINE
  5
38BF
  8
0
 10
54.0
 20
22.47537875889731
 30
0.0
 11
54.0
 21
22.699999999999999
 31
0.0
  0
LINE
  5
38C0
  8
0
 10
54.0
 20
22.699999999999999
 30
0.0
 11
48.0
 21
22.699999999999999
 31
0.0
  0
LINE
  5
38C1
  8
0
 10
48.0
 20
22.699999999999999
 30
0.0
 11
48.0
 21
22.47537875889731
 31
0.0
  0
LINE
  5
38C3
  8
2
 10
40.499999999999993
 20
19.278312163512972
 30
0.0
 11
37.5
 21
19.278312163512972
 31
0.0
  0
LINE
  5
38C4
  8
2
 10
40.499999999999993
 20
20.721687836487028
 30
0.0
 11
37.5
 21
20.721687836487028
 31
0.0
  0
LINE
  5
38C5
  8
2
 10
40.499999999999993
 20
21.44337567297406
 30
0.0
 11
40.499999999999993
 21
18.556624327025929
 31
0.0
  0
LINE
  5
38C8
  8
0
 10
56.699999999999989
 20
18.5
 30
0.0
 11
58.300000000000011
 21
18.5
 31
0.0
  0
LINE
  5
38C9
  8
0
 10
58.300000000000011
 20
21.5
 30
0.0
 11
56.699999999999989
 21
21.5
 31
0.0
  0
LINE
  5
38CE
  8
0
 10
58.5
 20
21.300000000000001
 30
0.0
 11
58.300000000000011
 21
21.5
 31
0.0
  0
LINE
  5
38CF
  8
0
 10
58.300000000000011
 20
18.5
 30
0.0
 11
58.5
 21
18.699999999999999
 31
0.0
  0
LINE
  5
38D0
  8
0
 10
58.5
 20
21.300000000000001
 30
0.0
 11
58.5
 21
18.699999999999999
 31
0.0
  0
LINE
  5
38D1
  8
0
 10
58.300000000000011
 20
21.5
 30
0.0
 11
58.300000000000011
 21
18.5
 31
0.0
  0
LINE
  5
38D2
  8
0
 10
56.699999999999989
 20
21.8165902124585
 30
0.0
 11
56.699999999999989
 21
18.149999999999999
 31
0.0
  0
LINE
  5
38D3
  8
0
 10
56.699999999999989
 20
21.8165902124585
 30
0.0
 11
55.800000000000011
 21
21.8165902124585
 31
0.0
  0
LINE
  5
38D4
  8
0
 10
55.800000000000011
 20
18.149999999999999
 30
0.0
 11
56.699999999999989
 21
18.149999999999999
 31
0.0
  0
LINE
  5
38D5
  8
0
 10
55.149999999999999
 20
22.47537875889731
 30
0.0
 11
46.0
 21
22.47537875889731
 31
0.0
  0
LINE
  5
38D6
  8
0
 10
38.0
 20
17.5
 30
0.0
 11
55.149999999999999
 21
17.5
 31
0.0
  0
LINE
  5
38D7
  8
0
 10
46.0
 20
22.5
 30
0.0
 11
38.0
 21
22.5
 31
0.0
  0
LINE
  5
38D8
  8
0
 10
46.0
 20
22.5
 30
0.0
 11
46.0
 21
22.47537875889731
 31
0.0
  0
LINE
  5
38D9
  8
0
 10
37.5
 20
18.0
 30
0.0
 11
38.0
 21
17.5
 31
0.0
  0
LINE
  5
38DA
  8
0
 10
38.0
 20
22.5
 30
0.0
 11
37.5
 21
22.0
 31
0.0
  0
LINE
  5
38DB
  8
0
 10
38.0
 20
22.5
 30
0.0
 11
38.0
 21
17.5
 31
0.0
  0
LINE
  5
38DC
  8
0
 10
37.5
 20
22.0
 30
0.0
 11
37.5
 21
18.0
 31
0.0
  0
LINE
  5
38DD
  8
0
 10
55.800000000000011
 20
21.8165902124585
 30
0.0
 11
55.800000000000011
 21
18.149999999999999
 31
0.0
  0
LINE
  5
38DE
  8
0
 10
55.800000000000011
 20
21.8165902124585
 30
0.0
 11
55.149999999999999
 21
22.47537875889731
 31
0.0
  0
LINE
  5
38DF
  8
0
 10
55.149999999999999
 20
22.47537875889731
 30
0.0
 11
55.149999999999999
 21
17.5
 31
0.0
  0
LINE
  5
38E0
  8
0
 10
55.149999999999999
 20
17.5
 30
0.0
 11
55.800000000000011
 21
18.149999999999999
 31
0.0
  0
LINE
  5
38E2
  8
3
 10
37.509499999999981
 20
22.009499999999999
 30
0.0
 11
55.609663718988742
 21
22.009499999999999
 31
0.0
  0
LINE
  5
38E4
  8
3
 10
37.509500000000003
 20
17.990500000000001
 30
0.0
 11
55.640500000000031
 21
17.990500000000001
 31
0.0
  0
LINE
  5
39B5
  8
1
 10
59.5
 20
20.0
 30
0.0
 11
36.5
 21
20.0
 31
0.0
  0
LINE
  5
39B8
  8
1
 10
36.5
 20
40.200000000000003
 30
0.0
 11
59.5
 21
40.200000000000003
 31
0.0
  0
LINE
  5
39BB
  8
2
 10
41.221687836487
 20
40.200000000000003
 30
0.0
 11
40.499999999999993
 21
38.95000000000001
 31
0.0
  0
LINE
  5
39BC
  8
2
 10
40.499999999999993
 20
41.450000000000003
 30
0.0
 11
41.221687836487057
 21
40.200000000000003
 31
0.0
  0
LINE
  5
39E0
  8
2
 10
41.221687836487
 20
20.0
 30
0.0
 11
40.499999999999993
 21
18.750000000000011
 31
0.0
  0
LINE
  5
39E1
  8
2
 10
40.499999999999993
 20
21.25
 30
0.0
 11
41.221687836487057
 21
20.0
 31
0.0
  0
CIRCLE
  5
3A0F
  8
0
 10
20.0
 20
20.0
 30
0.0
 40
2.5
  0
CIRCLE
  5
3A10
  8
3
 10
20.0
 20
20.0
 30
0.0
 40
2.0095000000000018
  0
LINE
  5
3A11
  8
1
 10
20.0
 20
23.5
 30
0.0
 11
20.0
 21
16.5
 31
0.0
  0
LINE
  5
3A12
  8
1
 10
23.5
 20
20.0
 30
0.0
 11
16.5
 21
20.0
 31
0.0
  0
CIRCLE
  5
3A33
  8
3
 10
76.0
 20
20.0
 30
0.0
 40
2.0095000000000018
  0
LINE
  5
3A34
  8
1
 10
76.0
 20
23.5
 30
0.0
 11
76.0
 21
16.5
 31
0.0
  0
LINE
  5
3A35
  8
1
 10
79.5
 20
20.0
 30
0.0
 11
72.5
 21
20.0
 31
0.0
  0
ENDSEC
  0
EOF
