  0
SECTION
  2
HEADER
  9
$ACADVER
  1
AC1009
  9
$INSBASE
 10
0.0
 20
0.0
 30
0.0
  9
$EXTMIN
 10
0.0
 20
-1.4802182810368341
 30
0.0
  9
$EXTMAX
 10
162.5
 20
88.0
 30
0.0
  9
$LIMMIN
 10
0.0
 20
0.0
  9
$LIMMAX
 10
187.5
 20
135.0
  9
$ORTHOMODE
 70
     1
  9
$REGENMODE
 70
     1
  9
$FILLMODE
 70
     1
  9
$QTEXTMODE
 70
     0
  9
$MIRRTEXT
 70
     0
  9
$DRAGMODE
 70
     2
  9
$LTSCALE
 40
3.0
  9
$OSMODE
 70
    37
  9
$ATTMODE
 70
     1
  9
$TEXTSIZE
 40
4.0
  9
$TRACEWID
 40
0.05
  9
$TEXTSTYLE
  7
STANDARD
  9
$CLAYER
  8
0
  9
$CELTYPE
  6
BYLAYER
  9
$CECOLOR
 62
   256
  9
$DIMSCALE
 40
0.5
  9
$DIMASZ
 40
3.0
  9
$DIMEXO
 40
2.0
  9
$DIMDLI
 40
0.38
  9
$DIMRND
 40
0.0
  9
$DIMDLE
 40
0.0
  9
$DIMEXE
 40
2.0
  9
$DIMTP
 40
0.0
  9
$DIMTM
 40
0.0
  9
$DIMTXT
 40
3.0
  9
$DIMCEN
 40
0.0
  9
$DIMTSZ
 40
0.0
  9
$DIMTOL
 70
     0
  9
$DIMLIM
 70
     0
  9
$DIMTIH
 70
     0
  9
$DIMTOH
 70
     0
  9
$DIMSE1
 70
     0
  9
$DIMSE2
 70
     0
  9
$DIMTAD
 70
     1
  9
$DIMZIN
 70
     8
  9
$DIMBLK
  1

  9
$DIMASO
 70
     0
  9
$DIMSHO
 70
     0
  9
$DIMPOST
  1

  9
$DIMAPOST
  1

  9
$DIMALT
 70
     0
  9
$DIMALTD
 70
     2
  9
$DIMALTF
 40
25.399999999999999
  9
$DIMLFAC
 40
1.0
  9
$DIMTOFL
 70
     1
  9
$DIMTVP
 40
1.6000000000000001
  9
$DIMTIX
 70
     1
  9
$DIMSOXD
 70
     0
  9
$DIMSAH
 70
     0
  9
$DIMBLK1
  1

  9
$DIMBLK2
  1

  9
$DIMSTYLE
  2
STANDARD
  9
$DIMCLRD
 70
   256
  9
$DIMCLRE
 70
   256
  9
$DIMCLRT
 70
   256
  9
$DIMTFAC
 40
1.0
  9
$DIMGAP
 40
1.0
  9
$LUNITS
 70
     2
  9
$LUPREC
 70
     1
  9
$SKETCHINC
 40
0.1
  9
$FILLETRAD
 40
1.0
  9
$AUNITS
 70
     0
  9
$AUPREC
 70
     0
  9
$MENU
  1
E:\r13\win\SUPPORT\ACAD
  9
$ELEVATION
 40
0.0
  9
$PELEVATION
 40
0.0
  9
$THICKNESS
 40
0.0
  9
$LIMCHECK
 70
     0
  9
$BLIPMODE
 70
     0
  9
$CHAMFERA
 40
0.0
  9
$CHAMFERB
 40
0.0
  9
$SKPOLY
 70
     0
  9
$TDCREATE
 40
2449840.6143865739
  9
$TDUPDATE
 40
2459255.6465403591
  9
$TDINDWG
 40
1.0324288542
  9
$TDUSRTIMER
 40
1.0324288542
  9
$USRTIMER
 70
     1
  9
$ANGBASE
 50
0.0
  9
$ANGDIR
 70
     0
  9
$PDMODE
 70
     0
  9
$PDSIZE
 40
0.0
  9
$PLINEWID
 40
0.0
  9
$COORDS
 70
     1
  9
$SPLFRAME
 70
     0
  9
$SPLINETYPE
 70
     6
  9
$SPLINESEGS
 70
     8
  9
$ATTDIA
 70
     0
  9
$ATTREQ
 70
     1
  9
$HANDLING
 70
     1
  9
$HANDSEED
  5
3D6A
  9
$SURFTAB1
 70
     6
  9
$SURFTAB2
 70
     6
  9
$SURFTYPE
 70
     6
  9
$SURFU
 70
     6
  9
$SURFV
 70
     6
  9
$UCSNAME
  2

  9
$UCSORG
 10
0.0
 20
0.0
 30
0.0
  9
$UCSXDIR
 10
1.0
 20
0.0
 30
0.0
  9
$UCSYDIR
 10
0.0
 20
1.0
 30
0.0
  9
$PUCSNAME
  2

  9
$PUCSORG
 10
0.0
 20
0.0
 30
0.0
  9
$PUCSXDIR
 10
1.0
 20
0.0
 30
0.0
  9
$PUCSYDIR
 10
0.0
 20
1.0
 30
0.0
  9
$USERI1
 70
     0
  9
$USERI2
 70
     1
  9
$USERI3
 70
     1
  9
$USERI4
 70
     0
  9
$USERI5
 70
     0
  9
$USERR1
 40
0.0
  9
$USERR2
 40
0.0
  9
$USERR3
 40
0.0
  9
$USERR4
 40
0.0
  9
$USERR5
 40
0.0
  9
$WORLDVIEW
 70
     1
  9
$SHADEDGE
 70
     3
  9
$SHADEDIF
 70
    70
  9
$TILEMODE
 70
     1
  9
$MAXACTVP
 70
    16
  9
$PLIMCHECK
 70
     0
  9
$PEXTMIN
 10
1.0000000000000000E+020
 20
1.0000000000000000E+020
 30
1.0000000000000000E+020
  9
$PEXTMAX
 10
-1.0000000000000000E+020
 20
-1.0000000000000000E+020
 30
-1.0000000000000000E+020
  9
$PLIMMIN
 10
0.0
 20
0.0
  9
$PLIMMAX
 10
12.0
 20
9.0
  9
$UNITMODE
 70
     0
  9
$VISRETAIN
 70
     0
  9
$PLINEGEN
 70
     0
  9
$PSLTSCALE
 70
     0
  0
ENDSEC
  0
SECTION
  2
TABLES
  0
TABLE
  2
VPORT
 70
     1
  0
VPORT
  2
*ACTIVE
 70
     0
 10
0.0
 20
0.0
 11
1.0
 21
1.0
 12
195.14681892332791
 22
75.0
 13
0.0
 23
0.0
 14
5.0
 24
5.0
 15
5.0
 25
5.0
 16
0.0
 26
0.0
 36
1.0
 17
0.0
 27
0.0
 37
0.0
 40
150.0
 41
2.6019575856443709
 42
50.0
 43
0.0
 44
0.0
 50
0.0
 51
0.0
 71
     0
 72
   100
 73
     1
 74
     0
 75
     0
 76
     0
 77
     0
 78
     0
  0
ENDTAB
  0
TABLE
  2
LTYPE
 70
     4
  0
LTYPE
  2
CONTINUOUS
 70
     0
  3
Solid Line
 72
    65
 73
     0
 40
0.0
  0
LTYPE
  2
CENTER
 70
     0
  3
____ _ ____ _ ____ _ ____ _ ____ _ ____ _ ____
 72
    65
 73
     4
 40
2.0
 49
1.25
 49
-0.25
 49
0.25
 49
-0.25
  0
LTYPE
  2
HIDDEN
 70
     0
  3
_ _ _ _ _ _ _ _ _ _ _ _ _ _ _ _ _ _ _ _ _ _ _
 72
    65
 73
     2
 40
0.375
 49
0.25
 49
-0.125
  0
LTYPE
  2
PHANTOM2
 70
     0
  3
___ _ _ ___ _ _ ___ _ _ ___ _ _
 72
    65
 73
     6
 40
1.25
 49
0.625
 49
-0.125
 49
0.125
 49
-0.125
 49
0.125
 49
-0.125
  0
ENDTAB
  0
TABLE
  2
LAYER
 70
     5
  0
LAYER
  2
0
 70
     0
 62
     7
  6
CONTINUOUS
  0
LAYER
  2
1
 70
     0
 62
     1
  6
CENTER
  0
LAYER
  2
3
 70
     0
 62
     3
  6
CONTINUOUS
  0
LAYER
  2
2
 70
     0
 62
     2
  6
HIDDEN
  0
LAYER
  2
DEFPOINTS
 70
     0
 62
     7
  6
CONTINUOUS
  0
ENDTAB
  0
TABLE
  2
STYLE
 70
     2
  0
STYLE
  2
STANDARD
 70
     0
 40
0.0
 41
1.0
 50
0.0
 71
     0
 42
4.0
  3
TXT
  4
BIGFONT
  0
STYLE
  2
STANDARD1
 70
     0
 40
0.0
 41
1.0
 50
0.0
 71
     0
 42
3.0
  3
txt
  4

  0
ENDTAB
  0
TABLE
  2
VIEW
 70
     1
  0
VIEW
  2
ALL
 70
     0
 40
179.66152299999999
 10
141.903918
 20
89.830760999999995
 41
0.0
 11
0.0
 21
0.0
 31
1.0
 12
0.0
 22
0.0
 32
0.0
 42
0.0
 43
0.0
 44
0.0
 50
0.0
 71
     0
  0
ENDTAB
  0
TABLE
  2
UCS
 70
     0
  0
ENDTAB
  0
TABLE
  2
APPID
 70
     9
  0
APPID
  2
ACAD
 70
     0
  0
APPID
  2
DCO15
 70
     0
  0
APPID
  2
ACAD_MLEADERVER
 70
     0
  0
APPID
  2
ACAD_NAV_VCDISPLAY
 70
     0
  0
APPID
  2
ACAD_EXEMPT_FROM_CAD_STANDARDS
 70
     0
  0
APPID
  2
ACAD_DSTYLE_DIMRADIAL_EXTENSION
 70
     0
  0
APPID
  2
ACAD_DSTYLE_DIMJAG
 70
     0
  0
APPID
  2
ACAD_DSTYLE_DIMTALN
 70
     0
  0
APPID
  2
ACAD_PSEXT
 70
     0
  0
ENDTAB
  0
TABLE
  2
DIMSTYLE
 70
     1
  0
DIMSTYLE
  2
STANDARD
 70
     0
  3

  4

  5

  6

  7

 40
1.0
 41
0.18
 42
0.0625
 43
0.38
 44
0.18
 45
0.0
 46
0.0
 47
0.0
 48
0.0
140
0.18
141
0.09
142
0.0
143
25.399999999999999
144
1.0
145
0.0
146
1.0
147
0.09
 71
     0
 72
     0
 73
     1
 74
     1
 75
     0
 76
     0
 77
     0
 78
     0
170
     0
171
     2
172
     0
173
     0
174
     0
175
     0
176
     0
177
     0
178
     0
  0
ENDTAB
  0
ENDSEC
  0
SECTION
  2
BLOCKS
  0
BLOCK
  8
0
  2
$MODEL_SPACE
 70
     0
 10
0.0
 20
0.0
 30
0.0
  3
$MODEL_SPACE
  1

  0
ENDBLK
  5
1BD
  8
0
  0
BLOCK
 67
     1
  8
0
  2
$PAPER_SPACE
 70
     0
 10
0.0
 20
0.0
 30
0.0
  3
$PAPER_SPACE
  1

  0
ENDBLK
  5
1BB
 67
     1
  8
0
  0
ENDSEC
  0
SECTION
  2
ENTITIES
  0
TEXT
  5
14AC
  8
0
 62
     3
 10
0.0
 20
0.0
 30
0.0
 40
5.0
  1
LHSSB12X42.5
  7
STANDARD1
  0
LINE
  5
3AB1
  8
2
 10
84.0
 20
36.53589838486225
 30
0.0
 11
76.0
 21
36.53589838486225
 31
0.0
  0
LINE
  5
3AB2
  8
2
 10
84.0
 20
43.46410161513775
 30
0.0
 11
76.0
 21
43.46410161513775
 31
0.0
  0
LINE
  5
3AB7
  8
0
 10
110.40000000000001
 20
45.974738488000952
 30
0.0
 11
110.40000000000001
 21
46.0
 31
0.0
  0
LINE
  5
3AB8
  8
0
 10
110.40000000000001
 20
46.0
 30
0.0
 11
100.40000000000001
 21
46.0
 31
0.0
  0
LINE
  5
3AB9
  8
0
 10
100.40000000000001
 20
46.0
 30
0.0
 11
100.40000000000001
 21
45.974738488000952
 31
0.0
  0
LINE
  5
3ABB
  8
2
 10
84.0
 20
38.267949192431118
 30
0.0
 11
76.0
 21
38.267949192431118
 31
0.0
  0
LINE
  5
3ABC
  8
2
 10
84.0
 20
41.732050807568882
 30
0.0
 11
76.0
 21
41.732050807568882
 31
0.0
  0
LINE
  5
3ABD
  8
2
 10
84.0
 20
43.46410161513775
 30
0.0
 11
84.0
 21
36.53589838486225
 31
0.0
  0
LINE
  5
3AC0
  8
0
 10
115.2
 20
35.75
 30
0.0
 11
118.0
 21
35.75
 31
0.0
  0
LINE
  5
3AC1
  8
0
 10
118.0
 20
44.249999999999993
 30
0.0
 11
115.2
 21
44.249999999999993
 31
0.0
  0
LINE
  5
3AC6
  8
0
 10
118.5
 20
43.75
 30
0.0
 11
118.0
 21
44.249999999999993
 31
0.0
  0
LINE
  5
3AC7
  8
0
 10
118.0
 20
35.75
 30
0.0
 11
118.5
 21
36.25
 31
0.0
  0
LINE
  5
3AC8
  8
0
 10
118.5
 20
43.75
 30
0.0
 11
118.5
 21
36.25
 31
0.0
  0
LINE
  5
3AC9
  8
0
 10
118.0
 20
44.249999999999993
 30
0.0
 11
118.0
 21
35.75
 31
0.0
  0
LINE
  5
3ACA
  8
0
 10
115.2
 20
44.768385470995391
 30
0.0
 11
115.2
 21
35.200000000000003
 31
0.0
  0
LINE
  5
3ACB
  8
0
 10
115.2
 20
44.768385470995391
 30
0.0
 11
114.2
 21
44.768385470995391
 31
0.0
  0
LINE
  5
3ACC
  8
0
 10
114.2
 20
35.200000000000003
 30
0.0
 11
115.2
 21
35.200000000000003
 31
0.0
  0
LINE
  5
3ACD
  8
0
 10
113.0
 20
45.974738488000952
 30
0.0
 11
98.500000000000014
 21
45.974738488000952
 31
0.0
  0
LINE
  5
3ACE
  8
0
 10
77.5
 20
34.0
 30
0.0
 11
113.0
 21
34.0
 31
0.0
  0
LINE
  5
3ACF
  8
0
 10
98.500000000000014
 20
46.0
 30
0.0
 11
77.5
 21
46.0
 31
0.0
  0
LINE
  5
3AD0
  8
0
 10
98.500000000000014
 20
46.0
 30
0.0
 11
98.500000000000014
 21
45.974738488000952
 31
0.0
  0
LINE
  5
3AD1
  8
0
 10
76.0
 20
35.5
 30
0.0
 11
77.5
 21
34.0
 31
0.0
  0
LINE
  5
3AD2
  8
0
 10
77.5
 20
46.0
 30
0.0
 11
76.0
 21
44.5
 31
0.0
  0
LINE
  5
3AD3
  8
0
 10
77.5
 20
46.0
 30
0.0
 11
77.5
 21
34.0
 31
0.0
  0
LINE
  5
3AD4
  8
0
 10
76.0
 20
44.5
 30
0.0
 11
76.0
 21
35.5
 31
0.0
  0
LINE
  5
3AD5
  8
0
 10
114.2
 20
44.768385470995391
 30
0.0
 11
114.2
 21
35.200000000000003
 31
0.0
  0
LINE
  5
3AD6
  8
0
 10
114.2
 20
44.768385470995391
 30
0.0
 11
113.0
 21
45.974738488000952
 31
0.0
  0
LINE
  5
3AD7
  8
0
 10
113.0
 20
45.974738488000952
 30
0.0
 11
113.0
 21
34.0
 31
0.0
  0
LINE
  5
3AD8
  8
0
 10
113.0
 20
34.0
 30
0.0
 11
114.2
 21
35.200000000000003
 31
0.0
  0
LINE
  5
3ADA
  8
3
 10
76.426500000000033
 20
44.926499999999997
 30
0.0
 11
114.0427181495541
 21
44.926499999999997
 31
0.0
  0
LINE
  5
3ADC
  8
3
 10
76.426499999999976
 20
35.073500000000003
 30
0.0
 11
114.0734999999999
 21
35.073500000000003
 31
0.0
  0
LINE
  5
3BAA
  8
2
 10
84.0
 20
85.0
 30
0.0
 11
76.0
 21
85.0
 31
0.0
  0
LINE
  5
3BAB
  8
2
 10
84.0
 20
79.0
 30
0.0
 11
76.0
 21
79.0
 31
0.0
  0
LINE
  5
3BAC
  8
2
 10
84.0
 20
82.0
 30
0.0
 11
76.0
 21
82.0
 31
0.0
  0
LINE
  5
3BAD
  8
2
 10
84.0
 20
85.0
 30
0.0
 11
84.0
 21
79.0
 31
0.0
  0
LINE
  5
3BAE
  8
0
 10
115.2
 20
77.75
 30
0.0
 11
118.0
 21
77.75
 31
0.0
  0
LINE
  5
3BAF
  8
0
 10
118.0
 20
86.25
 30
0.0
 11
115.2
 21
86.25
 31
0.0
  0
LINE
  5
3BB3
  8
0
 10
118.5
 20
85.750000000000014
 30
0.0
 11
118.5
 21
78.25
 31
0.0
  0
LINE
  5
3BB4
  8
0
 10
118.0
 20
86.25
 30
0.0
 11
118.0
 21
77.75
 31
0.0
  0
LINE
  5
3BB5
  8
0
 10
118.5
 20
85.750000000000014
 30
0.0
 11
118.0
 21
86.25
 31
0.0
  0
LINE
  5
3BB6
  8
0
 10
118.0
 20
77.75
 30
0.0
 11
118.5
 21
78.25
 31
0.0
  0
LINE
  5
3BBA
  8
0
 10
114.2
 20
77.200000000000003
 30
0.0
 11
115.2
 21
77.200000000000003
 31
0.0
  0
LINE
  5
3BBB
  8
0
 10
115.2
 20
86.799999999999983
 30
0.0
 11
114.2
 21
86.799999999999983
 31
0.0
  0
LINE
  5
3BBC
  8
0
 10
115.2
 20
86.799999999999983
 30
0.0
 11
115.2
 21
77.200000000000003
 31
0.0
  0
LINE
  5
3BBD
  8
0
 10
114.2
 20
81.450000000000017
 30
0.0
 11
114.2
 21
77.200000000000003
 31
0.0
  0
LINE
  5
3BBE
  8
0
 10
114.2
 20
86.799999999999983
 30
0.0
 11
113.0
 21
88.0
 31
0.0
  0
LINE
  5
3BBF
  8
0
 10
113.0
 20
76.0
 30
0.0
 11
114.2
 21
77.200000000000003
 31
0.0
  0
LINE
  5
3BC1
  8
0
 10
114.2
 20
86.799999999999983
 30
0.0
 11
114.2
 21
82.549999999999997
 31
0.0
  0
LINE
  5
3BC2
  8
0
 10
98.500000000000014
 20
82.549999999999997
 30
0.0
 11
98.500000000000014
 21
81.450000000000017
 31
0.0
  0
LINE
  5
3BC3
  8
0
 10
115.2
 20
82.549999999999997
 30
0.0
 11
98.500000000000014
 21
82.549999999999997
 31
0.0
  0
LINE
  5
3BC4
  8
0
 10
113.0
 20
81.450000000000017
 30
0.0
 11
113.0
 21
76.0
 31
0.0
  0
LINE
  5
3BC5
  8
0
 10
115.2
 20
81.450000000000017
 30
0.0
 11
98.500000000000014
 21
81.450000000000017
 31
0.0
  0
LINE
  5
3BC6
  8
0
 10
77.5
 20
76.0
 30
0.0
 11
113.0
 21
76.0
 31
0.0
  0
LINE
  5
3BC7
  8
0
 10
113.0
 20
88.0
 30
0.0
 11
77.5
 21
88.0
 31
0.0
  0
LINE
  5
3BC9
  8
0
 10
113.0
 20
88.0
 30
0.0
 11
113.0
 21
82.549999999999997
 31
0.0
  0
LINE
  5
3BCA
  8
0
 10
77.5
 20
88.0
 30
0.0
 11
77.5
 21
76.0
 31
0.0
  0
LINE
  5
3BCB
  8
0
 10
76.0
 20
86.5
 30
0.0
 11
76.0
 21
77.5
 31
0.0
  0
LINE
  5
3BCC
  8
0
 10
76.0
 20
77.5
 30
0.0
 11
77.5
 21
76.0
 31
0.0
  0
LINE
  5
3BCD
  8
0
 10
77.5
 20
88.0
 30
0.0
 11
76.0
 21
86.5
 31
0.0
  0
LINE
  5
3BCE
  8
0
 10
100.40000000000001
 20
81.450000000000017
 30
0.0
 11
100.40000000000001
 21
82.549999999999997
 31
0.0
  0
LINE
  5
3BCF
  8
0
 10
110.40000000000001
 20
81.450000000000017
 30
0.0
 11
110.40000000000001
 21
82.549999999999997
 31
0.0
  0
LINE
  5
3BD0
  8
3
 10
76.426499999999976
 20
77.073499999999996
 30
0.0
 11
114.0734999999999
 21
77.073499999999981
 31
0.0
  0
LINE
  5
3BD2
  8
3
 10
76.426499999999976
 20
86.926500000000004
 30
0.0
 11
114.0734999999999
 21
86.926500000000004
 31
0.0
  0
LINE
  5
3BDB
  8
0
 10
37.0
 20
41.732050807568868
 30
0.0
 11
37.0
 21
38.267949192431132
 31
0.0
  0
LINE
  5
3BDC
  8
0
 10
43.0
 20
41.732050807568868
 30
0.0
 11
40.0
 21
43.46410161513775
 31
0.0
  0
LINE
  5
3BDD
  8
0
 10
37.0
 20
38.267949192431132
 30
0.0
 11
40.0
 21
36.53589838486225
 31
0.0
  0
LINE
  5
3BDE
  8
0
 10
43.0
 20
38.267949192431132
 30
0.0
 11
43.0
 21
41.732050807568868
 31
0.0
  0
LINE
  5
3BDF
  8
0
 10
40.0
 20
36.53589838486225
 30
0.0
 11
43.0
 21
38.267949192431132
 31
0.0
  0
LINE
  5
3BE0
  8
0
 10
40.0
 20
43.46410161513775
 30
0.0
 11
37.0
 21
41.732050807568868
 31
0.0
  0
LINE
  5
3BE1
  8
0
 10
39.449999999999989
 20
46.0
 30
0.0
 11
40.550000000000011
 21
46.0
 31
0.0
  0
LINE
  5
3BE3
  8
0
 10
39.450000000000053
 20
45.974738488000952
 30
0.0
 11
39.449999999999989
 21
46.0
 31
0.0
  0
LINE
  5
3BE5
  8
0
 10
40.550000000000011
 20
45.974738488000952
 30
0.0
 11
40.550000000000011
 21
46.0
 31
0.0
  0
CIRCLE
  5
3BE6
  8
3
 10
40.0
 20
40.0
 30
0.0
 40
4.9265000000000043
  0
LINE
  5
3BE7
  8
1
 10
40.0
 20
48.0
 30
0.0
 11
40.0
 21
32.0
 31
0.0
  0
LINE
  5
3BE8
  8
1
 10
48.0
 20
40.0
 30
0.0
 11
32.0
 21
40.0
 31
0.0
  0
CIRCLE
  5
3C07
  8
0
 10
40.0
 20
40.0
 30
0.0
 40
6.0
  0
LINE
  5
3C13
  8
0
 10
153.94999999999999
 20
46.0
 30
0.0
 11
155.05000000000001
 21
46.0
 31
0.0
  0
ARC
  5
3C14
  8
0
 10
154.5
 20
40.0
 30
0.0
 40
6.0
 50
95.259496464413076
 51
84.740503535586924
  0
LINE
  5
3C15
  8
0
 10
153.94999999999999
 20
44.700000000000003
 30
0.0
 11
153.94999999999999
 21
46.0
 31
0.0
  0
LINE
  5
3C16
  8
0
 10
153.94999999999999
 20
44.700000000000003
 30
0.0
 11
155.05000000000001
 21
44.700000000000003
 31
0.0
  0
ARC
  5
3C17
  8
0
 10
154.5
 20
40.0
 30
0.0
 40
4.799999999999998
 50
96.57959294497654
 51
83.420407055023475
  0
LINE
  5
3C18
  8
0
 10
155.05000000000001
 20
44.700000000000003
 30
0.0
 11
155.05000000000001
 21
46.0
 31
0.0
  0
CIRCLE
  5
3C19
  8
0
 10
154.5
 20
40.0
 30
0.0
 40
4.25
  0
CIRCLE
  5
3C1A
  8
3
 10
154.5
 20
40.0
 30
0.0
 40
4.9265000000000043
  0
LINE
  5
3C1B
  8
1
 10
162.5
 20
40.0
 30
0.0
 11
146.5
 21
40.0
 31
0.0
  0
LINE
  5
3C1C
  8
1
 10
154.5
 20
48.0
 30
0.0
 11
154.5
 21
32.0
 31
0.0
  0
LINE
  5
3C43
  8
1
 10
120.5
 20
40.0
 30
0.0
 11
74.0
 21
40.0
 31
0.0
  0
LINE
  5
3CA1
  8
1
 10
74.0
 20
82.0
 30
0.0
 11
120.5
 21
82.0
 31
0.0
  0
LINE
  5
3CAB
  8
2
 10
85.732050807568896
 20
82.000000000000014
 30
0.0
 11
84.0
 21
79.000000000000014
 31
0.0
  0
LINE
  5
3CAC
  8
2
 10
84.0
 20
85.0
 30
0.0
 11
85.732050807568825
 21
82.000000000000014
 31
0.0
  0
LINE
  5
3CAD
  8
2
 10
85.732050807568896
 20
40.000000000000007
 30
0.0
 11
84.0
 21
37.000000000000007
 31
0.0
  0
LINE
  5
3CAE
  8
2
 10
84.0
 20
43.0
 30
0.0
 11
85.732050807568825
 21
40.000000000000007
 31
0.0
  0
ENDSEC
  0
EOF
