  0
SECTION
  2
HEADER
  9
$ACADVER
  1
AC1009
  9
$INSBASE
 10
0.0
 20
0.0
 30
0.0
  9
$EXTMIN
 10
0.0
 20
-1.4802182810368341
 30
0.0
  9
$EXTMAX
 10
135.5
 20
62.100000000000001
 30
0.0
  9
$LIMMIN
 10
0.0
 20
0.0
  9
$LIMMAX
 10
187.5
 20
135.0
  9
$ORTHOMODE
 70
     1
  9
$REGENMODE
 70
     1
  9
$FILLMODE
 70
     1
  9
$QTEXTMODE
 70
     0
  9
$MIRRTEXT
 70
     0
  9
$DRAGMODE
 70
     2
  9
$LTSCALE
 40
2.0
  9
$OSMODE
 70
    37
  9
$ATTMODE
 70
     1
  9
$TEXTSIZE
 40
4.0
  9
$TRACEWID
 40
0.05
  9
$TEXTSTYLE
  7
STANDARD
  9
$CLAYER
  8
0
  9
$CELTYPE
  6
BYLAYER
  9
$CECOLOR
 62
   256
  9
$DIMSCALE
 40
0.5
  9
$DIMASZ
 40
3.0
  9
$DIMEXO
 40
2.0
  9
$DIMDLI
 40
0.38
  9
$DIMRND
 40
0.0
  9
$DIMDLE
 40
0.0
  9
$DIMEXE
 40
2.0
  9
$DIMTP
 40
0.0
  9
$DIMTM
 40
0.0
  9
$DIMTXT
 40
3.0
  9
$DIMCEN
 40
0.0
  9
$DIMTSZ
 40
0.0
  9
$DIMTOL
 70
     0
  9
$DIMLIM
 70
     0
  9
$DIMTIH
 70
     0
  9
$DIMTOH
 70
     0
  9
$DIMSE1
 70
     0
  9
$DIMSE2
 70
     0
  9
$DIMTAD
 70
     1
  9
$DIMZIN
 70
     8
  9
$DIMBLK
  1

  9
$DIMASO
 70
     0
  9
$DIMSHO
 70
     0
  9
$DIMPOST
  1

  9
$DIMAPOST
  1

  9
$DIMALT
 70
     0
  9
$DIMALTD
 70
     2
  9
$DIMALTF
 40
25.399999999999999
  9
$DIMLFAC
 40
1.0
  9
$DIMTOFL
 70
     1
  9
$DIMTVP
 40
1.6000000000000001
  9
$DIMTIX
 70
     1
  9
$DIMSOXD
 70
     0
  9
$DIMSAH
 70
     0
  9
$DIMBLK1
  1

  9
$DIMBLK2
  1

  9
$DIMSTYLE
  2
STANDARD
  9
$DIMCLRD
 70
   256
  9
$DIMCLRE
 70
   256
  9
$DIMCLRT
 70
   256
  9
$DIMTFAC
 40
1.0
  9
$DIMGAP
 40
1.0
  9
$LUNITS
 70
     2
  9
$LUPREC
 70
     1
  9
$SKETCHINC
 40
0.1
  9
$FILLETRAD
 40
1.0
  9
$AUNITS
 70
     0
  9
$AUPREC
 70
     0
  9
$MENU
  1
E:\r13\win\SUPPORT\ACAD
  9
$ELEVATION
 40
0.0
  9
$PELEVATION
 40
0.0
  9
$THICKNESS
 40
0.0
  9
$LIMCHECK
 70
     0
  9
$BLIPMODE
 70
     0
  9
$CHAMFERA
 40
0.0
  9
$CHAMFERB
 40
0.0
  9
$SKPOLY
 70
     0
  9
$TDCREATE
 40
2449840.6143865739
  9
$TDUPDATE
 40
2459255.6464909958
  9
$TDINDWG
 40
0.7029511574
  9
$TDUSRTIMER
 40
0.7029511574
  9
$USRTIMER
 70
     1
  9
$ANGBASE
 50
0.0
  9
$ANGDIR
 70
     0
  9
$PDMODE
 70
     0
  9
$PDSIZE
 40
0.0
  9
$PLINEWID
 40
0.0
  9
$COORDS
 70
     1
  9
$SPLFRAME
 70
     0
  9
$SPLINETYPE
 70
     6
  9
$SPLINESEGS
 70
     8
  9
$ATTDIA
 70
     0
  9
$ATTREQ
 70
     1
  9
$HANDLING
 70
     1
  9
$HANDSEED
  5
2A68
  9
$SURFTAB1
 70
     6
  9
$SURFTAB2
 70
     6
  9
$SURFTYPE
 70
     6
  9
$SURFU
 70
     6
  9
$SURFV
 70
     6
  9
$UCSNAME
  2

  9
$UCSORG
 10
0.0
 20
0.0
 30
0.0
  9
$UCSXDIR
 10
1.0
 20
0.0
 30
0.0
  9
$UCSYDIR
 10
0.0
 20
1.0
 30
0.0
  9
$PUCSNAME
  2

  9
$PUCSORG
 10
0.0
 20
0.0
 30
0.0
  9
$PUCSXDIR
 10
1.0
 20
0.0
 30
0.0
  9
$PUCSYDIR
 10
0.0
 20
1.0
 30
0.0
  9
$USERI1
 70
     0
  9
$USERI2
 70
     1
  9
$USERI3
 70
     1
  9
$USERI4
 70
     0
  9
$USERI5
 70
     0
  9
$USERR1
 40
0.0
  9
$USERR2
 40
0.0
  9
$USERR3
 40
0.0
  9
$USERR4
 40
0.0
  9
$USERR5
 40
0.0
  9
$WORLDVIEW
 70
     1
  9
$SHADEDGE
 70
     3
  9
$SHADEDIF
 70
    70
  9
$TILEMODE
 70
     1
  9
$MAXACTVP
 70
    16
  9
$PLIMCHECK
 70
     0
  9
$PEXTMIN
 10
1.0000000000000000E+020
 20
1.0000000000000000E+020
 30
1.0000000000000000E+020
  9
$PEXTMAX
 10
-1.0000000000000000E+020
 20
-1.0000000000000000E+020
 30
-1.0000000000000000E+020
  9
$PLIMMIN
 10
0.0
 20
0.0
  9
$PLIMMAX
 10
12.0
 20
9.0
  9
$UNITMODE
 70
     0
  9
$VISRETAIN
 70
     0
  9
$PLINEGEN
 70
     0
  9
$PSLTSCALE
 70
     0
  0
ENDSEC
  0
SECTION
  2
TABLES
  0
TABLE
  2
VPORT
 70
     1
  0
VPORT
  2
*ACTIVE
 70
     0
 10
0.0
 20
0.0
 11
1.0
 21
1.0
 12
195.14681892332791
 22
75.0
 13
0.0
 23
0.0
 14
5.0
 24
5.0
 15
5.0
 25
5.0
 16
0.0
 26
0.0
 36
1.0
 17
0.0
 27
0.0
 37
0.0
 40
150.0
 41
2.6019575856443709
 42
50.0
 43
0.0
 44
0.0
 50
0.0
 51
0.0
 71
     0
 72
   100
 73
     1
 74
     0
 75
     0
 76
     0
 77
     0
 78
     0
  0
ENDTAB
  0
TABLE
  2
LTYPE
 70
     4
  0
LTYPE
  2
CONTINUOUS
 70
     0
  3
Solid Line
 72
    65
 73
     0
 40
0.0
  0
LTYPE
  2
CENTER
 70
     0
  3
____ _ ____ _ ____ _ ____ _ ____ _ ____ _ ____
 72
    65
 73
     4
 40
2.0
 49
1.25
 49
-0.25
 49
0.25
 49
-0.25
  0
LTYPE
  2
HIDDEN
 70
     0
  3
_ _ _ _ _ _ _ _ _ _ _ _ _ _ _ _ _ _ _ _ _ _ _
 72
    65
 73
     2
 40
0.375
 49
0.25
 49
-0.125
  0
LTYPE
  2
PHANTOM2
 70
     0
  3
___ _ _ ___ _ _ ___ _ _ ___ _ _
 72
    65
 73
     6
 40
1.25
 49
0.625
 49
-0.125
 49
0.125
 49
-0.125
 49
0.125
 49
-0.125
  0
ENDTAB
  0
TABLE
  2
LAYER
 70
     5
  0
LAYER
  2
0
 70
     0
 62
     7
  6
CONTINUOUS
  0
LAYER
  2
1
 70
     0
 62
     1
  6
CENTER
  0
LAYER
  2
3
 70
     0
 62
     3
  6
CONTINUOUS
  0
LAYER
  2
2
 70
     0
 62
     2
  6
HIDDEN
  0
LAYER
  2
DEFPOINTS
 70
     0
 62
     7
  6
CONTINUOUS
  0
ENDTAB
  0
TABLE
  2
STYLE
 70
     2
  0
STYLE
  2
STANDARD
 70
     0
 40
0.0
 41
1.0
 50
0.0
 71
     0
 42
4.0
  3
TXT
  4
BIGFONT
  0
STYLE
  2
STANDARD1
 70
     0
 40
0.0
 41
1.0
 50
0.0
 71
     0
 42
3.0
  3
txt
  4

  0
ENDTAB
  0
TABLE
  2
VIEW
 70
     1
  0
VIEW
  2
ALL
 70
     0
 40
179.66152299999999
 10
141.903918
 20
89.830760999999995
 41
0.0
 11
0.0
 21
0.0
 31
1.0
 12
0.0
 22
0.0
 32
0.0
 42
0.0
 43
0.0
 44
0.0
 50
0.0
 71
     0
  0
ENDTAB
  0
TABLE
  2
UCS
 70
     0
  0
ENDTAB
  0
TABLE
  2
APPID
 70
     8
  0
APPID
  2
ACAD
 70
     0
  0
APPID
  2
DCO15
 70
     0
  0
APPID
  2
ACAD_MLEADERVER
 70
     0
  0
APPID
  2
ACAD_NAV_VCDISPLAY
 70
     0
  0
APPID
  2
ACAD_EXEMPT_FROM_CAD_STANDARDS
 70
     0
  0
APPID
  2
ACAD_DSTYLE_DIMRADIAL_EXTENSION
 70
     0
  0
APPID
  2
ACAD_DSTYLE_DIMJAG
 70
     0
  0
APPID
  2
ACAD_DSTYLE_DIMTALN
 70
     0
  0
ENDTAB
  0
TABLE
  2
DIMSTYLE
 70
     1
  0
DIMSTYLE
  2
STANDARD
 70
     0
  3

  4

  5

  6

  7

 40
1.0
 41
0.18
 42
0.0625
 43
0.38
 44
0.18
 45
0.0
 46
0.0
 47
0.0
 48
0.0
140
0.18
141
0.09
142
0.0
143
25.399999999999999
144
1.0
145
0.0
146
1.0
147
0.09
 71
     0
 72
     0
 73
     1
 74
     1
 75
     0
 76
     0
 77
     0
 78
     0
170
     0
171
     2
172
     0
173
     0
174
     0
175
     0
176
     0
177
     0
178
     0
  0
ENDTAB
  0
ENDSEC
  0
SECTION
  2
BLOCKS
  0
BLOCK
  8
0
  2
$MODEL_SPACE
 70
     0
 10
0.0
 20
0.0
 30
0.0
  3
$MODEL_SPACE
  1

  0
ENDBLK
  5
1BD
  8
0
  0
BLOCK
 67
     1
  8
0
  2
$PAPER_SPACE
 70
     0
 10
0.0
 20
0.0
 30
0.0
  3
$PAPER_SPACE
  1

  0
ENDBLK
  5
1BB
 67
     1
  8
0
  0
ENDSEC
  0
SECTION
  2
ENTITIES
  0
TEXT
  5
14AC
  8
0
 62
     3
 10
0.0
 20
0.0
 30
0.0
 40
5.0
  1
LHSSB08X52
  7
STANDARD1
  0
LINE
  5
279A
  8
2
 10
59.0
 20
60.100000000000001
 30
0.0
 11
54.0
 21
60.100000000000001
 31
0.0
  0
LINE
  5
279B
  8
2
 10
59.0
 20
56.100000000000001
 30
0.0
 11
54.0
 21
56.100000000000001
 31
0.0
  0
LINE
  5
279C
  8
2
 10
59.0
 20
58.100000000000001
 30
0.0
 11
54.0
 21
58.100000000000001
 31
0.0
  0
LINE
  5
279D
  8
2
 10
59.0
 20
60.100000000000001
 30
0.0
 11
59.0
 21
56.100000000000001
 31
0.0
  0
LINE
  5
279E
  8
0
 10
103.59999999999999
 20
55.350000000000001
 30
0.0
 11
105.5
 21
55.350000000000001
 31
0.0
  0
LINE
  5
279F
  8
0
 10
105.5
 20
60.850000000000001
 30
0.0
 11
103.59999999999999
 21
60.850000000000001
 31
0.0
  0
LINE
  5
27A3
  8
0
 10
106.0
 20
60.350000000000001
 30
0.0
 11
106.0
 21
55.850000000000001
 31
0.0
  0
LINE
  5
27A4
  8
0
 10
105.5
 20
60.850000000000001
 30
0.0
 11
105.5
 21
55.350000000000001
 31
0.0
  0
LINE
  5
27A5
  8
0
 10
106.0
 20
60.350000000000001
 30
0.0
 11
105.5
 21
60.850000000000001
 31
0.0
  0
LINE
  5
27A6
  8
0
 10
105.5
 20
55.350000000000001
 30
0.0
 11
106.0
 21
55.850000000000001
 31
0.0
  0
LINE
  5
27AA
  8
0
 10
102.59999999999999
 20
55.0
 30
0.0
 11
103.59999999999999
 21
55.0
 31
0.0
  0
LINE
  5
27AB
  8
0
 10
103.59999999999999
 20
61.200000000000003
 30
0.0
 11
102.59999999999999
 21
61.200000000000003
 31
0.0
  0
LINE
  5
27AC
  8
0
 10
103.59999999999999
 20
61.200000000000003
 30
0.0
 11
103.59999999999999
 21
55.0
 31
0.0
  0
LINE
  5
27AD
  8
0
 10
102.59999999999999
 20
57.625
 30
0.0
 11
102.59999999999999
 21
55.0
 31
0.0
  0
LINE
  5
27AE
  8
0
 10
102.59999999999999
 20
61.200000000000003
 30
0.0
 11
101.7
 21
62.100000000000001
 31
0.0
  0
LINE
  5
27AF
  8
0
 10
101.7
 20
54.100000000000001
 30
0.0
 11
102.59999999999999
 21
55.0
 31
0.0
  0
LINE
  5
27B1
  8
0
 10
102.59999999999999
 20
61.200000000000003
 30
0.0
 11
102.59999999999999
 21
58.575000000000003
 31
0.0
  0
LINE
  5
27B2
  8
0
 10
54.0
 20
61.100000000000001
 30
0.0
 11
54.0
 21
55.100000000000001
 31
0.0
  0
LINE
  5
27B3
  8
0
 10
54.0
 20
55.100000000000001
 30
0.0
 11
55.0
 21
54.100000000000001
 31
0.0
  0
LINE
  5
27B4
  8
0
 10
55.0
 20
62.100000000000001
 30
0.0
 11
54.0
 21
61.100000000000001
 31
0.0
  0
LINE
  5
27B5
  8
0
 10
90.0
 20
58.575000000000003
 30
0.0
 11
90.0
 21
57.625
 31
0.0
  0
LINE
  5
27B6
  8
0
 10
103.59999999999999
 20
58.575000000000003
 30
0.0
 11
90.0
 21
58.575000000000003
 31
0.0
  0
LINE
  5
27B7
  8
0
 10
101.7
 20
57.625
 30
0.0
 11
101.7
 21
54.100000000000001
 31
0.0
  0
LINE
  5
27B8
  8
0
 10
103.59999999999999
 20
57.625
 30
0.0
 11
90.0
 21
57.625
 31
0.0
  0
LINE
  5
27B9
  8
0
 10
55.0
 20
62.100000000000001
 30
0.0
 11
55.0
 21
54.100000000000001
 31
0.0
  0
LINE
  5
27BA
  8
0
 10
55.0
 20
54.100000000000001
 30
0.0
 11
101.7
 21
54.100000000000009
 31
0.0
  0
LINE
  5
27BB
  8
0
 10
101.7
 20
62.099999999999987
 30
0.0
 11
55.0
 21
62.100000000000001
 31
0.0
  0
LINE
  5
27BD
  8
0
 10
101.7
 20
62.100000000000001
 30
0.0
 11
101.7
 21
58.575000000000003
 31
0.0
  0
LINE
  5
27BE
  8
0
 10
91.900000000000006
 20
57.625
 30
0.0
 11
91.900000000000006
 21
58.575000000000003
 31
0.0
  0
LINE
  5
27BF
  8
0
 10
99.900000000000006
 20
57.625
 30
0.0
 11
99.900000000000006
 21
58.575000000000003
 31
0.0
  0
LINE
  5
27C0
  8
3
 10
54.233000000000011
 20
54.86699999999999
 30
0.0
 11
102.467
 21
54.867000000000019
 31
0.0
  0
LINE
  5
27C2
  8
3
 10
54.233000000000011
 20
61.333000000000013
 30
0.0
 11
102.4669999999999
 21
61.332999999999998
 31
0.0
  0
LINE
  5
27E4
  8
0
 10
32.0
 20
28.845299461620751
 30
0.0
 11
32.0
 21
31.154700538379249
 31
0.0
  0
LINE
  5
27E5
  8
0
 10
28.0
 20
31.154700538379249
 30
0.0
 11
28.0
 21
28.845299461620751
 31
0.0
  0
LINE
  5
27E6
  8
0
 10
30.0
 20
27.690598923241499
 30
0.0
 11
32.0
 21
28.845299461620751
 31
0.0
  0
LINE
  5
27E7
  8
0
 10
28.0
 20
28.845299461620751
 30
0.0
 11
30.0
 21
27.690598923241499
 31
0.0
  0
LINE
  5
27E8
  8
0
 10
30.0
 20
32.309401076758512
 30
0.0
 11
28.0
 21
31.154700538379249
 31
0.0
  0
LINE
  5
27E9
  8
0
 10
32.0
 20
31.154700538379249
 30
0.0
 11
30.0
 21
32.309401076758512
 31
0.0
  0
LINE
  5
27EB
  8
0
 10
29.524999999999999
 20
34.100000000000001
 30
0.0
 11
30.474999999999991
 21
34.100000000000001
 31
0.0
  0
LINE
  5
27EE
  8
0
 10
29.524999999999999
 20
33.971696740689048
 30
0.0
 11
29.524999999999999
 21
34.100000000000001
 31
0.0
  0
LINE
  5
27F1
  8
0
 10
30.474999999999991
 20
33.971696740689048
 30
0.0
 11
30.474999999999991
 21
34.100000000000001
 31
0.0
  0
LINE
  5
288A
  8
2
 10
59.0
 20
27.690598923241499
 30
0.0
 11
54.0
 21
27.690598923241499
 31
0.0
  0
LINE
  5
288B
  8
2
 10
59.0
 20
32.309401076758512
 30
0.0
 11
54.0
 21
32.309401076758512
 31
0.0
  0
LINE
  5
2890
  8
0
 10
99.900000000000006
 20
33.971696740689048
 30
0.0
 11
99.900000000000006
 21
34.100000000000001
 31
0.0
  0
LINE
  5
2891
  8
0
 10
99.900000000000006
 20
34.100000000000001
 30
0.0
 11
91.900000000000006
 21
34.100000000000001
 31
0.0
  0
LINE
  5
2892
  8
0
 10
91.900000000000006
 20
34.100000000000001
 30
0.0
 11
91.900000000000006
 21
33.971696740689048
 31
0.0
  0
LINE
  5
2894
  8
2
 10
59.0
 20
28.845299461620751
 30
0.0
 11
54.0
 21
28.845299461620751
 31
0.0
  0
LINE
  5
2895
  8
2
 10
59.0
 20
31.154700538379249
 30
0.0
 11
54.0
 21
31.154700538379249
 31
0.0
  0
LINE
  5
2896
  8
2
 10
59.0
 20
32.309401076758512
 30
0.0
 11
59.0
 21
27.690598923241499
 31
0.0
  0
LINE
  5
2899
  8
0
 10
103.59999999999999
 20
27.25
 30
0.0
 11
105.5
 21
27.25
 31
0.0
  0
LINE
  5
289A
  8
0
 10
105.5
 20
32.75
 30
0.0
 11
103.59999999999999
 21
32.75
 31
0.0
  0
LINE
  5
289F
  8
0
 10
106.0
 20
32.25
 30
0.0
 11
105.5
 21
32.75
 31
0.0
  0
LINE
  5
28A0
  8
0
 10
105.5
 20
27.25
 30
0.0
 11
106.0
 21
27.75
 31
0.0
  0
LINE
  5
28A1
  8
0
 10
106.0
 20
32.25
 30
0.0
 11
106.0
 21
27.75
 31
0.0
  0
LINE
  5
28A2
  8
0
 10
105.5
 20
32.75
 30
0.0
 11
105.5
 21
27.25
 31
0.0
  0
LINE
  5
28A3
  8
0
 10
103.59999999999999
 20
33.063392727026688
 30
0.0
 11
103.59999999999999
 21
26.899999999999999
 31
0.0
  0
LINE
  5
28A4
  8
0
 10
103.59999999999999
 20
33.063392727026688
 30
0.0
 11
102.59999999999999
 21
33.063392727026688
 31
0.0
  0
LINE
  5
28A5
  8
0
 10
102.59999999999999
 20
26.899999999999999
 30
0.0
 11
103.59999999999999
 21
26.899999999999999
 31
0.0
  0
LINE
  5
28A6
  8
0
 10
101.7
 20
33.971696740689048
 30
0.0
 11
90.0
 21
33.971696740689048
 31
0.0
  0
LINE
  5
28A7
  8
0
 10
55.0
 20
26.0
 30
0.0
 11
101.7
 21
26.0
 31
0.0
  0
LINE
  5
28A8
  8
0
 10
90.0
 20
34.0
 30
0.0
 11
55.0
 21
34.0
 31
0.0
  0
LINE
  5
28A9
  8
0
 10
90.0
 20
34.0
 30
0.0
 11
90.0
 21
33.971696740689048
 31
0.0
  0
LINE
  5
28AA
  8
0
 10
54.0
 20
27.0
 30
0.0
 11
55.0
 21
26.0
 31
0.0
  0
LINE
  5
28AB
  8
0
 10
55.0
 20
34.0
 30
0.0
 11
54.0
 21
33.0
 31
0.0
  0
LINE
  5
28AC
  8
0
 10
55.0
 20
34.0
 30
0.0
 11
55.0
 21
26.0
 31
0.0
  0
LINE
  5
28AD
  8
0
 10
54.0
 20
33.0
 30
0.0
 11
54.0
 21
27.0
 31
0.0
  0
LINE
  5
28AE
  8
0
 10
102.59999999999999
 20
33.063392727026688
 30
0.0
 11
102.59999999999999
 21
26.899999999999999
 31
0.0
  0
LINE
  5
28AF
  8
0
 10
102.59999999999999
 20
33.063392727026688
 30
0.0
 11
101.7
 21
33.971696740689048
 31
0.0
  0
LINE
  5
28B0
  8
0
 10
101.7
 20
33.971696740689048
 30
0.0
 11
101.7
 21
26.0
 31
0.0
  0
LINE
  5
28B1
  8
0
 10
101.7
 20
26.0
 30
0.0
 11
102.59999999999999
 21
26.899999999999999
 31
0.0
  0
LINE
  5
28B3
  8
3
 10
54.233000000000011
 20
33.233000000000011
 30
0.0
 11
102.43194333243061
 21
33.233000000000011
 31
0.0
  0
LINE
  5
28B5
  8
3
 10
54.233000000000011
 20
26.766999999999999
 30
0.0
 11
102.467
 21
26.76700000000001
 31
0.0
  0
LINE
  5
2953
  8
0
 10
129.52500000000001
 20
34.100000000000001
 30
0.0
 11
130.47499999999999
 21
34.100000000000001
 31
0.0
  0
ARC
  5
2954
  8
0
 10
130.0
 20
30.0
 30
0.0
 40
4.0
 50
96.81996702584442
 51
83.180032974155566
  0
LINE
  5
2956
  8
0
 10
129.52500000000001
 20
32.899999999999999
 30
0.0
 11
129.52500000000001
 21
34.100000000000001
 31
0.0
  0
LINE
  5
2957
  8
0
 10
129.52500000000001
 20
32.899999999999999
 30
0.0
 11
130.47499999999999
 21
32.899999999999999
 31
0.0
  0
ARC
  5
2958
  8
0
 10
130.0
 20
30.0
 30
0.0
 40
3.1000000000000001
 50
98.813913318666735
 51
81.186086681333279
  0
LINE
  5
2959
  8
0
 10
130.47499999999999
 20
32.899999999999999
 30
0.0
 11
130.47499999999999
 21
34.100000000000001
 31
0.0
  0
CIRCLE
  5
295A
  8
0
 10
130.0
 20
30.0
 30
0.0
 40
2.75
  0
LINE
  5
2962
  8
1
 10
107.5
 20
30.0
 30
0.0
 11
52.5
 21
30.0
 31
0.0
  0
LINE
  5
296B
  8
2
 10
60.154700538379302
 20
58.10000000000003
 30
0.0
 11
59.0
 21
56.100000000000001
 31
0.0
  0
LINE
  5
296C
  8
2
 10
59.0
 20
60.100000000000001
 30
0.0
 11
60.154700538379267
 21
58.100000000000023
 31
0.0
  0
LINE
  5
296D
  8
1
 10
52.5
 20
58.100000000000001
 30
0.0
 11
107.5
 21
58.100000000000001
 31
0.0
  0
LINE
  5
2970
  8
2
 10
60.154700538379302
 20
30.000000000000028
 30
0.0
 11
59.0
 21
28.0
 31
0.0
  0
LINE
  5
2971
  8
2
 10
59.0
 20
32.0
 30
0.0
 11
60.154700538379267
 21
30.000000000000021
 31
0.0
  0
CIRCLE
  5
297A
  8
3
 10
30.0
 20
30.0
 30
0.0
 40
3.2330000000000041
  0
CIRCLE
  5
297C
  8
0
 10
30.0
 20
30.0
 30
0.0
 40
4.0
  0
LINE
  5
297D
  8
1
 10
30.0
 20
35.5
 30
0.0
 11
30.0
 21
24.5
 31
0.0
  0
LINE
  5
297E
  8
1
 10
35.5
 20
30.0
 30
0.0
 11
24.5
 21
30.0
 31
0.0
  0
CIRCLE
  5
2988
  8
3
 10
130.0
 20
30.0
 30
0.0
 40
3.2330000000000041
  0
LINE
  5
2993
  8
1
 10
130.0
 20
35.5
 30
0.0
 11
130.0
 21
24.5
 31
0.0
  0
LINE
  5
2994
  8
1
 10
135.5
 20
30.0
 30
0.0
 11
124.5
 21
30.0
 31
0.0
  0
ENDSEC
  0
EOF
