  0
SECTION
  2
HEADER
  9
$ACADVER
  1
AC1009
  9
$INSBASE
 10
0.0
 20
0.0
 30
0.0
  9
$EXTMIN
 10
0.0
 20
-1.4802182810368341
 30
0.0
  9
$EXTMAX
 10
73.5
 20
41.099999999999987
 30
0.0
  9
$LIMMIN
 10
0.0
 20
0.0
  9
$LIMMAX
 10
187.5
 20
135.0
  9
$ORTHOMODE
 70
     1
  9
$REGENMODE
 70
     1
  9
$FILLMODE
 70
     1
  9
$QTEXTMODE
 70
     0
  9
$MIRRTEXT
 70
     0
  9
$DRAGMODE
 70
     2
  9
$LTSCALE
 40
2.0
  9
$OSMODE
 70
    37
  9
$ATTMODE
 70
     1
  9
$TEXTSIZE
 40
4.0
  9
$TRACEWID
 40
0.05
  9
$TEXTSTYLE
  7
STANDARD
  9
$CLAYER
  8
0
  9
$CELTYPE
  6
BYLAYER
  9
$CECOLOR
 62
   256
  9
$DIMSCALE
 40
0.5
  9
$DIMASZ
 40
3.0
  9
$DIMEXO
 40
2.0
  9
$DIMDLI
 40
0.38
  9
$DIMRND
 40
0.0
  9
$DIMDLE
 40
0.0
  9
$DIMEXE
 40
2.0
  9
$DIMTP
 40
0.0
  9
$DIMTM
 40
0.0
  9
$DIMTXT
 40
3.0
  9
$DIMCEN
 40
0.0
  9
$DIMTSZ
 40
0.0
  9
$DIMTOL
 70
     0
  9
$DIMLIM
 70
     0
  9
$DIMTIH
 70
     0
  9
$DIMTOH
 70
     0
  9
$DIMSE1
 70
     0
  9
$DIMSE2
 70
     0
  9
$DIMTAD
 70
     1
  9
$DIMZIN
 70
     8
  9
$DIMBLK
  1

  9
$DIMASO
 70
     0
  9
$DIMSHO
 70
     0
  9
$DIMPOST
  1

  9
$DIMAPOST
  1

  9
$DIMALT
 70
     0
  9
$DIMALTD
 70
     2
  9
$DIMALTF
 40
25.399999999999999
  9
$DIMLFAC
 40
1.0
  9
$DIMTOFL
 70
     1
  9
$DIMTVP
 40
1.6000000000000001
  9
$DIMTIX
 70
     1
  9
$DIMSOXD
 70
     0
  9
$DIMSAH
 70
     0
  9
$DIMBLK1
  1

  9
$DIMBLK2
  1

  9
$DIMSTYLE
  2
STANDARD
  9
$DIMCLRD
 70
   256
  9
$DIMCLRE
 70
   256
  9
$DIMCLRT
 70
   256
  9
$DIMTFAC
 40
1.0
  9
$DIMGAP
 40
1.0
  9
$LUNITS
 70
     2
  9
$LUPREC
 70
     1
  9
$SKETCHINC
 40
0.1
  9
$FILLETRAD
 40
1.0
  9
$AUNITS
 70
     0
  9
$AUPREC
 70
     0
  9
$MENU
  1
E:\r13\win\SUPPORT\ACAD
  9
$ELEVATION
 40
0.0
  9
$PELEVATION
 40
0.0
  9
$THICKNESS
 40
0.0
  9
$LIMCHECK
 70
     0
  9
$BLIPMODE
 70
     0
  9
$CHAMFERA
 40
0.0
  9
$CHAMFERB
 40
0.0
  9
$SKPOLY
 70
     0
  9
$TDCREATE
 40
2449840.6143865739
  9
$TDUPDATE
 40
2459255.6464178818
  9
$TDINDWG
 40
0.5611051157
  9
$TDUSRTIMER
 40
0.5611051157
  9
$USRTIMER
 70
     1
  9
$ANGBASE
 50
0.0
  9
$ANGDIR
 70
     0
  9
$PDMODE
 70
     0
  9
$PDSIZE
 40
0.0
  9
$PLINEWID
 40
0.0
  9
$COORDS
 70
     1
  9
$SPLFRAME
 70
     0
  9
$SPLINETYPE
 70
     6
  9
$SPLINESEGS
 70
     8
  9
$ATTDIA
 70
     0
  9
$ATTREQ
 70
     1
  9
$HANDLING
 70
     1
  9
$HANDSEED
  5
2CA3
  9
$SURFTAB1
 70
     6
  9
$SURFTAB2
 70
     6
  9
$SURFTYPE
 70
     6
  9
$SURFU
 70
     6
  9
$SURFV
 70
     6
  9
$UCSNAME
  2

  9
$UCSORG
 10
0.0
 20
0.0
 30
0.0
  9
$UCSXDIR
 10
1.0
 20
0.0
 30
0.0
  9
$UCSYDIR
 10
0.0
 20
1.0
 30
0.0
  9
$PUCSNAME
  2

  9
$PUCSORG
 10
0.0
 20
0.0
 30
0.0
  9
$PUCSXDIR
 10
1.0
 20
0.0
 30
0.0
  9
$PUCSYDIR
 10
0.0
 20
1.0
 30
0.0
  9
$USERI1
 70
     0
  9
$USERI2
 70
     1
  9
$USERI3
 70
     1
  9
$USERI4
 70
     0
  9
$USERI5
 70
     0
  9
$USERR1
 40
0.0
  9
$USERR2
 40
0.0
  9
$USERR3
 40
0.0
  9
$USERR4
 40
0.0
  9
$USERR5
 40
0.0
  9
$WORLDVIEW
 70
     1
  9
$SHADEDGE
 70
     3
  9
$SHADEDIF
 70
    70
  9
$TILEMODE
 70
     1
  9
$MAXACTVP
 70
    16
  9
$PLIMCHECK
 70
     0
  9
$PEXTMIN
 10
1.0000000000000000E+020
 20
1.0000000000000000E+020
 30
1.0000000000000000E+020
  9
$PEXTMAX
 10
-1.0000000000000000E+020
 20
-1.0000000000000000E+020
 30
-1.0000000000000000E+020
  9
$PLIMMIN
 10
0.0
 20
0.0
  9
$PLIMMAX
 10
12.0
 20
9.0
  9
$UNITMODE
 70
     0
  9
$VISRETAIN
 70
     0
  9
$PLINEGEN
 70
     0
  9
$PSLTSCALE
 70
     0
  0
ENDSEC
  0
SECTION
  2
TABLES
  0
TABLE
  2
VPORT
 70
     1
  0
VPORT
  2
*ACTIVE
 70
     0
 10
0.0
 20
0.0
 11
1.0
 21
1.0
 12
130.0978792822186
 22
50.0
 13
0.0
 23
0.0
 14
5.0
 24
5.0
 15
5.0
 25
5.0
 16
0.0
 26
0.0
 36
1.0
 17
0.0
 27
0.0
 37
0.0
 40
100.0
 41
2.6019575856443722
 42
50.0
 43
0.0
 44
0.0
 50
0.0
 51
0.0
 71
     0
 72
   100
 73
     1
 74
     0
 75
     0
 76
     0
 77
     0
 78
     0
  0
ENDTAB
  0
TABLE
  2
LTYPE
 70
     4
  0
LTYPE
  2
CONTINUOUS
 70
     0
  3
Solid Line
 72
    65
 73
     0
 40
0.0
  0
LTYPE
  2
CENTER
 70
     0
  3
____ _ ____ _ ____ _ ____ _ ____ _ ____ _ ____
 72
    65
 73
     4
 40
2.0
 49
1.25
 49
-0.25
 49
0.25
 49
-0.25
  0
LTYPE
  2
HIDDEN
 70
     0
  3
_ _ _ _ _ _ _ _ _ _ _ _ _ _ _ _ _ _ _ _ _ _ _
 72
    65
 73
     2
 40
0.375
 49
0.25
 49
-0.125
  0
LTYPE
  2
PHANTOM2
 70
     0
  3
___ _ _ ___ _ _ ___ _ _ ___ _ _
 72
    65
 73
     6
 40
1.25
 49
0.625
 49
-0.125
 49
0.125
 49
-0.125
 49
0.125
 49
-0.125
  0
ENDTAB
  0
TABLE
  2
LAYER
 70
     5
  0
LAYER
  2
0
 70
     0
 62
     7
  6
CONTINUOUS
  0
LAYER
  2
1
 70
     0
 62
     1
  6
CENTER
  0
LAYER
  2
3
 70
     0
 62
     3
  6
CONTINUOUS
  0
LAYER
  2
2
 70
     0
 62
     2
  6
HIDDEN
  0
LAYER
  2
DEFPOINTS
 70
     0
 62
     7
  6
CONTINUOUS
  0
ENDTAB
  0
TABLE
  2
STYLE
 70
     2
  0
STYLE
  2
STANDARD
 70
     0
 40
0.0
 41
1.0
 50
0.0
 71
     0
 42
4.0
  3
TXT
  4
BIGFONT
  0
STYLE
  2
STANDARD1
 70
     0
 40
0.0
 41
1.0
 50
0.0
 71
     0
 42
3.0
  3
txt
  4

  0
ENDTAB
  0
TABLE
  2
VIEW
 70
     2
  0
VIEW
  2
ALL
 70
     0
 40
179.66152299999999
 10
141.903918
 20
89.830760999999995
 41
0.0
 11
0.0
 21
0.0
 31
1.0
 12
0.0
 22
0.0
 32
0.0
 42
0.0
 43
0.0
 44
0.0
 50
0.0
 71
     0
  0
VIEW
  2
OLE1
 70
     0
 40
21.210878365058011
 10
129.0020542378646
 20
17.444709705898578
 41
33.426071709220878
 11
0.0
 21
0.0
 31
1.0
 12
0.0
 22
0.0
 32
0.0
 42
50.0
 43
0.0
 44
0.0
 50
0.0
 71
     0
  0
ENDTAB
  0
TABLE
  2
UCS
 70
     0
  0
ENDTAB
  0
TABLE
  2
APPID
 70
     8
  0
APPID
  2
ACAD
 70
     0
  0
APPID
  2
DCO15
 70
     0
  0
APPID
  2
ACAD_MLEADERVER
 70
     0
  0
APPID
  2
ACAD_NAV_VCDISPLAY
 70
     0
  0
APPID
  2
ACAD_EXEMPT_FROM_CAD_STANDARDS
 70
     0
  0
APPID
  2
ACAD_DSTYLE_DIMRADIAL_EXTENSION
 70
     0
  0
APPID
  2
ACAD_DSTYLE_DIMJAG
 70
     0
  0
APPID
  2
ACAD_DSTYLE_DIMTALN
 70
     0
  0
ENDTAB
  0
TABLE
  2
DIMSTYLE
 70
     1
  0
DIMSTYLE
  2
STANDARD
 70
     0
  3

  4

  5

  6

  7

 40
1.0
 41
0.18
 42
0.0625
 43
0.38
 44
0.18
 45
0.0
 46
0.0
 47
0.0
 48
0.0
140
0.18
141
0.09
142
0.0
143
25.399999999999999
144
1.0
145
0.0
146
1.0
147
0.09
 71
     0
 72
     0
 73
     1
 74
     1
 75
     0
 76
     0
 77
     0
 78
     0
170
     0
171
     2
172
     0
173
     0
174
     0
175
     0
176
     0
177
     0
178
     0
  0
ENDTAB
  0
ENDSEC
  0
SECTION
  2
BLOCKS
  0
BLOCK
  8
0
  2
$MODEL_SPACE
 70
     0
 10
0.0
 20
0.0
 30
0.0
  3
$MODEL_SPACE
  1

  0
ENDBLK
  5
1BD
  8
0
  0
BLOCK
 67
     1
  8
0
  2
$PAPER_SPACE
 70
     0
 10
0.0
 20
0.0
 30
0.0
  3
$PAPER_SPACE
  1

  0
ENDBLK
  5
1BB
 67
     1
  8
0
  0
ENDSEC
  0
SECTION
  2
ENTITIES
  0
TEXT
  5
14AC
  8
0
 62
     3
 10
0.0
 20
0.0
 30
0.0
 40
5.0
  1
LHSSB04X16.5
  7
STANDARD1
  0
LINE
  5
2190
  8
2
 10
39.5
 20
40.099999999999987
 30
0.0
 11
37.0
 21
40.099999999999987
 31
0.0
  0
LINE
  5
2191
  8
2
 10
39.5
 20
38.100000000000001
 30
0.0
 11
37.0
 21
38.100000000000001
 31
0.0
  0
LINE
  5
2192
  8
2
 10
39.5
 20
39.100000000000001
 30
0.0
 11
37.0
 21
39.100000000000001
 31
0.0
  0
LINE
  5
2193
  8
2
 10
39.5
 20
40.099999999999987
 30
0.0
 11
39.5
 21
38.100000000000001
 31
0.0
  0
LINE
  5
2194
  8
0
 10
52.300000000000011
 20
37.850000000000001
 30
0.0
 11
53.300000000000011
 21
37.850000000000001
 31
0.0
  0
LINE
  5
2195
  8
0
 10
53.300000000000011
 20
40.349999999999987
 30
0.0
 11
52.300000000000011
 21
40.349999999999987
 31
0.0
  0
LINE
  5
2199
  8
0
 10
53.5
 20
40.149999999999991
 30
0.0
 11
53.5
 21
38.049999999999997
 31
0.0
  0
LINE
  5
219A
  8
0
 10
53.300000000000011
 20
40.349999999999987
 30
0.0
 11
53.300000000000011
 21
37.850000000000001
 31
0.0
  0
LINE
  5
219B
  8
0
 10
53.5
 20
40.149999999999991
 30
0.0
 11
53.300000000000011
 21
40.349999999999987
 31
0.0
  0
LINE
  5
219C
  8
0
 10
53.300000000000011
 20
37.850000000000001
 30
0.0
 11
53.5
 21
38.049999999999997
 31
0.0
  0
LINE
  5
21A0
  8
0
 10
52.300000000000011
 20
40.599999999999987
 30
0.0
 11
52.300000000000011
 21
37.600000000000001
 31
0.0
  0
LINE
  5
21A1
  8
0
 10
51.699999999999989
 20
37.600000000000001
 30
0.0
 11
52.300000000000011
 21
37.600000000000001
 31
0.0
  0
LINE
  5
21A2
  8
0
 10
52.300000000000011
 20
40.599999999999987
 30
0.0
 11
51.699999999999989
 21
40.599999999999987
 31
0.0
  0
LINE
  5
21A3
  8
0
 10
51.699999999999989
 20
40.599999999999987
 30
0.0
 11
51.699999999999989
 21
37.600000000000001
 31
0.0
  0
POLYLINE
  5
21A4
  8
0
 66
     1
 10
0.0
 20
0.0
 30
0.0
  0
VERTEX
  5
2C9C
  8
0
 10
51.629968153189232
 20
38.850000000000001
 30
0.0
  0
VERTEX
  5
2C9D
  8
0
 10
51.643473174550223
 20
38.957607028457232
 30
0.0
  0
VERTEX
  5
2C9E
  8
0
 10
51.64963549907884
 20
39.066383252438627
 30
0.0
  0
VERTEX
  5
2C9F
  8
0
 10
51.648092197854851
 20
39.176927409673162
 30
0.0
  0
VERTEX
  5
2CA0
  8
0
 10
51.638683387780652
 20
39.287642115720757
 30
0.0
  0
VERTEX
  5
2CA1
  8
0
 10
51.629968153189232
 20
39.350000000000001
 30
0.0
  0
SEQEND
  5
2CA2
  8
0
  0
LINE
  5
21A5
  8
0
 10
51.629968153189232
 20
38.850000000000001
 30
0.0
 11
43.5
 21
38.850000000000001
 31
0.0
  0
LINE
  5
21A6
  8
0
 10
51.629968153189232
 20
39.350000000000001
 30
0.0
 11
43.5
 21
39.350000000000001
 31
0.0
  0
LINE
  5
21A7
  8
0
 10
51.699999999999989
 20
40.599999999999987
 30
0.0
 11
51.199999999999989
 21
41.099999999999987
 31
0.0
  0
LINE
  5
21A8
  8
0
 10
51.199999999999989
 20
37.099999999999987
 30
0.0
 11
51.699999999999989
 21
37.600000000000001
 31
0.0
  0
LINE
  5
21A9
  8
0
 10
37.0
 20
40.599999999999987
 30
0.0
 11
37.0
 21
37.600000000000001
 31
0.0
  0
LINE
  5
21AA
  8
0
 10
37.0
 20
37.600000000000001
 30
0.0
 11
37.5
 21
37.099999999999987
 31
0.0
  0
LINE
  5
21AB
  8
0
 10
37.5
 20
41.099999999999987
 30
0.0
 11
37.0
 21
40.599999999999987
 31
0.0
  0
LINE
  5
21AC
  8
0
 10
43.5
 20
39.350000000000001
 30
0.0
 11
43.5
 21
38.850000000000001
 31
0.0
  0
LINE
  5
21AD
  8
0
 10
51.199999999999989
 20
38.850000000000001
 30
0.0
 11
51.199999999999989
 21
37.099999999999987
 31
0.0
  0
LINE
  5
21AE
  8
0
 10
37.5
 20
41.099999999999987
 30
0.0
 11
37.5
 21
37.099999999999987
 31
0.0
  0
LINE
  5
21AF
  8
0
 10
37.5
 20
37.099999999999987
 30
0.0
 11
51.199999999999989
 21
37.099999999999987
 31
0.0
  0
LINE
  5
21B0
  8
0
 10
51.199999999999989
 20
41.099999999999987
 30
0.0
 11
37.5
 21
41.099999999999987
 31
0.0
  0
LINE
  5
21B2
  8
0
 10
51.199999999999989
 20
41.099999999999987
 30
0.0
 11
51.199999999999989
 21
39.350000000000001
 31
0.0
  0
LINE
  5
21B3
  8
0
 10
45.199999999999982
 20
38.850000000000001
 30
0.0
 11
45.199999999999982
 21
39.350000000000001
 31
0.0
  0
LINE
  5
21B4
  8
0
 10
50.199999999999989
 20
38.850000000000001
 30
0.0
 11
50.199999999999989
 21
39.350000000000001
 31
0.0
  0
LINE
  5
21B5
  8
3
 10
37.070499999999981
 20
37.529499999999999
 30
0.0
 11
51.629500000000007
 21
37.529499999999999
 31
0.0
  0
LINE
  5
21B7
  8
3
 10
37.070499999999981
 20
40.67049999999999
 30
0.0
 11
51.629500000000007
 21
40.67049999999999
 31
0.0
  0
LINE
  5
21D5
  8
0
 10
20.0
 20
18.845299461620741
 30
0.0
 11
21.0
 21
19.42264973081037
 31
0.0
  0
LINE
  5
21D6
  8
0
 10
19.0
 20
19.42264973081037
 30
0.0
 11
20.0
 21
18.845299461620741
 31
0.0
  0
LINE
  5
21D7
  8
0
 10
21.0
 20
19.42264973081037
 30
0.0
 11
21.0
 21
20.577350269189619
 31
0.0
  0
LINE
  5
21D8
  8
0
 10
21.0
 20
20.577350269189619
 30
0.0
 11
20.0
 21
21.154700538379249
 31
0.0
  0
LINE
  5
21D9
  8
0
 10
20.0
 20
21.154700538379249
 30
0.0
 11
19.0
 21
20.577350269189619
 31
0.0
  0
LINE
  5
21DA
  8
0
 10
19.0
 20
20.577350269189619
 30
0.0
 11
19.0
 21
19.42264973081037
 31
0.0
  0
LINE
  5
21DC
  8
0
 10
20.25
 20
21.98431348329844
 30
0.0
 11
20.25
 21
22.100000000000001
 31
0.0
  0
LINE
  5
21DD
  8
0
 10
19.75
 20
22.100000000000001
 30
0.0
 11
20.25
 21
22.100000000000001
 31
0.0
  0
LINE
  5
21DE
  8
0
 10
19.750000000000028
 20
21.98431348329844
 30
0.0
 11
19.75
 21
22.100000000000001
 31
0.0
  0
LINE
  5
2283
  8
2
 10
39.5
 20
18.845299461620741
 30
0.0
 11
37.0
 21
18.845299461620741
 31
0.0
  0
LINE
  5
2284
  8
2
 10
39.5
 20
21.154700538379249
 30
0.0
 11
37.0
 21
21.154700538379249
 31
0.0
  0
LINE
  5
2289
  8
0
 10
50.199999999999989
 20
21.98431348329844
 30
0.0
 11
50.199999999999989
 21
22.100000000000001
 31
0.0
  0
LINE
  5
228A
  8
0
 10
50.199999999999989
 20
22.100000000000001
 30
0.0
 11
45.199999999999982
 21
22.100000000000001
 31
0.0
  0
LINE
  5
228B
  8
0
 10
45.199999999999982
 20
22.100000000000001
 30
0.0
 11
45.199999999999982
 21
21.98431348329844
 31
0.0
  0
LINE
  5
228D
  8
2
 10
39.5
 20
19.42264973081037
 30
0.0
 11
37.0
 21
19.42264973081037
 31
0.0
  0
LINE
  5
228E
  8
2
 10
39.5
 20
20.577350269189619
 30
0.0
 11
37.0
 21
20.577350269189619
 31
0.0
  0
LINE
  5
228F
  8
2
 10
39.5
 20
21.154700538379249
 30
0.0
 11
39.5
 21
18.845299461620741
 31
0.0
  0
LINE
  5
2292
  8
0
 10
52.300000000000011
 20
18.75
 30
0.0
 11
53.300000000000011
 21
18.75
 31
0.0
  0
LINE
  5
2293
  8
0
 10
53.300000000000011
 20
21.25
 30
0.0
 11
52.300000000000011
 21
21.25
 31
0.0
  0
LINE
  5
2298
  8
0
 10
53.5
 20
21.050000000000001
 30
0.0
 11
53.300000000000011
 21
21.25
 31
0.0
  0
LINE
  5
2299
  8
0
 10
53.300000000000011
 20
18.75
 30
0.0
 11
53.5
 21
18.949999999999989
 31
0.0
  0
LINE
  5
229A
  8
0
 10
53.5
 20
21.050000000000001
 30
0.0
 11
53.5
 21
18.949999999999989
 31
0.0
  0
LINE
  5
229B
  8
0
 10
53.300000000000011
 20
21.25
 30
0.0
 11
53.300000000000011
 21
18.75
 31
0.0
  0
LINE
  5
229C
  8
0
 10
51.699999999999989
 20
18.499999999999989
 30
0.0
 11
52.300000000000011
 21
18.499999999999989
 31
0.0
  0
LINE
  5
229D
  8
0
 10
52.300000000000011
 20
21.5
 30
0.0
 11
51.699999999999989
 21
21.5
 31
0.0
  0
LINE
  5
229E
  8
0
 10
52.300000000000011
 20
21.5
 30
0.0
 11
52.300000000000011
 21
18.499999999999989
 31
0.0
  0
LINE
  5
229F
  8
0
 10
51.199999999999989
 20
21.98431348329844
 30
0.0
 11
43.5
 21
21.98431348329844
 31
0.0
  0
LINE
  5
22A0
  8
0
 10
37.5
 20
18.0
 30
0.0
 11
51.199999999999989
 21
18.0
 31
0.0
  0
LINE
  5
22A1
  8
0
 10
43.5
 20
22.0
 30
0.0
 11
37.5
 21
22.0
 31
0.0
  0
LINE
  5
22A2
  8
0
 10
43.5
 20
22.0
 30
0.0
 11
43.5
 21
21.98431348329844
 31
0.0
  0
LINE
  5
22A3
  8
0
 10
37.0
 20
18.499999999999989
 30
0.0
 11
37.5
 21
18.0
 31
0.0
  0
LINE
  5
22A4
  8
0
 10
37.5
 20
22.0
 30
0.0
 11
37.0
 21
21.5
 31
0.0
  0
LINE
  5
22A5
  8
0
 10
37.5
 20
22.0
 30
0.0
 11
37.5
 21
18.0
 31
0.0
  0
LINE
  5
22A6
  8
0
 10
37.0
 20
21.5
 30
0.0
 11
37.0
 21
18.499999999999989
 31
0.0
  0
LINE
  5
22A7
  8
0
 10
51.629968153189232
 20
21.550000000000001
 30
0.0
 11
51.649999999988523
 21
21.550000000000001
 31
0.0
  0
LINE
  5
22A8
  8
0
 10
51.629968153189232
 20
21.550000000000001
 30
0.0
 11
51.199999999999989
 21
21.98431348329844
 31
0.0
  0
LINE
  5
22A9
  8
0
 10
51.199999999999989
 20
21.98431348329844
 30
0.0
 11
51.199999999999989
 21
18.0
 31
0.0
  0
LINE
  5
22AA
  8
0
 10
51.699999999999989
 20
21.5
 30
0.0
 11
51.649999999999949
 21
21.54999999999999
 31
0.0
  0
LINE
  5
22AB
  8
0
 10
51.199999999999989
 20
18.0
 30
0.0
 11
51.699999999999989
 21
18.499999999999989
 31
0.0
  0
LINE
  5
22AC
  8
0
 10
51.699999999999989
 20
21.5
 30
0.0
 11
51.699999999999989
 21
18.499999999999989
 31
0.0
  0
LINE
  5
22AD
  8
3
 10
37.07050000000001
 20
21.570499999999988
 30
0.0
 11
51.609673256808321
 21
21.570499999999988
 31
0.0
  0
LINE
  5
22B0
  8
3
 10
37.07050000000001
 20
18.429500000000001
 30
0.0
 11
51.629499999999979
 21
18.429500000000001
 31
0.0
  0
LINE
  5
234F
  8
0
 10
70.75
 20
21.550000000000001
 30
0.0
 11
70.75
 21
22.100000000000001
 31
0.0
  0
LINE
  5
2350
  8
0
 10
70.25
 20
22.100000000000001
 30
0.0
 11
70.75
 21
22.100000000000001
 31
0.0
  0
LINE
  5
2351
  8
0
 10
70.25
 20
21.550000000000001
 30
0.0
 11
70.25
 21
22.100000000000001
 31
0.0
  0
LINE
  5
2352
  8
0
 10
70.25
 20
21.550000000000001
 30
0.0
 11
70.75
 21
21.550000000000001
 31
0.0
  0
ARC
  5
2353
  8
0
 10
70.5
 20
20.0
 30
0.0
 40
2.0
 50
97.180755781458274
 51
82.819244218541726
  0
CIRCLE
  5
2355
  8
0
 10
70.5
 20
20.0
 30
0.0
 40
1.5
  0
CIRCLE
  5
2356
  8
0
 10
70.5
 20
20.0
 30
0.0
 40
1.25
  0
LINE
  5
2428
  8
2
 10
40.077350269189587
 20
39.099999999999959
 30
0.0
 11
39.5
 21
38.100000000000001
 31
0.0
  0
LINE
  5
2429
  8
2
 10
39.5
 20
40.099999999999987
 30
0.0
 11
40.077350269189623
 21
39.09999999999998
 31
0.0
  0
LINE
  5
274D
  8
2
 10
40.077350269189587
 20
19.999999999999972
 30
0.0
 11
39.5
 21
19.0
 31
0.0
  0
LINE
  5
274E
  8
2
 10
39.5
 20
21.0
 30
0.0
 11
40.077350269189623
 21
19.999999999999972
 31
0.0
  0
LINE
  5
2BDA
  8
1
 10
36.0
 20
20.0
 30
0.0
 11
54.5
 21
20.0
 31
0.0
  0
CIRCLE
  5
2BF5
  8
3
 10
20.0
 20
20.0
 30
0.0
 40
1.5704999999999989
  0
CIRCLE
  5
2BF6
  8
0
 10
20.0
 20
20.0
 30
0.0
 40
2.0
  0
LINE
  5
2BFA
  8
1
 10
20.0
 20
23.0
 30
0.0
 11
20.0
 21
17.0
 31
0.0
  0
LINE
  5
2BFB
  8
1
 10
23.0
 20
20.0
 30
0.0
 11
17.0
 21
20.0
 31
0.0
  0
CIRCLE
  5
2C02
  8
3
 10
70.5
 20
20.0
 30
0.0
 40
1.5704999999999989
  0
LINE
  5
2C0A
  8
1
 10
70.5
 20
23.0
 30
0.0
 11
70.5
 21
17.0
 31
0.0
  0
LINE
  5
2C0B
  8
1
 10
73.5
 20
20.0
 30
0.0
 11
67.5
 21
20.0
 31
0.0
  0
LINE
  5
2C14
  8
1
 10
54.5
 20
39.100000000000001
 30
0.0
 11
36.0
 21
39.100000000000001
 31
0.0
  0
ENDSEC
  0
EOF
