  0
SECTION
  2
HEADER
  9
$ACADVER
  1
AC1009
  9
$INSBASE
 10
0.0
 20
0.0
 30
0.0
  9
$EXTMIN
 10
0.0
 20
-2.960436562073669
 30
0.0
  9
$EXTMAX
 10
319.80401075035388
 20
220.77792765788851
 30
0.0
  9
$LIMMIN
 10
0.0
 20
0.0
  9
$LIMMAX
 10
375.0
 20
270.0
  9
$ORTHOMODE
 70
     1
  9
$REGENMODE
 70
     1
  9
$FILLMODE
 70
     1
  9
$QTEXTMODE
 70
     0
  9
$MIRRTEXT
 70
     0
  9
$DRAGMODE
 70
     2
  9
$LTSCALE
 40
10.0
  9
$OSMODE
 70
  3071
  9
$ATTMODE
 70
     1
  9
$TEXTSIZE
 40
6.000000000000048
  9
$TRACEWID
 40
0.05
  9
$TEXTSTYLE
  7
02000
  9
$CLAYER
  8
0
  9
$CELTYPE
  6
BYLAYER
  9
$CECOLOR
 62
   256
  9
$DIMSCALE
 40
1.0
  9
$DIMASZ
 40
3.0
  9
$DIMEXO
 40
2.0
  9
$DIMDLI
 40
10.0
  9
$DIMRND
 40
0.0
  9
$DIMDLE
 40
0.0
  9
$DIMEXE
 40
2.0
  9
$DIMTP
 40
0.0
  9
$DIMTM
 40
0.0
  9
$DIMTXT
 40
3.2000000000000002
  9
$DIMCEN
 40
0.09
  9
$DIMTSZ
 40
0.0
  9
$DIMTOL
 70
     0
  9
$DIMLIM
 70
     0
  9
$DIMTIH
 70
     0
  9
$DIMTOH
 70
     0
  9
$DIMSE1
 70
     0
  9
$DIMSE2
 70
     0
  9
$DIMTAD
 70
     1
  9
$DIMZIN
 70
     0
  9
$DIMBLK
  1

  9
$DIMASO
 70
     0
  9
$DIMSHO
 70
     0
  9
$DIMPOST
  1

  9
$DIMAPOST
  1

  9
$DIMALT
 70
     0
  9
$DIMALTD
 70
     2
  9
$DIMALTF
 40
25.399999999999999
  9
$DIMLFAC
 40
1.0
  9
$DIMTOFL
 70
     1
  9
$DIMTVP
 40
1.6000000000000001
  9
$DIMTIX
 70
     1
  9
$DIMSOXD
 70
     0
  9
$DIMSAH
 70
     0
  9
$DIMBLK1
  1

  9
$DIMBLK2
  1

  9
$DIMSTYLE
  2
STANDARD
  9
$DIMCLRD
 70
     0
  9
$DIMCLRE
 70
     0
  9
$DIMCLRT
 70
     0
  9
$DIMTFAC
 40
1.0
  9
$DIMGAP
 40
0.09
  9
$LUNITS
 70
     2
  9
$LUPREC
 70
     4
  9
$SKETCHINC
 40
0.1
  9
$FILLETRAD
 40
0.0
  9
$AUNITS
 70
     0
  9
$AUPREC
 70
     0
  9
$MENU
  1
E:\r13\win\SUPPORT\ACAD
  9
$ELEVATION
 40
0.0
  9
$PELEVATION
 40
0.0
  9
$THICKNESS
 40
0.0
  9
$LIMCHECK
 70
     0
  9
$BLIPMODE
 70
     0
  9
$CHAMFERA
 40
0.0
  9
$CHAMFERB
 40
0.0
  9
$SKPOLY
 70
     0
  9
$TDCREATE
 40
2449839.7792708329
  9
$TDUPDATE
 40
2456597.5787754632
  9
$TDINDWG
 40
0.000169919
  9
$TDUSRTIMER
 40
0.000169919
  9
$USRTIMER
 70
     1
  9
$ANGBASE
 50
0.0
  9
$ANGDIR
 70
     0
  9
$PDMODE
 70
     0
  9
$PDSIZE
 40
0.0
  9
$PLINEWID
 40
0.0
  9
$COORDS
 70
     1
  9
$SPLFRAME
 70
     0
  9
$SPLINETYPE
 70
     6
  9
$SPLINESEGS
 70
     8
  9
$ATTDIA
 70
     0
  9
$ATTREQ
 70
     1
  9
$HANDLING
 70
     1
  9
$HANDSEED
  5
23F
  9
$SURFTAB1
 70
     6
  9
$SURFTAB2
 70
     6
  9
$SURFTYPE
 70
     6
  9
$SURFU
 70
     6
  9
$SURFV
 70
     6
  9
$UCSNAME
  2

  9
$UCSORG
 10
0.0
 20
0.0
 30
0.0
  9
$UCSXDIR
 10
1.0
 20
0.0
 30
0.0
  9
$UCSYDIR
 10
0.0
 20
1.0
 30
0.0
  9
$PUCSNAME
  2

  9
$PUCSORG
 10
0.0
 20
0.0
 30
0.0
  9
$PUCSXDIR
 10
1.0
 20
0.0
 30
0.0
  9
$PUCSYDIR
 10
0.0
 20
1.0
 30
0.0
  9
$USERI1
 70
     0
  9
$USERI2
 70
     1
  9
$USERI3
 70
     0
  9
$USERI4
 70
     0
  9
$USERI5
 70
     0
  9
$USERR1
 40
0.0
  9
$USERR2
 40
0.0
  9
$USERR3
 40
0.0
  9
$USERR4
 40
0.0
  9
$USERR5
 40
0.0
  9
$WORLDVIEW
 70
     1
  9
$SHADEDGE
 70
     3
  9
$SHADEDIF
 70
    70
  9
$TILEMODE
 70
     1
  9
$MAXACTVP
 70
    16
  9
$PLIMCHECK
 70
     0
  9
$PEXTMIN
 10
1.0000000000000000E+020
 20
1.0000000000000000E+020
 30
1.0000000000000000E+020
  9
$PEXTMAX
 10
-1.0000000000000000E+020
 20
-1.0000000000000000E+020
 30
-1.0000000000000000E+020
  9
$PLIMMIN
 10
0.0
 20
0.0
  9
$PLIMMAX
 10
12.0
 20
9.0
  9
$UNITMODE
 70
     0
  9
$VISRETAIN
 70
     0
  9
$PLINEGEN
 70
     0
  9
$PSLTSCALE
 70
     0
  0
ENDSEC
  0
SECTION
  2
TABLES
  0
TABLE
  2
VPORT
 70
     1
  0
VPORT
  2
*ACTIVE
 70
     0
 10
0.0
 20
0.0
 11
1.0
 21
1.0
 12
187.49427839065231
 22
162.8616388594717
 13
0.0
 23
0.0
 14
10.0
 24
10.0
 15
10.0
 25
10.0
 16
0.0
 26
0.0
 36
1.0
 17
0.0
 27
0.0
 37
0.0
 40
334.81001162774987
 41
1.9089595375722539
 42
50.0
 43
0.0
 44
0.0
 50
0.0
 51
0.0
 71
     0
 72
   500
 73
     1
 74
     0
 75
     0
 76
     0
 77
     0
 78
     0
  0
ENDTAB
  0
TABLE
  2
LTYPE
 70
     3
  0
LTYPE
  2
CONTINUOUS
 70
     0
  3
Solid Line
 72
    65
 73
     0
 40
0.0
  0
LTYPE
  2
CENTER
 70
     0
  3
____ _ ____ _ ____ _ ____ _ ____ _ ____ _ ____
 72
    65
 73
     4
 40
2.0
 49
1.25
 49
-0.25
 49
0.25
 49
-0.25
  0
LTYPE
  2
PHANTOM2
 70
     0
  3
___ _ _ ___ _ _ ___ _ _ ___ _ _
 72
    65
 73
     6
 40
1.25
 49
0.625
 49
-0.125
 49
0.125
 49
-0.125
 49
0.125
 49
-0.125
  0
ENDTAB
  0
TABLE
  2
LAYER
 70
     3
  0
LAYER
  2
0
 70
     0
 62
     7
  6
CONTINUOUS
  0
LAYER
  2
1
 70
     0
 62
     1
  6
CENTER
  0
LAYER
  2
3
 70
     0
 62
     3
  6
CONTINUOUS
  0
ENDTAB
  0
TABLE
  2
STYLE
 70
     3
  0
STYLE
  2
STANDARD
 70
     0
 40
0.0
 41
1.0
 50
0.0
 71
     0
 42
4.000000000000048
  3
ROMANS
  4

  0
STYLE
  2
02000
 70
     0
 40
0.0
 41
1.0
 50
0.0
 71
     0
 42
6.000000000000048
  3
romans.shx
  4

  0
STYLE
  2
STANDARD1
 70
     0
 40
0.0
 41
1.0
 50
0.0
 71
     0
 42
3.0
  3
txt
  4

  0
ENDTAB
  0
TABLE
  2
VIEW
 70
     1
  0
VIEW
  2
ALL
 70
     0
 40
270.33333333333343
 10
221.26442577030821
 20
134.83333333333329
 41
0.0
 11
0.0
 21
0.0
 31
1.0
 12
0.0
 22
0.0
 32
0.0
 42
0.0
 43
0.0
 44
0.0
 50
0.0
 71
     0
  0
ENDTAB
  0
TABLE
  2
UCS
 70
     0
  0
ENDTAB
  0
TABLE
  2
APPID
 70
     3
  0
APPID
  2
ACAD
 70
     0
  0
APPID
  2
ACAD_MLEADERVER
 70
     0
  0
APPID
  2
ACAD_NAV_VCDISPLAY
 70
     0
  0
ENDTAB
  0
TABLE
  2
DIMSTYLE
 70
     1
  0
DIMSTYLE
  2
STANDARD
 70
     0
  3

  4

  5

  6

  7

 40
1.0
 41
0.18
 42
0.0625
 43
0.38
 44
0.18
 45
0.0
 46
0.0
 47
0.0
 48
0.0
140
0.18
141
0.09
142
0.0
143
25.399999999999999
144
1.0
145
0.0
146
1.0
147
0.09
 71
     0
 72
     0
 73
     1
 74
     1
 75
     0
 76
     0
 77
     0
 78
     0
170
     0
171
     2
172
     0
173
     0
174
     0
175
     0
176
     0
177
     0
178
     0
  0
ENDTAB
  0
ENDSEC
  0
SECTION
  2
BLOCKS
  0
BLOCK
  8
0
  2
$MODEL_SPACE
 70
     0
 10
0.0
 20
0.0
 30
0.0
  3
$MODEL_SPACE
  1

  0
ENDBLK
  5
E3
  8
0
  0
BLOCK
 67
     1
  8
0
  2
$PAPER_SPACE
 70
     0
 10
0.0
 20
0.0
 30
0.0
  3
$PAPER_SPACE
  1

  0
ENDBLK
  5
E1
 67
     1
  8
0
  0
ENDSEC
  0
SECTION
  2
ENTITIES
  0
LINE
  5
36
  8
0
 10
78.804010750366189
 20
133.49484166713989
 30
0.0
 11
78.804010750366189
 21
147.35124812769089
 31
0.0
  0
LINE
  5
37
  8
0
 10
78.804010750366189
 20
147.35124812769089
 30
0.0
 11
66.804010750366189
 21
154.27945135796639
 31
0.0
  0
LINE
  5
38
  8
0
 10
66.804010750366189
 20
154.27945135796639
 30
0.0
 11
54.804010750366189
 21
147.35124812769089
 31
0.0
  0
LINE
  5
39
  8
0
 10
54.804010750366189
 20
147.35124812769089
 30
0.0
 11
54.804010750366189
 21
133.49484166713989
 31
0.0
  0
LINE
  5
3A
  8
0
 10
54.804010750366189
 20
133.49484166713989
 30
0.0
 11
66.804010750366189
 21
126.5666384368643
 31
0.0
  0
LINE
  5
3B
  8
0
 10
66.804010750366189
 20
126.5666384368643
 30
0.0
 11
78.804010750366189
 21
133.49484166713989
 31
0.0
  0
CIRCLE
  5
3C
  8
0
 10
66.804010750366189
 20
140.42304489741539
 30
0.0
 40
11.5
  0
CIRCLE
  5
3D
  8
3
 10
66.804010750366189
 20
140.42304489741539
 30
0.0
 40
8.0
  0
CIRCLE
  5
3E
  8
0
 10
66.804010750366189
 20
140.42304489741539
 30
0.0
 40
6.9175000000000004
  0
ARC
  5
3F
  8
0
 10
221.58713238766191
 20
140.4230448974152
 30
0.0
 40
22.928203228139491
 50
342.41204622431422
 51
17.587953775685769
  0
ARC
  5
40
  8
0
 10
238.38136102008059
 20
150.81534974282869
 30
0.0
 40
6.1339745957208214
 50
325.61575252879578
 51
25.61575253013925
  0
LINE
  5
41
  8
0
 10
243.44353884597211
 20
154.27945135798819
 30
0.0
 11
244.8040107503663
 21
151.92304489730751
 31
0.0
  0
LINE
  5
42
  8
0
 10
126.1644826547605
 20
154.27945135798819
 30
0.0
 11
124.8040107503663
 21
151.92304489730751
 31
0.0
  0
ARC
  5
43
  8
0
 10
131.2266604806521
 20
150.81534974282869
 30
0.0
 40
6.1339745957208214
 50
154.3842474698607
 51
214.38424747120419
  0
ARC
  5
44
  8
0
 10
148.02088911307081
 20
140.4230448974152
 30
0.0
 40
22.928203228139491
 50
162.4120462243142
 51
197.58795377568569
  0
LINE
  5
45
  8
0
 10
243.44353884597211
 20
154.27945135796639
 30
0.0
 11
126.1644826547479
 21
154.27945135796639
 31
0.0
  0
LINE
  5
46
  8
0
 10
243.44353884597211
 20
147.35124812769061
 30
0.0
 11
126.1644826547605
 21
147.35124812769061
 31
0.0
  0
LINE
  5
47
  8
0
 10
243.44353884597211
 20
133.49484166713989
 30
0.0
 11
126.1644826547605
 21
133.49484166713989
 31
0.0
  0
LINE
  5
48
  8
0
 10
243.44353884597211
 20
126.5666384368641
 30
0.0
 11
126.1644826547479
 21
126.5666384368641
 31
0.0
  0
ARC
  5
49
  8
0
 10
131.2266604806521
 20
130.0307400520017
 30
0.0
 40
6.1339745957208214
 50
145.6157525287957
 51
205.61575253013919
  0
LINE
  5
4A
  8
0
 10
126.1644826547605
 20
126.5666384368422
 30
0.0
 11
124.8040107503663
 21
128.923044897523
 31
0.0
  0
LINE
  5
4B
  8
0
 10
243.44353884597211
 20
126.5666384368422
 30
0.0
 11
244.8040107503663
 21
128.923044897523
 31
0.0
  0
ARC
  5
4C
  8
0
 10
238.38136102008059
 20
130.0307400520017
 30
0.0
 40
6.1339745957208214
 50
334.38424746986072
 51
34.384247471204233
  0
LINE
  5
4D
  8
0
 10
244.8040107503663
 20
151.9230448974152
 30
0.0
 11
244.8040107503663
 21
128.923044897523
 31
0.0
  0
LINE
  5
4E
  8
0
 10
124.8040107503663
 20
128.923044897523
 30
0.0
 11
124.8040107503663
 21
151.92304489730751
 31
0.0
  0
TEXT
  5
4F
  8
0
 10
232.66115360750919
 20
138.17304489741539
 30
0.0
 40
4.5
  1
L
 72
     4
 11
234.8040107503663
 21
140.42304489741539
 31
0.0
  0
LINE
  5
50
  8
1
 10
66.804010750366189
 20
121.5666384368643
 30
0.0
 11
66.804010750366203
 21
159.27945135796651
 31
0.0
  0
LINE
  5
51
  8
1
 10
49.804010750366189
 20
140.42304489741539
 30
0.0
 11
83.804010750366189
 21
140.42304489741539
 31
0.0
  0
LINE
  5
52
  8
1
 10
119.8040107503663
 20
140.4230448974152
 30
0.0
 11
249.80401075036639
 21
140.4230448974152
 31
0.0
  0
ARC
  5
5C
  8
0
 10
227.1852085984483
 20
202.77792765787351
 30
0.0
 40
17.330127017333279
 50
339.74384199764489
 51
20.256158002355011
  0
LINE
  5
5D
  8
0
 10
244.51533561578159
 20
196.7779276578585
 30
0.0
 11
244.804010750385
 21
197.27792765787351
 31
0.0
  0
LINE
  5
5E
  8
0
 10
125.0926858849507
 20
196.7779276578585
 30
0.0
 11
124.8040107503473
 21
197.27792765787351
 31
0.0
  0
ARC
  5
5F
  8
0
 10
142.42281290228411
 20
202.77792765787351
 30
0.0
 40
17.330127017333279
 50
159.74384199764501
 51
200.25615800235499
  0
LINE
  5
60
  8
0
 10
244.51533561578159
 20
196.7779276578585
 30
0.0
 11
125.0926858849421
 21
196.77792765787351
 31
0.0
  0
LINE
  5
61
  8
0
 10
126.16448265478
 20
208.77792765787351
 30
0.0
 11
243.44353884595239
 21
208.77792765787351
 31
0.0
  0
LINE
  5
62
  8
0
 10
244.51533561578159
 20
220.77792765788851
 30
0.0
 11
125.0926858849421
 21
220.77792765787351
 31
0.0
  0
ARC
  5
63
  8
0
 10
142.42281290228411
 20
214.77792765787351
 30
0.0
 40
17.330127017333279
 50
159.74384199764489
 51
200.25615800235491
  0
LINE
  5
64
  8
0
 10
125.0926858849507
 20
220.77792765788851
 30
0.0
 11
124.8040107503473
 21
220.27792765787351
 31
0.0
  0
LINE
  5
65
  8
0
 10
244.51533561578159
 20
220.77792765788851
 30
0.0
 11
244.804010750385
 21
220.27792765787351
 31
0.0
  0
ARC
  5
66
  8
0
 10
227.1852085984483
 20
214.77792765787351
 30
0.0
 40
17.330127017333279
 50
339.74384199764489
 51
20.256158002355011
  0
LINE
  5
67
  8
0
 10
244.80401075034661
 20
220.2779276579399
 30
0.0
 11
244.804010750385
 21
197.27792765787351
 31
0.0
  0
LINE
  5
68
  8
0
 10
124.8040107503473
 20
197.27792765787351
 30
0.0
 11
124.8040107503857
 21
220.2779276579399
 31
0.0
  0
LINE
  5
69
  8
1
 10
119.8040107503665
 20
208.77792765789829
 30
0.0
 11
249.80401075036579
 21
208.7779276581156
 31
0.0
  0
LINE
  5
6A
  8
1
 10
319.80401075035388
 20
140.42304489741539
 30
0.0
 11
285.80401075035388
 21
140.42304489741539
 31
0.0
  0
LINE
  5
6B
  8
1
 10
302.80401075035388
 20
121.5666384368643
 30
0.0
 11
302.80401075035388
 21
159.27945135796651
 31
0.0
  0
CIRCLE
  5
6C
  8
0
 10
302.80401075035388
 20
140.42304489741539
 30
0.0
 40
6.9175000000000004
  0
CIRCLE
  5
6D
  8
3
 10
302.80401075035388
 20
140.42304489741539
 30
0.0
 40
8.0
  0
CIRCLE
  5
6E
  8
0
 10
302.80401075035388
 20
140.42304489741539
 30
0.0
 40
11.5
  0
LINE
  5
6F
  8
0
 10
302.80401075035388
 20
126.5666384368643
 30
0.0
 11
290.80401075035388
 21
133.49484166713989
 31
0.0
  0
LINE
  5
70
  8
0
 10
314.80401075035388
 20
133.49484166713989
 30
0.0
 11
302.80401075035388
 21
126.5666384368643
 31
0.0
  0
LINE
  5
71
  8
0
 10
314.80401075035388
 20
147.35124812769089
 30
0.0
 11
314.80401075035388
 21
133.49484166713989
 31
0.0
  0
LINE
  5
72
  8
0
 10
302.80401075035388
 20
154.27945135796639
 30
0.0
 11
314.80401075035388
 21
147.35124812769089
 31
0.0
  0
LINE
  5
73
  8
0
 10
290.80401075035388
 20
147.35124812769089
 30
0.0
 11
302.80401075035388
 21
154.27945135796639
 31
0.0
  0
LINE
  5
74
  8
0
 10
290.80401075035388
 20
133.49484166713989
 30
0.0
 11
290.80401075035388
 21
147.35124812769089
 31
0.0
  0
LINE
  5
75
  8
1
 10
119.8040107503665
 20
72.0681621369325
 30
0.0
 11
249.80401075036579
 21
72.068162136715301
 31
0.0
  0
LINE
  5
76
  8
0
 10
124.8040107503473
 20
83.568162136957355
 30
0.0
 11
124.8040107503857
 21
60.568162136890948
 31
0.0
  0
LINE
  5
77
  8
0
 10
244.80401075034661
 20
60.568162136890948
 30
0.0
 11
244.804010750385
 21
83.568162136957355
 31
0.0
  0
ARC
  5
78
  8
0
 10
227.1852085984483
 20
66.068162136957341
 30
0.0
 40
17.330127017333279
 50
339.74384199764489
 51
20.256158002355019
  0
LINE
  5
79
  8
0
 10
244.51533561578159
 20
60.068162136942327
 30
0.0
 11
244.804010750385
 21
60.568162136957341
 31
0.0
  0
LINE
  5
7A
  8
0
 10
125.0926858849507
 20
60.068162136942327
 30
0.0
 11
124.8040107503473
 21
60.568162136957341
 31
0.0
  0
ARC
  5
7B
  8
0
 10
142.42281290228411
 20
66.068162136957341
 30
0.0
 40
17.330127017333279
 50
159.74384199764509
 51
200.25615800235511
  0
LINE
  5
7C
  8
0
 10
244.51533561578159
 20
60.068162136942327
 30
0.0
 11
125.0926858849421
 21
60.068162136957341
 31
0.0
  0
LINE
  5
7D
  8
0
 10
126.16448265478
 20
72.068162136957341
 30
0.0
 11
243.44353884595239
 21
72.068162136957341
 31
0.0
  0
LINE
  5
7E
  8
0
 10
244.51533561578159
 20
84.068162136972347
 30
0.0
 11
125.0926858849421
 21
84.068162136957341
 31
0.0
  0
ARC
  5
7F
  8
0
 10
142.42281290228411
 20
78.068162136957341
 30
0.0
 40
17.330127017333279
 50
159.74384199764501
 51
200.25615800235491
  0
LINE
  5
80
  8
0
 10
125.0926858849507
 20
84.068162136972347
 30
0.0
 11
124.8040107503473
 21
83.568162136957355
 31
0.0
  0
LINE
  5
81
  8
0
 10
244.51533561578159
 20
84.068162136972347
 30
0.0
 11
244.804010750385
 21
83.568162136957355
 31
0.0
  0
ARC
  5
82
  8
0
 10
227.1852085984483
 20
78.068162136957341
 30
0.0
 40
17.330127017333279
 50
339.74384199764489
 51
20.256158002355019
  0
TEXT
  5
1AF
  8
0
 62
     3
 10
0.0
 20
0.0
 30
0.0
 40
10.0
  1
LHN1-80
  7
STANDARD1
  0
ENDSEC
  0
EOF
