  0
SECTION
  2
HEADER
  9
$ACADVER
  1
AC1009
  9
$INSBASE
 10
0.0
 20
0.0
 30
0.0
  9
$EXTMIN
 10
0.0
 20
-2.960436562073669
 30
0.0
  9
$EXTMAX
 10
306.83459788114732
 20
215.56324940047941
 30
0.0
  9
$LIMMIN
 10
0.0
 20
0.0
  9
$LIMMAX
 10
375.0
 20
270.0
  9
$ORTHOMODE
 70
     1
  9
$REGENMODE
 70
     1
  9
$FILLMODE
 70
     1
  9
$QTEXTMODE
 70
     0
  9
$MIRRTEXT
 70
     0
  9
$DRAGMODE
 70
     2
  9
$LTSCALE
 40
10.0
  9
$OSMODE
 70
  3071
  9
$ATTMODE
 70
     1
  9
$TEXTSIZE
 40
6.000000000000048
  9
$TRACEWID
 40
0.05
  9
$TEXTSTYLE
  7
02000
  9
$CLAYER
  8
0
  9
$CELTYPE
  6
BYLAYER
  9
$CECOLOR
 62
   256
  9
$DIMSCALE
 40
1.0
  9
$DIMASZ
 40
3.0
  9
$DIMEXO
 40
2.0
  9
$DIMDLI
 40
10.0
  9
$DIMRND
 40
0.0
  9
$DIMDLE
 40
0.0
  9
$DIMEXE
 40
2.0
  9
$DIMTP
 40
0.0
  9
$DIMTM
 40
0.0
  9
$DIMTXT
 40
3.2000000000000002
  9
$DIMCEN
 40
0.09
  9
$DIMTSZ
 40
0.0
  9
$DIMTOL
 70
     0
  9
$DIMLIM
 70
     0
  9
$DIMTIH
 70
     0
  9
$DIMTOH
 70
     0
  9
$DIMSE1
 70
     0
  9
$DIMSE2
 70
     0
  9
$DIMTAD
 70
     1
  9
$DIMZIN
 70
     0
  9
$DIMBLK
  1

  9
$DIMASO
 70
     0
  9
$DIMSHO
 70
     0
  9
$DIMPOST
  1

  9
$DIMAPOST
  1

  9
$DIMALT
 70
     0
  9
$DIMALTD
 70
     2
  9
$DIMALTF
 40
25.399999999999999
  9
$DIMLFAC
 40
1.0
  9
$DIMTOFL
 70
     1
  9
$DIMTVP
 40
1.6000000000000001
  9
$DIMTIX
 70
     1
  9
$DIMSOXD
 70
     0
  9
$DIMSAH
 70
     0
  9
$DIMBLK1
  1

  9
$DIMBLK2
  1

  9
$DIMSTYLE
  2
STANDARD
  9
$DIMCLRD
 70
     0
  9
$DIMCLRE
 70
     0
  9
$DIMCLRT
 70
     0
  9
$DIMTFAC
 40
1.0
  9
$DIMGAP
 40
0.09
  9
$LUNITS
 70
     2
  9
$LUPREC
 70
     4
  9
$SKETCHINC
 40
0.1
  9
$FILLETRAD
 40
0.0
  9
$AUNITS
 70
     0
  9
$AUPREC
 70
     0
  9
$MENU
  1
E:\r13\win\SUPPORT\ACAD
  9
$ELEVATION
 40
0.0
  9
$PELEVATION
 40
0.0
  9
$THICKNESS
 40
0.0
  9
$LIMCHECK
 70
     0
  9
$BLIPMODE
 70
     0
  9
$CHAMFERA
 40
0.0
  9
$CHAMFERB
 40
0.0
  9
$SKPOLY
 70
     0
  9
$TDCREATE
 40
2449839.7792476849
  9
$TDUPDATE
 40
2456597.5787685532
  9
$TDINDWG
 40
0.0002589931
  9
$TDUSRTIMER
 40
0.0002589931
  9
$USRTIMER
 70
     1
  9
$ANGBASE
 50
0.0
  9
$ANGDIR
 70
     0
  9
$PDMODE
 70
     0
  9
$PDSIZE
 40
0.0
  9
$PLINEWID
 40
0.0
  9
$COORDS
 70
     1
  9
$SPLFRAME
 70
     0
  9
$SPLINETYPE
 70
     6
  9
$SPLINESEGS
 70
     8
  9
$ATTDIA
 70
     0
  9
$ATTREQ
 70
     1
  9
$HANDLING
 70
     1
  9
$HANDSEED
  5
23F
  9
$SURFTAB1
 70
     6
  9
$SURFTAB2
 70
     6
  9
$SURFTYPE
 70
     6
  9
$SURFU
 70
     6
  9
$SURFV
 70
     6
  9
$UCSNAME
  2

  9
$UCSORG
 10
0.0
 20
0.0
 30
0.0
  9
$UCSXDIR
 10
1.0
 20
0.0
 30
0.0
  9
$UCSYDIR
 10
0.0
 20
1.0
 30
0.0
  9
$PUCSNAME
  2

  9
$PUCSORG
 10
0.0
 20
0.0
 30
0.0
  9
$PUCSXDIR
 10
1.0
 20
0.0
 30
0.0
  9
$PUCSYDIR
 10
0.0
 20
1.0
 30
0.0
  9
$USERI1
 70
     0
  9
$USERI2
 70
     1
  9
$USERI3
 70
     0
  9
$USERI4
 70
     0
  9
$USERI5
 70
     0
  9
$USERR1
 40
0.0
  9
$USERR2
 40
0.0
  9
$USERR3
 40
0.0
  9
$USERR4
 40
0.0
  9
$USERR5
 40
0.0
  9
$WORLDVIEW
 70
     1
  9
$SHADEDGE
 70
     3
  9
$SHADEDIF
 70
    70
  9
$TILEMODE
 70
     1
  9
$MAXACTVP
 70
    16
  9
$PLIMCHECK
 70
     0
  9
$PEXTMIN
 10
1.0000000000000000E+020
 20
1.0000000000000000E+020
 30
1.0000000000000000E+020
  9
$PEXTMAX
 10
-1.0000000000000000E+020
 20
-1.0000000000000000E+020
 30
-1.0000000000000000E+020
  9
$PLIMMIN
 10
0.0
 20
0.0
  9
$PLIMMAX
 10
12.0
 20
9.0
  9
$UNITMODE
 70
     0
  9
$VISRETAIN
 70
     0
  9
$PLINEGEN
 70
     0
  9
$PSLTSCALE
 70
     0
  0
ENDSEC
  0
SECTION
  2
TABLES
  0
TABLE
  2
VPORT
 70
     1
  0
VPORT
  2
*ACTIVE
 70
     0
 10
0.0
 20
0.0
 11
1.0
 21
1.0
 12
187.49427839065231
 22
162.8616388594717
 13
0.0
 23
0.0
 14
10.0
 24
10.0
 15
10.0
 25
10.0
 16
0.0
 26
0.0
 36
1.0
 17
0.0
 27
0.0
 37
0.0
 40
334.81001162774987
 41
1.9089595375722539
 42
50.0
 43
0.0
 44
0.0
 50
0.0
 51
0.0
 71
     0
 72
   500
 73
     1
 74
     0
 75
     0
 76
     0
 77
     0
 78
     0
  0
ENDTAB
  0
TABLE
  2
LTYPE
 70
     3
  0
LTYPE
  2
CONTINUOUS
 70
     0
  3
Solid Line
 72
    65
 73
     0
 40
0.0
  0
LTYPE
  2
CENTER
 70
     0
  3
____ _ ____ _ ____ _ ____ _ ____ _ ____ _ ____
 72
    65
 73
     4
 40
2.0
 49
1.25
 49
-0.25
 49
0.25
 49
-0.25
  0
LTYPE
  2
PHANTOM2
 70
     0
  3
___ _ _ ___ _ _ ___ _ _ ___ _ _
 72
    65
 73
     6
 40
1.25
 49
0.625
 49
-0.125
 49
0.125
 49
-0.125
 49
0.125
 49
-0.125
  0
ENDTAB
  0
TABLE
  2
LAYER
 70
     3
  0
LAYER
  2
0
 70
     0
 62
     7
  6
CONTINUOUS
  0
LAYER
  2
1
 70
     0
 62
     1
  6
CENTER
  0
LAYER
  2
3
 70
     0
 62
     3
  6
CONTINUOUS
  0
ENDTAB
  0
TABLE
  2
STYLE
 70
     3
  0
STYLE
  2
STANDARD
 70
     0
 40
0.0
 41
1.0
 50
0.0
 71
     0
 42
4.000000000000048
  3
ROMANS
  4

  0
STYLE
  2
02000
 70
     0
 40
0.0
 41
1.0
 50
0.0
 71
     0
 42
6.000000000000048
  3
romans.shx
  4

  0
STYLE
  2
STANDARD1
 70
     0
 40
0.0
 41
1.0
 50
0.0
 71
     0
 42
3.0
  3
txt
  4

  0
ENDTAB
  0
TABLE
  2
VIEW
 70
     1
  0
VIEW
  2
ALL
 70
     0
 40
270.33333333333343
 10
221.26442577030821
 20
134.83333333333329
 41
0.0
 11
0.0
 21
0.0
 31
1.0
 12
0.0
 22
0.0
 32
0.0
 42
0.0
 43
0.0
 44
0.0
 50
0.0
 71
     0
  0
ENDTAB
  0
TABLE
  2
UCS
 70
     0
  0
ENDTAB
  0
TABLE
  2
APPID
 70
     3
  0
APPID
  2
ACAD
 70
     0
  0
APPID
  2
ACAD_MLEADERVER
 70
     0
  0
APPID
  2
ACAD_NAV_VCDISPLAY
 70
     0
  0
ENDTAB
  0
TABLE
  2
DIMSTYLE
 70
     1
  0
DIMSTYLE
  2
STANDARD
 70
     0
  3

  4

  5

  6

  7

 40
1.0
 41
0.18
 42
0.0625
 43
0.38
 44
0.18
 45
0.0
 46
0.0
 47
0.0
 48
0.0
140
0.18
141
0.09
142
0.0
143
25.399999999999999
144
1.0
145
0.0
146
1.0
147
0.09
 71
     0
 72
     0
 73
     1
 74
     1
 75
     0
 76
     0
 77
     0
 78
     0
170
     0
171
     2
172
     0
173
     0
174
     0
175
     0
176
     0
177
     0
178
     0
  0
ENDTAB
  0
ENDSEC
  0
SECTION
  2
BLOCKS
  0
BLOCK
  8
0
  2
$MODEL_SPACE
 70
     0
 10
0.0
 20
0.0
 30
0.0
  3
$MODEL_SPACE
  1

  0
ENDBLK
  5
E3
  8
0
  0
BLOCK
 67
     1
  8
0
  2
$PAPER_SPACE
 70
     0
 10
0.0
 20
0.0
 30
0.0
  3
$PAPER_SPACE
  1

  0
ENDBLK
  5
E1
 67
     1
  8
0
  0
ENDSEC
  0
SECTION
  2
ENTITIES
  0
LINE
  5
36
  8
0
 10
78.136614677611277
 20
139.11442388024301
 30
0.0
 11
78.136614677611277
 21
128.14476876564029
 31
0.0
  0
CIRCLE
  5
37
  8
0
 10
87.636614677611277
 20
133.62959632294161
 30
0.0
 40
9.0
  0
CIRCLE
  5
38
  8
3
 10
87.636614677611277
 20
133.62959632294161
 30
0.0
 40
6.0
  0
CIRCLE
  5
39
  8
0
 10
87.636614677611277
 20
133.62959632294161
 30
0.0
 40
5.052999999999999
  0
LINE
  5
3A
  8
0
 10
78.136614677611277
 20
128.14476876564029
 30
0.0
 11
87.636614677611277
 21
122.65994120833879
 31
0.0
  0
LINE
  5
3B
  8
0
 10
87.636614677611277
 20
122.65994120833879
 30
0.0
 11
97.136614677611277
 21
128.14476876564009
 31
0.0
  0
LINE
  5
3C
  8
0
 10
97.136614677611277
 20
128.14476876564009
 30
0.0
 11
97.136614677611277
 21
139.1144238802429
 31
0.0
  0
LINE
  5
3D
  8
0
 10
97.136614677611277
 20
139.1144238802429
 30
0.0
 11
87.636614677611277
 21
144.5992514375445
 31
0.0
  0
LINE
  5
3E
  8
0
 10
87.636614677611277
 20
144.5992514375445
 30
0.0
 11
78.136614677611277
 21
139.11442388024301
 31
0.0
  0
LINE
  5
3F
  8
0
 10
233.84842536875351
 20
144.59925143754401
 30
0.0
 11
234.98560627937931
 21
142.6295963229424
 31
0.0
  0
ARC
  5
40
  8
0
 10
229.840867922776
 20
141.8568376588934
 30
0.0
 40
4.8560632220084576
 50
325.61575253199288
 51
25.615752531916399
  0
ARC
  5
41
  8
0
 10
216.54543692079901
 20
133.62959632294101
 30
0.0
 40
18.15149422398537
 50
342.41204622602379
 51
17.58795377397621
  0
ARC
  5
42
  8
0
 10
229.840867922776
 20
125.4023549869886
 30
0.0
 40
4.8560632220084576
 50
334.38424746808357
 51
34.384247468007132
  0
LINE
  5
43
  8
0
 10
233.84842536875351
 20
122.659941208338
 30
0.0
 11
234.98560627937931
 21
124.62959632293961
 31
0.0
  0
LINE
  5
44
  8
0
 10
234.98560627937931
 20
142.6295963229424
 30
0.0
 11
234.98560627937931
 21
124.62959632293961
 31
0.0
  0
LINE
  5
45
  8
0
 10
144.98560627937931
 20
142.6295963229424
 30
0.0
 11
144.98560627937931
 21
124.62959632293961
 31
0.0
  0
LINE
  5
46
  8
0
 10
146.12278719000511
 20
122.659941208338
 30
0.0
 11
144.98560627937931
 21
124.62959632293961
 31
0.0
  0
ARC
  5
47
  8
0
 10
150.1303446359826
 20
125.4023549869886
 30
0.0
 40
4.8560632220084576
 50
145.61575253199271
 51
205.6157525319164
  0
ARC
  5
48
  8
0
 10
163.42577563795959
 20
133.62959632294101
 30
0.0
 40
18.15149422398537
 50
162.41204622602379
 51
197.58795377397621
  0
ARC
  5
49
  8
0
 10
150.1303446359826
 20
141.8568376588934
 30
0.0
 40
4.8560632220084576
 50
154.38424746808349
 51
214.3842474680072
  0
LINE
  5
4A
  8
0
 10
146.12278719000511
 20
144.59925143754401
 30
0.0
 11
144.98560627937931
 21
142.6295963229424
 31
0.0
  0
LINE
  5
4B
  8
0
 10
233.84842536875351
 20
144.59925143754401
 30
0.0
 11
146.122787190005
 21
144.59925143754401
 31
0.0
  0
LINE
  5
4C
  8
0
 10
233.84842536875351
 20
139.11442388023821
 30
0.0
 11
146.1227871900048
 21
139.1144238802423
 31
0.0
  0
LINE
  5
4D
  8
0
 10
233.84842536875351
 20
122.659941208338
 30
0.0
 11
146.122787190005
 21
122.659941208338
 31
0.0
  0
LINE
  5
4E
  8
0
 10
233.84842536875351
 20
128.14476876564379
 30
0.0
 11
146.1227871900048
 21
128.1447687656397
 31
0.0
  0
TEXT
  5
4F
  8
0
 10
222.8427491365222
 20
131.37959632294161
 30
0.0
 40
4.5
  1
L
 72
     4
 11
224.98560627937931
 21
133.62959632294161
 31
0.0
  0
LINE
  5
50
  8
1
 10
87.636614677611277
 20
149.5992514375445
 30
0.0
 11
87.636614677611234
 21
117.65994120833879
 31
0.0
  0
LINE
  5
51
  8
1
 10
73.136614677611277
 20
133.62959632294169
 30
0.0
 11
102.13661467761131
 21
133.62959632294169
 31
0.0
  0
LINE
  5
52
  8
1
 10
139.98560627937931
 20
133.62959632294101
 30
0.0
 11
239.98560627937931
 21
133.62959632294101
 31
0.0
  0
LINE
  5
5C
  8
0
 10
234.6969311447844
 20
196.56324940047929
 30
0.0
 11
234.98560627937931
 21
197.06324940047941
 31
0.0
  0
ARC
  5
5D
  8
0
 10
220.97724725479131
 20
201.31324940047941
 30
0.0
 40
13.719683889993171
 50
339.74384199960411
 51
20.256158000396152
  0
LINE
  5
5E
  8
0
 10
144.9856062793794
 20
197.06324940047941
 30
0.0
 11
145.34607818369949
 21
196.56324940047929
 31
0.0
  0
LINE
  5
5F
  8
0
 10
145.34607818369949
 20
196.56324940047929
 30
0.0
 11
234.6969311447844
 21
196.56324940047929
 31
0.0
  0
ARC
  5
60
  8
0
 10
158.9939653039674
 20
201.31324940047941
 30
0.0
 40
13.719683889993171
 50
159.7438419996038
 51
200.256158000396
  0
ARC
  5
61
  8
0
 10
158.9939653039674
 20
210.81324940047941
 30
0.0
 40
13.719683889993171
 50
159.743841999604
 51
200.25615800039611
  0
LINE
  5
62
  8
0
 10
145.34607818369949
 20
215.56324940047941
 30
0.0
 11
234.6969311447844
 21
215.56324940047941
 31
0.0
  0
LINE
  5
63
  8
0
 10
144.9856062793794
 20
215.06324940047941
 30
0.0
 11
145.34607818369949
 21
215.56324940047941
 31
0.0
  0
ARC
  5
64
  8
0
 10
220.97724725479131
 20
210.81324940047941
 30
0.0
 40
13.719683889993171
 50
339.74384199960389
 51
20.256158000395939
  0
LINE
  5
65
  8
0
 10
234.6969311447844
 20
215.56324940047941
 30
0.0
 11
234.98560627937931
 21
215.06324940047941
 31
0.0
  0
LINE
  5
66
  8
0
 10
234.98560627937931
 20
215.06324940047941
 30
0.0
 11
234.98560627937931
 21
197.06324940047941
 31
0.0
  0
LINE
  5
67
  8
0
 10
144.9856062793794
 20
197.06324940047941
 30
0.0
 11
144.9856062793794
 21
215.06324940047941
 31
0.0
  0
LINE
  5
68
  8
0
 10
233.84842536875351
 20
206.0632494004825
 30
0.0
 11
146.1227871900052
 21
206.06324940047941
 31
0.0
  0
LINE
  5
69
  8
1
 10
139.9856062793794
 20
206.06324940047941
 30
0.0
 11
239.98560627937931
 21
206.06324940047941
 31
0.0
  0
LINE
  5
6A
  8
1
 10
306.83459788114732
 20
133.62959632294169
 30
0.0
 11
277.83459788114732
 21
133.62959632294169
 31
0.0
  0
LINE
  5
6B
  8
1
 10
292.33459788114732
 20
149.5992514375445
 30
0.0
 11
292.33459788114732
 21
117.65994120833879
 31
0.0
  0
LINE
  5
6C
  8
0
 10
292.33459788114732
 20
144.5992514375445
 30
0.0
 11
301.83459788114732
 21
139.11442388024301
 31
0.0
  0
LINE
  5
6D
  8
0
 10
282.83459788114732
 20
139.1144238802429
 30
0.0
 11
292.33459788114732
 21
144.5992514375445
 31
0.0
  0
LINE
  5
6E
  8
0
 10
282.83459788114732
 20
128.14476876564009
 30
0.0
 11
282.83459788114732
 21
139.1144238802429
 31
0.0
  0
LINE
  5
6F
  8
0
 10
292.33459788114732
 20
122.65994120833879
 30
0.0
 11
282.83459788114732
 21
128.14476876564009
 31
0.0
  0
LINE
  5
70
  8
0
 10
301.83459788114732
 20
128.14476876564029
 30
0.0
 11
292.33459788114732
 21
122.65994120833879
 31
0.0
  0
CIRCLE
  5
71
  8
0
 10
292.33459788114732
 20
133.62959632294161
 30
0.0
 40
5.052999999999999
  0
CIRCLE
  5
72
  8
3
 10
292.33459788114732
 20
133.62959632294161
 30
0.0
 40
6.0
  0
CIRCLE
  5
73
  8
0
 10
292.33459788114732
 20
133.62959632294161
 30
0.0
 40
9.0
  0
LINE
  5
74
  8
0
 10
301.83459788114732
 20
139.11442388024301
 30
0.0
 11
301.83459788114732
 21
128.14476876564029
 31
0.0
  0
LINE
  5
75
  8
1
 10
139.9856062793794
 20
61.195943245404003
 30
0.0
 11
239.98560627937931
 21
61.195943245404003
 31
0.0
  0
LINE
  5
76
  8
0
 10
233.84842536875351
 20
61.195943245400827
 30
0.0
 11
146.1227871900052
 21
61.195943245404003
 31
0.0
  0
LINE
  5
77
  8
0
 10
144.9856062793794
 20
70.19594324540401
 30
0.0
 11
144.9856062793794
 21
52.19594324540401
 31
0.0
  0
LINE
  5
78
  8
0
 10
234.98560627937931
 20
52.19594324540401
 30
0.0
 11
234.98560627937931
 21
70.19594324540401
 31
0.0
  0
LINE
  5
79
  8
0
 10
234.6969311447844
 20
51.69594324540401
 30
0.0
 11
234.98560627937931
 21
52.19594324540401
 31
0.0
  0
ARC
  5
7A
  8
0
 10
220.97724725479131
 20
56.44594324540401
 30
0.0
 40
13.719683889993171
 50
339.74384199960411
 51
20.256158000396159
  0
LINE
  5
7B
  8
0
 10
144.9856062793794
 20
52.19594324540401
 30
0.0
 11
145.34607818369949
 21
51.69594324540401
 31
0.0
  0
LINE
  5
7C
  8
0
 10
145.34607818369949
 20
51.69594324540401
 30
0.0
 11
234.6969311447844
 21
51.69594324540401
 31
0.0
  0
ARC
  5
7D
  8
0
 10
158.9939653039674
 20
56.44594324540401
 30
0.0
 40
13.719683889993171
 50
159.74384199960389
 51
200.256158000396
  0
ARC
  5
7E
  8
0
 10
158.9939653039674
 20
65.94594324540401
 30
0.0
 40
13.719683889993171
 50
159.743841999604
 51
200.25615800039611
  0
LINE
  5
7F
  8
0
 10
145.34607818369949
 20
70.69594324540401
 30
0.0
 11
234.6969311447844
 21
70.69594324540401
 31
0.0
  0
LINE
  5
80
  8
0
 10
144.9856062793794
 20
70.19594324540401
 30
0.0
 11
145.34607818369949
 21
70.69594324540401
 31
0.0
  0
ARC
  5
81
  8
0
 10
220.97724725479131
 20
65.94594324540401
 30
0.0
 40
13.719683889993171
 50
339.74384199960389
 51
20.256158000395949
  0
LINE
  5
82
  8
0
 10
234.6969311447844
 20
70.69594324540401
 30
0.0
 11
234.98560627937931
 21
70.19594324540401
 31
0.0
  0
TEXT
  5
1AF
  8
0
 62
     3
 10
0.0
 20
0.0
 30
0.0
 40
10.0
  1
LHN1-60
  7
STANDARD1
  0
ENDSEC
  0
EOF
