  0
SECTION
  2
HEADER
  9
$ACADVER
  1
AC1009
  9
$INSBASE
 10
0.0
 20
0.0
 30
0.0
  9
$EXTMIN
 10
0.0
 20
-2.960436562073669
 30
0.0
  9
$EXTMAX
 10
197.47016780359451
 20
129.74319639177821
 30
0.0
  9
$LIMMIN
 10
0.0
 20
0.0
  9
$LIMMAX
 10
187.5
 20
135.0
  9
$ORTHOMODE
 70
     0
  9
$REGENMODE
 70
     1
  9
$FILLMODE
 70
     1
  9
$QTEXTMODE
 70
     0
  9
$MIRRTEXT
 70
     0
  9
$DRAGMODE
 70
     2
  9
$LTSCALE
 40
5.0
  9
$OSMODE
 70
  3071
  9
$ATTMODE
 70
     1
  9
$TEXTSIZE
 40
1.6000000000000001
  9
$TRACEWID
 40
0.05
  9
$TEXTSTYLE
  7
STANDARD
  9
$CLAYER
  8
0
  9
$CELTYPE
  6
BYLAYER
  9
$CECOLOR
 62
   256
  9
$DIMSCALE
 40
0.5
  9
$DIMASZ
 40
3.0
  9
$DIMEXO
 40
2.0
  9
$DIMDLI
 40
10.0
  9
$DIMRND
 40
0.0
  9
$DIMDLE
 40
0.0
  9
$DIMEXE
 40
2.0
  9
$DIMTP
 40
0.0
  9
$DIMTM
 40
0.0
  9
$DIMTXT
 40
3.2000000000000002
  9
$DIMCEN
 40
0.09
  9
$DIMTSZ
 40
0.0
  9
$DIMTOL
 70
     0
  9
$DIMLIM
 70
     0
  9
$DIMTIH
 70
     0
  9
$DIMTOH
 70
     0
  9
$DIMSE1
 70
     0
  9
$DIMSE2
 70
     0
  9
$DIMTAD
 70
     1
  9
$DIMZIN
 70
     0
  9
$DIMBLK
  1

  9
$DIMASO
 70
     0
  9
$DIMSHO
 70
     0
  9
$DIMPOST
  1

  9
$DIMAPOST
  1

  9
$DIMALT
 70
     0
  9
$DIMALTD
 70
     2
  9
$DIMALTF
 40
25.399999999999999
  9
$DIMLFAC
 40
1.0
  9
$DIMTOFL
 70
     1
  9
$DIMTVP
 40
1.6000000000000001
  9
$DIMTIX
 70
     1
  9
$DIMSOXD
 70
     0
  9
$DIMSAH
 70
     0
  9
$DIMBLK1
  1

  9
$DIMBLK2
  1

  9
$DIMSTYLE
  2
STANDARD
  9
$DIMCLRD
 70
     0
  9
$DIMCLRE
 70
     0
  9
$DIMCLRT
 70
     0
  9
$DIMTFAC
 40
1.0
  9
$DIMGAP
 40
0.09
  9
$LUNITS
 70
     2
  9
$LUPREC
 70
     4
  9
$SKETCHINC
 40
0.1
  9
$FILLETRAD
 40
0.0
  9
$AUNITS
 70
     0
  9
$AUPREC
 70
     0
  9
$MENU
  1
E:\r13\win\SUPPORT\ACAD
  9
$ELEVATION
 40
0.0
  9
$PELEVATION
 40
0.0
  9
$THICKNESS
 40
0.0
  9
$LIMCHECK
 70
     0
  9
$BLIPMODE
 70
     0
  9
$CHAMFERA
 40
0.0
  9
$CHAMFERB
 40
0.0
  9
$SKPOLY
 70
     0
  9
$TDCREATE
 40
2449840.5945833339
  9
$TDUPDATE
 40
2456597.5723510878
  9
$TDINDWG
 40
0.0186180093
  9
$TDUSRTIMER
 40
0.0186180093
  9
$USRTIMER
 70
     1
  9
$ANGBASE
 50
0.0
  9
$ANGDIR
 70
     0
  9
$PDMODE
 70
     0
  9
$PDSIZE
 40
0.0
  9
$PLINEWID
 40
0.0
  9
$COORDS
 70
     1
  9
$SPLFRAME
 70
     0
  9
$SPLINETYPE
 70
     6
  9
$SPLINESEGS
 70
     8
  9
$ATTDIA
 70
     0
  9
$ATTREQ
 70
     1
  9
$HANDLING
 70
     1
  9
$HANDSEED
  5
A52
  9
$SURFTAB1
 70
     6
  9
$SURFTAB2
 70
     6
  9
$SURFTYPE
 70
     6
  9
$SURFU
 70
     6
  9
$SURFV
 70
     6
  9
$UCSNAME
  2

  9
$UCSORG
 10
0.0
 20
0.0
 30
0.0
  9
$UCSXDIR
 10
1.0
 20
0.0
 30
0.0
  9
$UCSYDIR
 10
0.0
 20
1.0
 30
0.0
  9
$PUCSNAME
  2

  9
$PUCSORG
 10
0.0
 20
0.0
 30
0.0
  9
$PUCSXDIR
 10
1.0
 20
0.0
 30
0.0
  9
$PUCSYDIR
 10
0.0
 20
1.0
 30
0.0
  9
$USERI1
 70
     0
  9
$USERI2
 70
     1
  9
$USERI3
 70
     0
  9
$USERI4
 70
     0
  9
$USERI5
 70
     0
  9
$USERR1
 40
0.0
  9
$USERR2
 40
0.0
  9
$USERR3
 40
0.0
  9
$USERR4
 40
0.0
  9
$USERR5
 40
0.0
  9
$WORLDVIEW
 70
     1
  9
$SHADEDGE
 70
     3
  9
$SHADEDIF
 70
    70
  9
$TILEMODE
 70
     1
  9
$MAXACTVP
 70
    16
  9
$PLIMCHECK
 70
     0
  9
$PEXTMIN
 10
1.0000000000000000E+020
 20
1.0000000000000000E+020
 30
1.0000000000000000E+020
  9
$PEXTMAX
 10
-1.0000000000000000E+020
 20
-1.0000000000000000E+020
 30
-1.0000000000000000E+020
  9
$PLIMMIN
 10
0.0
 20
0.0
  9
$PLIMMAX
 10
12.0
 20
9.0
  9
$UNITMODE
 70
     0
  9
$VISRETAIN
 70
     0
  9
$PLINEGEN
 70
     0
  9
$PSLTSCALE
 70
     0
  0
ENDSEC
  0
SECTION
  2
TABLES
  0
TABLE
  2
VPORT
 70
     1
  0
VPORT
  2
*ACTIVE
 70
     0
 10
0.0
 20
0.0
 11
1.0
 21
1.0
 12
98.735084361568326
 22
80.848703909439024
 13
0.0
 23
0.0
 14
5.0
 24
5.0
 15
5.0
 25
5.0
 16
0.0
 26
0.0
 36
1.0
 17
0.0
 27
0.0
 37
0.0
 40
169.22413112104309
 41
1.9089595375722539
 42
50.0
 43
0.0
 44
0.0
 50
0.0
 51
0.0
 71
     0
 72
   100
 73
     1
 74
     0
 75
     0
 76
     0
 77
     0
 78
     0
  0
ENDTAB
  0
TABLE
  2
LTYPE
 70
     4
  0
LTYPE
  2
CONTINUOUS
 70
     0
  3
Solid Line
 72
    65
 73
     0
 40
0.0
  0
LTYPE
  2
CENTER
 70
     0
  3
____ _ ____ _ ____ _ ____ _ ____ _ ____ _ ____
 72
    65
 73
     4
 40
2.0
 49
1.25
 49
-0.25
 49
0.25
 49
-0.25
  0
LTYPE
  2
HIDDEN
 70
     0
  3
_ _ _ _ _ _ _ _ _ _ _ _ _ _ _ _ _ _ _ _ _ _ _
 72
    65
 73
     2
 40
0.375
 49
0.25
 49
-0.125
  0
LTYPE
  2
PHANTOM2
 70
     0
  3
___ _ _ ___ _ _ ___ _ _ ___ _ _
 72
    65
 73
     6
 40
1.25
 49
0.625
 49
-0.125
 49
0.125
 49
-0.125
 49
0.125
 49
-0.125
  0
ENDTAB
  0
TABLE
  2
LAYER
 70
     4
  0
LAYER
  2
0
 70
     0
 62
     7
  6
CONTINUOUS
  0
LAYER
  2
1
 70
     0
 62
     1
  6
CENTER
  0
LAYER
  2
2
 70
     0
 62
     2
  6
HIDDEN
  0
LAYER
  2
3
 70
     0
 62
     3
  6
CONTINUOUS
  0
ENDTAB
  0
TABLE
  2
STYLE
 70
     3
  0
STYLE
  2
STANDARD
 70
     0
 40
0.0
 41
1.0
 50
0.0
 71
     0
 42
1.6000000000000001
  3
TXT
  4
BIGFONT
  0
STYLE
  2
SIM235
 70
     0
 40
0.0
 41
2.3500000000000001
 50
0.0
 71
     0
 42
1.5
  3
SIMPLEX
  4

  0
STYLE
  2
STANDARD1
 70
     0
 40
0.0
 41
1.0
 50
0.0
 71
     0
 42
3.0
  3
txt
  4

  0
ENDTAB
  0
TABLE
  2
VIEW
 70
     1
  0
VIEW
  2
ALL
 70
     0
 40
135.0
 10
110.49579799999999
 20
67.5
 41
0.0
 11
0.0
 21
0.0
 31
1.0
 12
0.0
 22
0.0
 32
0.0
 42
0.0
 43
0.0
 44
0.0
 50
0.0
 71
     0
  0
ENDTAB
  0
TABLE
  2
UCS
 70
     0
  0
ENDTAB
  0
TABLE
  2
APPID
 70
     3
  0
APPID
  2
ACAD
 70
     0
  0
APPID
  2
ACAD_MLEADERVER
 70
     0
  0
APPID
  2
ACAD_NAV_VCDISPLAY
 70
     0
  0
ENDTAB
  0
TABLE
  2
DIMSTYLE
 70
     1
  0
DIMSTYLE
  2
STANDARD
 70
     0
  3

  4

  5

  6

  7

 40
1.0
 41
0.18
 42
0.0625
 43
0.38
 44
0.18
 45
0.0
 46
0.0
 47
0.0
 48
0.0
140
0.18
141
0.09
142
0.0
143
25.399999999999999
144
1.0
145
0.0
146
1.0
147
0.09
 71
     0
 72
     0
 73
     1
 74
     1
 75
     0
 76
     0
 77
     0
 78
     0
170
     0
171
     2
172
     0
173
     0
174
     0
175
     0
176
     0
177
     0
178
     0
  0
ENDTAB
  0
ENDSEC
  0
SECTION
  2
BLOCKS
  0
BLOCK
  8
0
  2
$MODEL_SPACE
 70
     0
 10
0.0
 20
0.0
 30
0.0
  3
$MODEL_SPACE
  1

  0
ENDBLK
  5
113
  8
0
  0
BLOCK
 67
     1
  8
0
  2
$PAPER_SPACE
 70
     0
 10
0.0
 20
0.0
 30
0.0
  3
$PAPER_SPACE
  1

  0
ENDBLK
  5
111
 67
     1
  8
0
  0
BLOCK
  8
0
  2
*X0
 70
     1
 10
0.0
 20
0.0
 30
0.0
  3
*X0
  1

  0
LINE
  5
64C
  8
0
 62
     0
 10
221.0358157558191
 20
102.7
 30
0.0
 11
249.03558332203201
 21
102.7
 31
0.0
  0
LINE
  5
64D
  8
0
 62
     0
 10
221.0357654386026
 20
102.8
 30
0.0
 11
249.0356336392486
 21
102.8
 31
0.0
  0
LINE
  5
64E
  8
0
 62
     0
 10
221.03642942629889
 20
102.90000000000001
 30
0.0
 11
249.0349696515523
 21
102.90000000000001
 31
0.0
  0
LINE
  5
64F
  8
0
 62
     0
 10
221.03780782055659
 20
103.0
 30
0.0
 11
249.0335912572946
 21
103.0
 31
0.0
  0
LINE
  5
650
  8
0
 62
     0
 10
221.0399008324535
 20
103.09999999999999
 30
0.0
 11
249.0314982453977
 21
103.09999999999999
 31
0.0
  0
LINE
  5
651
  8
0
 62
     0
 10
221.04270878265791
 20
103.2
 30
0.0
 11
249.02869029519329
 21
103.2
 31
0.0
  0
LINE
  5
652
  8
0
 62
     0
 10
221.046232101675
 20
103.3
 30
0.0
 11
249.02516697617611
 21
103.3
 31
0.0
  0
LINE
  5
653
  8
0
 62
     0
 10
221.05047133017629
 20
103.40000000000001
 30
0.0
 11
249.02092774767499
 21
103.40000000000001
 31
0.0
  0
LINE
  5
654
  8
0
 62
     0
 10
221.05542711941629
 20
103.5
 30
0.0
 11
249.0159719584349
 21
103.5
 31
0.0
  0
LINE
  5
655
  8
0
 62
     0
 10
221.03658038565089
 20
102.59999999999999
 30
0.0
 11
249.0348186922003
 21
102.59999999999999
 31
0.0
  0
LINE
  5
656
  8
0
 62
     0
 10
221.0380594451569
 20
102.5
 30
0.0
 11
249.03333963269429
 21
102.5
 31
0.0
  0
LINE
  5
657
  8
0
 62
     0
 10
221.04025316084329
 20
102.40000000000001
 30
0.0
 11
249.0311459170079
 21
102.40000000000001
 31
0.0
  0
LINE
  5
658
  8
0
 62
     0
 10
221.04316186883611
 20
102.3
 30
0.0
 11
249.02823720901509
 21
102.3
 31
0.0
  0
LINE
  5
659
  8
0
 62
     0
 10
221.04678601513919
 20
102.2
 30
0.0
 11
249.02461306271201
 21
102.2
 31
0.0
  0
LINE
  5
65A
  8
0
 62
     0
 10
221.0511261559771
 20
102.09999999999999
 30
0.0
 11
249.0202729218741
 21
102.09999999999999
 31
0.0
  0
ENDBLK
  5
65B
  8
0
  0
ENDSEC
  0
SECTION
  2
ENTITIES
  0
ARC
  5
6B0
  8
0
 10
166.79141869589529
 20
84.934900310740275
 30
0.0
 40
1.420871971893648
 50
225.28289955964911
 51
289.00281472604672
  0
ARC
  5
6B1
  8
0
 10
159.26157299027039
 20
88.561082886105808
 30
0.0
 40
1.420871971893648
 50
199.5686138453635
 51
263.28852901176111
  0
ARC
  5
6B2
  8
0
 10
154.05075808391621
 20
95.095238105575206
 30
0.0
 40
1.420871971893648
 50
173.85432813107801
 51
237.57424329747539
  0
ARC
  5
6B3
  8
0
 10
152.19103977548701
 20
103.2431963917777
 30
0.0
 40
1.420871971893648
 50
148.14004241679211
 51
211.8599575831897
  0
ARC
  5
6B4
  8
0
 10
154.0507580839157
 20
111.3911546779803
 30
0.0
 40
1.420871971893648
 50
122.42575670250601
 51
186.145671868904
  0
ARC
  5
6B5
  8
0
 10
159.26157299026951
 20
117.92530989745001
 30
0.0
 40
1.420871971893648
 50
96.711470988220483
 51
160.43138615461831
  0
ARC
  5
6B6
  8
0
 10
166.79141869589429
 20
121.55149247281599
 30
0.0
 40
1.420871971893648
 50
70.997185273934889
 51
134.71710044033281
  0
ARC
  5
6B7
  8
0
 10
175.1489169112935
 20
121.55149247281619
 30
0.0
 40
1.420871971893648
 50
45.282899559649081
 51
109.00281472604669
  0
ARC
  5
6B8
  8
0
 10
182.67876261691839
 20
117.9253098974506
 30
0.0
 40
1.420871971893648
 50
19.568613845363469
 51
83.288529011761028
  0
ARC
  5
6B9
  8
0
 10
187.88957752327261
 20
111.39115467798121
 30
0.0
 40
1.420871971893648
 50
353.85432813107758
 51
57.574243297475462
  0
ARC
  5
6BA
  8
0
 10
189.7492958317018
 20
103.2431963917788
 30
0.0
 40
1.420871971893648
 50
328.14004241679208
 51
31.85995758318969
  0
ARC
  5
6BB
  8
0
 10
187.88957752327309
 20
95.095238105576144
 30
0.0
 40
1.420871971893648
 50
302.42575670250602
 51
6.145671868903996
  0
ARC
  5
6BC
  8
0
 10
182.6787626169193
 20
88.561082886106519
 30
0.0
 40
1.420871971893648
 50
276.71147098822053
 51
340.43138615461828
  0
ARC
  5
6BD
  8
0
 10
175.14891691129461
 20
84.934900310740517
 30
0.0
 40
1.420871971893648
 50
250.99718527393489
 51
314.71710044033279
  0
LINE
  5
6BE
  8
0
 10
166.47016780359451
 20
118.2431963917782
 30
0.0
 11
166.47016780359451
 21
119.63679270253429
 31
0.0
  0
LINE
  5
6BF
  8
0
 10
175.47016780359451
 20
118.2431963917782
 30
0.0
 11
175.47016780359451
 21
119.63679270253429
 31
0.0
  0
ARC
  5
6C0
  8
0
 10
170.97016780359439
 20
103.2431963917782
 30
0.0
 40
15.28984238678146
 50
211.54870564202221
 51
328.45129435797787
  0
ARC
  5
6C1
  8
0
 10
170.97016780359439
 20
103.2431963917782
 30
0.0
 40
15.0
 50
212.23095263550201
 51
327.76904736449802
  0
LINE
  5
6C2
  8
0
 10
185.97016780359439
 20
95.243196391778255
 30
0.0
 11
155.97016780359439
 21
95.243196391778255
 31
0.0
  0
ARC
  5
6C3
  8
0
 10
170.97016780359451
 20
118.2431963917782
 30
0.0
 40
4.5
 50
180.0
 51
0.0
  0
CIRCLE
  5
6C4
  8
0
 10
170.97016780359439
 20
103.2431963917782
 30
0.0
 40
21.49999999999989
  0
CIRCLE
  5
6C5
  8
0
 10
170.97016780359439
 20
103.2431963917782
 30
0.0
 40
16.99999999999994
  0
ARC
  5
6C6
  8
0
 10
170.97016780359439
 20
103.2431963917782
 30
0.0
 40
15.28984238678146
 50
72.947448389014113
 51
107.05255161098511
  0
LINE
  5
6C7
  8
1
 10
144.47016780359451
 20
103.2431963917782
 30
0.0
 11
197.47016780359451
 21
103.2431963917782
 31
0.0
  0
LINE
  5
6C8
  8
1
 10
170.97016780359451
 20
76.743196391778227
 30
0.0
 11
170.97016780359451
 21
129.74319639177821
 31
0.0
  0
ARC
  5
6C9
  8
0
 10
170.97016780359439
 20
103.2431963917782
 30
0.0
 40
15.0
 50
72.746146882642165
 51
107.2538531173565
  0
CIRCLE
  5
6CA
  8
0
 10
170.97016780359439
 20
103.2431963917782
 30
0.0
 40
19.5
  0
CIRCLE
  5
6CB
  8
0
 10
170.97016780359439
 20
103.2431963917782
 30
0.0
 40
20.0
  0
LINE
  5
6CC
  8
0
 10
107.47016780359451
 20
81.743196391778227
 30
0.0
 11
109.47016780359451
 21
81.743196391778227
 31
0.0
  0
LINE
  5
6CD
  8
0
 10
112.7701678035944
 20
83.92524339177821
 30
0.0
 11
109.47016780359451
 21
83.92524339177821
 31
0.0
  0
LINE
  5
6CE
  8
0
 10
112.7701678035944
 20
83.514028391778197
 30
0.0
 11
109.47016780359451
 21
83.514028391778197
 31
0.0
  0
LINE
  5
6CF
  8
0
 10
112.7701678035944
 20
83.243196391778227
 30
0.0
 11
109.47016780359451
 21
83.243196391778227
 31
0.0
  0
LINE
  5
6D0
  8
0
 10
105.47016780359451
 20
83.743196391778227
 30
0.0
 11
107.47016780359451
 21
81.743196391778227
 31
0.0
  0
LINE
  5
6D1
  8
0
 10
112.7701678035944
 20
88.085182391778204
 30
0.0
 11
109.47016780359451
 21
88.085182391778204
 31
0.0
  0
LINE
  5
6D2
  8
0
 10
112.7701678035944
 20
87.149947391778213
 30
0.0
 11
109.47016780359451
 21
87.149947391778213
 31
0.0
  0
LINE
  5
6D3
  8
0
 10
112.7701678035944
 20
93.895898391778189
 30
0.0
 11
109.47016780359451
 21
93.895898391778189
 31
0.0
  0
LINE
  5
6D4
  8
0
 10
112.7701678035944
 20
95.247352391778236
 30
0.0
 11
109.47016780359451
 21
95.247352391778236
 31
0.0
  0
LINE
  5
6D5
  8
0
 10
112.7701678035944
 20
102.4931963917782
 30
0.0
 11
109.47016780359451
 21
102.4931963917782
 31
0.0
  0
LINE
  5
6D6
  8
0
 10
118.97016780359451
 20
83.243196391778227
 30
0.0
 11
116.2701678035944
 21
83.243196391778227
 31
0.0
  0
LINE
  5
6D7
  8
0
 10
119.47016780359451
 20
83.743196391778227
 30
0.0
 11
118.97016780359451
 21
83.243196391778227
 31
0.0
  0
LINE
  5
6D8
  8
1
 10
100.47016780359451
 20
103.2431963917782
 30
0.0
 11
124.47016780359451
 21
103.2431963917782
 31
0.0
  0
LINE
  5
6D9
  8
0
 10
107.47016780359451
 20
124.7431963917782
 30
0.0
 11
109.47016780359451
 21
124.7431963917782
 31
0.0
  0
LINE
  5
6DA
  8
0
 10
105.47016780359451
 20
122.7431963917782
 30
0.0
 11
107.47016780359451
 21
124.7431963917782
 31
0.0
  0
LINE
  5
6DB
  8
0
 10
118.97016780359451
 20
123.2431963917782
 30
0.0
 11
119.47016780359451
 21
122.7431963917782
 31
0.0
  0
LINE
  5
6DC
  8
0
 10
105.47016780359451
 20
122.7431963917782
 30
0.0
 11
105.47016780359451
 21
83.743196391778227
 31
0.0
  0
LINE
  5
6DD
  8
0
 10
107.47016780359451
 20
124.7431963917782
 30
0.0
 11
107.47016780359451
 21
81.743196391778227
 31
0.0
  0
LINE
  5
6DE
  8
0
 10
119.47016780359451
 20
122.7431963917782
 30
0.0
 11
119.47016780359451
 21
83.743196391778227
 31
0.0
  0
LINE
  5
6DF
  8
0
 10
118.97016780359451
 20
123.2431963917782
 30
0.0
 11
118.97016780359451
 21
83.243196391778227
 31
0.0
  0
LINE
  5
6E0
  8
0
 10
109.47016780359451
 20
124.7431963917782
 30
0.0
 11
109.47016780359451
 21
81.743196391778227
 31
0.0
  0
LINE
  5
6E1
  8
0
 10
112.7701678035944
 20
123.2431963917782
 30
0.0
 11
112.7701678035944
 21
83.243196391778227
 31
0.0
  0
LINE
  5
6E2
  8
0
 10
116.2701678035944
 20
123.2431963917782
 30
0.0
 11
116.2701678035944
 21
83.243196391778227
 31
0.0
  0
POLYLINE
  5
6E3
  8
0
 10
112.77016780359439
 20
84.693196391778628
 30
0.0
 66
     1
 70
     8
  0
VERTEX
  8
0
  5
84A
 10
112.770
 20
84.6932
 30
0.000000
  70
    32
  0
VERTEX
  8
0
  5
84B
 10
112.771
 20
84.6576
 30
0.000000
  70
    32
  0
VERTEX
  8
0
  5
84C
 10
112.772
 20
84.6220
 30
0.000000
  70
    32
  0
VERTEX
  8
0
  5
84D
 10
112.775
 20
84.5865
 30
0.000000
  70
    32
  0
VERTEX
  8
0
  5
84E
 10
112.779
 20
84.5511
 30
0.000000
  70
    32
  0
VERTEX
  8
0
  5
84F
 10
112.783
 20
84.5157
 30
0.000000
  70
    32
  0
VERTEX
  8
0
  5
850
 10
112.789
 20
84.4804
 30
0.000000
  70
    32
  0
VERTEX
  8
0
  5
851
 10
112.796
 20
84.4453
 30
0.000000
  70
    32
  0
VERTEX
  8
0
  5
852
 10
112.804
 20
84.4103
 30
0.000000
  70
    32
  0
VERTEX
  8
0
  5
853
 10
112.813
 20
84.3755
 30
0.000000
  70
    32
  0
VERTEX
  8
0
  5
854
 10
112.823
 20
84.3409
 30
0.000000
  70
    32
  0
VERTEX
  8
0
  5
855
 10
112.834
 20
84.3065
 30
0.000000
  70
    32
  0
VERTEX
  8
0
  5
856
 10
112.846
 20
84.2723
 30
0.000000
  70
    32
  0
VERTEX
  8
0
  5
857
 10
112.858
 20
84.2384
 30
0.000000
  70
    32
  0
VERTEX
  8
0
  5
858
 10
112.872
 20
84.2047
 30
0.000000
  70
    32
  0
VERTEX
  8
0
  5
859
 10
112.887
 20
84.1713
 30
0.000000
  70
    32
  0
VERTEX
  8
0
  5
85A
 10
112.903
 20
84.1383
 30
0.000000
  70
    32
  0
VERTEX
  8
0
  5
85B
 10
112.920
 20
84.1056
 30
0.000000
  70
    32
  0
VERTEX
  8
0
  5
85C
 10
112.938
 20
84.0732
 30
0.000000
  70
    32
  0
VERTEX
  8
0
  5
85D
 10
112.957
 20
84.0413
 30
0.000000
  70
    32
  0
VERTEX
  8
0
  5
85E
 10
112.977
 20
84.0097
 30
0.000000
  70
    32
  0
VERTEX
  8
0
  5
85F
 10
112.998
 20
83.9785
 30
0.000000
  70
    32
  0
VERTEX
  8
0
  5
860
 10
113.019
 20
83.9477
 30
0.000000
  70
    32
  0
VERTEX
  8
0
  5
861
 10
113.042
 20
83.9174
 30
0.000000
  70
    32
  0
VERTEX
  8
0
  5
862
 10
113.065
 20
83.8876
 30
0.000000
  70
    32
  0
VERTEX
  8
0
  5
863
 10
113.089
 20
83.8583
 30
0.000000
  70
    32
  0
VERTEX
  8
0
  5
864
 10
113.115
 20
83.8294
 30
0.000000
  70
    32
  0
VERTEX
  8
0
  5
865
 10
113.141
 20
83.8011
 30
0.000000
  70
    32
  0
VERTEX
  8
0
  5
866
 10
113.167
 20
83.7733
 30
0.000000
  70
    32
  0
VERTEX
  8
0
  5
867
 10
113.195
 20
83.7461
 30
0.000000
  70
    32
  0
VERTEX
  8
0
  5
868
 10
113.224
 20
83.7194
 30
0.000000
  70
    32
  0
VERTEX
  8
0
  5
869
 10
113.253
 20
83.6934
 30
0.000000
  70
    32
  0
VERTEX
  8
0
  5
86A
 10
113.283
 20
83.6679
 30
0.000000
  70
    32
  0
VERTEX
  8
0
  5
86B
 10
113.313
 20
83.6430
 30
0.000000
  70
    32
  0
VERTEX
  8
0
  5
86C
 10
113.345
 20
83.6188
 30
0.000000
  70
    32
  0
VERTEX
  8
0
  5
86D
 10
113.377
 20
83.5952
 30
0.000000
  70
    32
  0
VERTEX
  8
0
  5
86E
 10
113.410
 20
83.5723
 30
0.000000
  70
    32
  0
VERTEX
  8
0
  5
86F
 10
113.444
 20
83.5501
 30
0.000000
  70
    32
  0
VERTEX
  8
0
  5
870
 10
113.478
 20
83.5285
 30
0.000000
  70
    32
  0
VERTEX
  8
0
  5
871
 10
113.513
 20
83.5077
 30
0.000000
  70
    32
  0
VERTEX
  8
0
  5
872
 10
113.548
 20
83.4876
 30
0.000000
  70
    32
  0
VERTEX
  8
0
  5
873
 10
113.584
 20
83.4682
 30
0.000000
  70
    32
  0
VERTEX
  8
0
  5
874
 10
113.620
 20
83.4495
 30
0.000000
  70
    32
  0
VERTEX
  8
0
  5
875
 10
113.658
 20
83.4316
 30
0.000000
  70
    32
  0
VERTEX
  8
0
  5
876
 10
113.695
 20
83.4144
 30
0.000000
  70
    32
  0
VERTEX
  8
0
  5
877
 10
113.733
 20
83.3980
 30
0.000000
  70
    32
  0
VERTEX
  8
0
  5
878
 10
113.772
 20
83.3824
 30
0.000000
  70
    32
  0
VERTEX
  8
0
  5
879
 10
113.811
 20
83.3676
 30
0.000000
  70
    32
  0
VERTEX
  8
0
  5
87A
 10
113.850
 20
83.3536
 30
0.000000
  70
    32
  0
VERTEX
  8
0
  5
87B
 10
113.890
 20
83.3404
 30
0.000000
  70
    32
  0
VERTEX
  8
0
  5
87C
 10
113.931
 20
83.3280
 30
0.000000
  70
    32
  0
VERTEX
  8
0
  5
87D
 10
113.971
 20
83.3164
 30
0.000000
  70
    32
  0
VERTEX
  8
0
  5
87E
 10
114.012
 20
83.3056
 30
0.000000
  70
    32
  0
VERTEX
  8
0
  5
87F
 10
114.053
 20
83.2957
 30
0.000000
  70
    32
  0
VERTEX
  8
0
  5
880
 10
114.095
 20
83.2867
 30
0.000000
  70
    32
  0
VERTEX
  8
0
  5
881
 10
114.137
 20
83.2784
 30
0.000000
  70
    32
  0
VERTEX
  8
0
  5
882
 10
114.179
 20
83.2711
 30
0.000000
  70
    32
  0
VERTEX
  8
0
  5
883
 10
114.221
 20
83.2645
 30
0.000000
  70
    32
  0
VERTEX
  8
0
  5
884
 10
114.263
 20
83.2589
 30
0.000000
  70
    32
  0
VERTEX
  8
0
  5
885
 10
114.306
 20
83.2541
 30
0.000000
  70
    32
  0
VERTEX
  8
0
  5
886
 10
114.349
 20
83.2502
 30
0.000000
  70
    32
  0
VERTEX
  8
0
  5
887
 10
114.391
 20
83.2471
 30
0.000000
  70
    32
  0
VERTEX
  8
0
  5
888
 10
114.434
 20
83.2449
 30
0.000000
  70
    32
  0
VERTEX
  8
0
  5
889
 10
114.477
 20
83.2436
 30
0.000000
  70
    32
  0
VERTEX
  8
0
  5
88A
 10
114.520
 20
83.2432
 30
0.000000
  70
    32
  0
VERTEX
  8
0
  5
88B
 10
114.563
 20
83.2436
 30
0.000000
  70
    32
  0
VERTEX
  8
0
  5
88C
 10
114.606
 20
83.2449
 30
0.000000
  70
    32
  0
VERTEX
  8
0
  5
88D
 10
114.649
 20
83.2471
 30
0.000000
  70
    32
  0
VERTEX
  8
0
  5
88E
 10
114.692
 20
83.2502
 30
0.000000
  70
    32
  0
VERTEX
  8
0
  5
88F
 10
114.734
 20
83.2541
 30
0.000000
  70
    32
  0
VERTEX
  8
0
  5
890
 10
114.777
 20
83.2589
 30
0.000000
  70
    32
  0
VERTEX
  8
0
  5
891
 10
114.819
 20
83.2645
 30
0.000000
  70
    32
  0
VERTEX
  8
0
  5
892
 10
114.862
 20
83.2711
 30
0.000000
  70
    32
  0
VERTEX
  8
0
  5
893
 10
114.904
 20
83.2784
 30
0.000000
  70
    32
  0
VERTEX
  8
0
  5
894
 10
114.945
 20
83.2867
 30
0.000000
  70
    32
  0
VERTEX
  8
0
  5
895
 10
114.987
 20
83.2957
 30
0.000000
  70
    32
  0
VERTEX
  8
0
  5
896
 10
115.028
 20
83.3056
 30
0.000000
  70
    32
  0
VERTEX
  8
0
  5
897
 10
115.069
 20
83.3164
 30
0.000000
  70
    32
  0
VERTEX
  8
0
  5
898
 10
115.110
 20
83.3280
 30
0.000000
  70
    32
  0
VERTEX
  8
0
  5
899
 10
115.150
 20
83.3404
 30
0.000000
  70
    32
  0
VERTEX
  8
0
  5
89A
 10
115.190
 20
83.3536
 30
0.000000
  70
    32
  0
VERTEX
  8
0
  5
89B
 10
115.229
 20
83.3676
 30
0.000000
  70
    32
  0
VERTEX
  8
0
  5
89C
 10
115.268
 20
83.3824
 30
0.000000
  70
    32
  0
VERTEX
  8
0
  5
89D
 10
115.307
 20
83.3980
 30
0.000000
  70
    32
  0
VERTEX
  8
0
  5
89E
 10
115.345
 20
83.4144
 30
0.000000
  70
    32
  0
VERTEX
  8
0
  5
89F
 10
115.383
 20
83.4316
 30
0.000000
  70
    32
  0
VERTEX
  8
0
  5
8A0
 10
115.420
 20
83.4495
 30
0.000000
  70
    32
  0
VERTEX
  8
0
  5
8A1
 10
115.456
 20
83.4682
 30
0.000000
  70
    32
  0
VERTEX
  8
0
  5
8A2
 10
115.492
 20
83.4876
 30
0.000000
  70
    32
  0
VERTEX
  8
0
  5
8A3
 10
115.528
 20
83.5077
 30
0.000000
  70
    32
  0
VERTEX
  8
0
  5
8A4
 10
115.563
 20
83.5285
 30
0.000000
  70
    32
  0
VERTEX
  8
0
  5
8A5
 10
115.597
 20
83.5501
 30
0.000000
  70
    32
  0
VERTEX
  8
0
  5
8A6
 10
115.630
 20
83.5723
 30
0.000000
  70
    32
  0
VERTEX
  8
0
  5
8A7
 10
115.663
 20
83.5952
 30
0.000000
  70
    32
  0
VERTEX
  8
0
  5
8A8
 10
115.695
 20
83.6188
 30
0.000000
  70
    32
  0
VERTEX
  8
0
  5
8A9
 10
115.727
 20
83.6430
 30
0.000000
  70
    32
  0
VERTEX
  8
0
  5
8AA
 10
115.758
 20
83.6679
 30
0.000000
  70
    32
  0
VERTEX
  8
0
  5
8AB
 10
115.788
 20
83.6934
 30
0.000000
  70
    32
  0
VERTEX
  8
0
  5
8AC
 10
115.817
 20
83.7194
 30
0.000000
  70
    32
  0
VERTEX
  8
0
  5
8AD
 10
115.845
 20
83.7461
 30
0.000000
  70
    32
  0
VERTEX
  8
0
  5
8AE
 10
115.873
 20
83.7733
 30
0.000000
  70
    32
  0
VERTEX
  8
0
  5
8AF
 10
115.900
 20
83.8011
 30
0.000000
  70
    32
  0
VERTEX
  8
0
  5
8B0
 10
115.926
 20
83.8294
 30
0.000000
  70
    32
  0
VERTEX
  8
0
  5
8B1
 10
115.951
 20
83.8583
 30
0.000000
  70
    32
  0
VERTEX
  8
0
  5
8B2
 10
115.975
 20
83.8876
 30
0.000000
  70
    32
  0
VERTEX
  8
0
  5
8B3
 10
115.999
 20
83.9174
 30
0.000000
  70
    32
  0
VERTEX
  8
0
  5
8B4
 10
116.021
 20
83.9477
 30
0.000000
  70
    32
  0
VERTEX
  8
0
  5
8B5
 10
116.043
 20
83.9785
 30
0.000000
  70
    32
  0
VERTEX
  8
0
  5
8B6
 10
116.064
 20
84.0097
 30
0.000000
  70
    32
  0
VERTEX
  8
0
  5
8B7
 10
116.083
 20
84.0413
 30
0.000000
  70
    32
  0
VERTEX
  8
0
  5
8B8
 10
116.102
 20
84.0732
 30
0.000000
  70
    32
  0
VERTEX
  8
0
  5
8B9
 10
116.120
 20
84.1056
 30
0.000000
  70
    32
  0
VERTEX
  8
0
  5
8BA
 10
116.137
 20
84.1383
 30
0.000000
  70
    32
  0
VERTEX
  8
0
  5
8BB
 10
116.153
 20
84.1713
 30
0.000000
  70
    32
  0
VERTEX
  8
0
  5
8BC
 10
116.168
 20
84.2047
 30
0.000000
  70
    32
  0
VERTEX
  8
0
  5
8BD
 10
116.182
 20
84.2384
 30
0.000000
  70
    32
  0
VERTEX
  8
0
  5
8BE
 10
116.195
 20
84.2723
 30
0.000000
  70
    32
  0
VERTEX
  8
0
  5
8BF
 10
116.207
 20
84.3065
 30
0.000000
  70
    32
  0
VERTEX
  8
0
  5
8C0
 10
116.218
 20
84.3409
 30
0.000000
  70
    32
  0
VERTEX
  8
0
  5
8C1
 10
116.228
 20
84.3755
 30
0.000000
  70
    32
  0
VERTEX
  8
0
  5
8C2
 10
116.237
 20
84.4103
 30
0.000000
  70
    32
  0
VERTEX
  8
0
  5
8C3
 10
116.244
 20
84.4453
 30
0.000000
  70
    32
  0
VERTEX
  8
0
  5
8C4
 10
116.251
 20
84.4804
 30
0.000000
  70
    32
  0
VERTEX
  8
0
  5
8C5
 10
116.257
 20
84.5157
 30
0.000000
  70
    32
  0
VERTEX
  8
0
  5
8C6
 10
116.262
 20
84.5511
 30
0.000000
  70
    32
  0
VERTEX
  8
0
  5
8C7
 10
116.265
 20
84.5865
 30
0.000000
  70
    32
  0
VERTEX
  8
0
  5
8C8
 10
116.268
 20
84.6220
 30
0.000000
  70
    32
  0
VERTEX
  8
0
  5
8C9
 10
116.270
 20
84.6576
 30
0.000000
  70
    32
  0
VERTEX
  8
0
  5
8CA
 10
116.270
 20
84.6932
 30
0.000000
  70
    32
  0
SEQEND
  8
0
  5
8CB
  0
LINE
  5
6E4
  8
2
 10
116.2701678035944
 20
86.143196391779057
 30
0.0
 11
112.7701678035944
 21
86.143196391779085
 31
0.0
  0
POLYLINE
  5
6E5
  8
2
 10
112.77016780359439
 20
84.693196391778642
 30
0.0
 66
     1
 70
     8
  0
VERTEX
  8
2
  5
8CC
 10
112.770
 20
84.6932
 30
0.000000
  70
    32
  0
VERTEX
  8
2
  5
8CD
 10
112.771
 20
84.7288
 30
0.000000
  70
    32
  0
VERTEX
  8
2
  5
8CE
 10
112.772
 20
84.7643
 30
0.000000
  70
    32
  0
VERTEX
  8
2
  5
8CF
 10
112.775
 20
84.7999
 30
0.000000
  70
    32
  0
VERTEX
  8
2
  5
8D0
 10
112.779
 20
84.8353
 30
0.000000
  70
    32
  0
VERTEX
  8
2
  5
8D1
 10
112.783
 20
84.8707
 30
0.000000
  70
    32
  0
VERTEX
  8
2
  5
8D2
 10
112.789
 20
84.9060
 30
0.000000
  70
    32
  0
VERTEX
  8
2
  5
8D3
 10
112.796
 20
84.9411
 30
0.000000
  70
    32
  0
VERTEX
  8
2
  5
8D4
 10
112.804
 20
84.9761
 30
0.000000
  70
    32
  0
VERTEX
  8
2
  5
8D5
 10
112.813
 20
85.0109
 30
0.000000
  70
    32
  0
VERTEX
  8
2
  5
8D6
 10
112.823
 20
85.0455
 30
0.000000
  70
    32
  0
VERTEX
  8
2
  5
8D7
 10
112.834
 20
85.0799
 30
0.000000
  70
    32
  0
VERTEX
  8
2
  5
8D8
 10
112.846
 20
85.1141
 30
0.000000
  70
    32
  0
VERTEX
  8
2
  5
8D9
 10
112.858
 20
85.1480
 30
0.000000
  70
    32
  0
VERTEX
  8
2
  5
8DA
 10
112.872
 20
85.1817
 30
0.000000
  70
    32
  0
VERTEX
  8
2
  5
8DB
 10
112.887
 20
85.2150
 30
0.000000
  70
    32
  0
VERTEX
  8
2
  5
8DC
 10
112.903
 20
85.2481
 30
0.000000
  70
    32
  0
VERTEX
  8
2
  5
8DD
 10
112.920
 20
85.2808
 30
0.000000
  70
    32
  0
VERTEX
  8
2
  5
8DE
 10
112.938
 20
85.3132
 30
0.000000
  70
    32
  0
VERTEX
  8
2
  5
8DF
 10
112.957
 20
85.3451
 30
0.000000
  70
    32
  0
VERTEX
  8
2
  5
8E0
 10
112.977
 20
85.3767
 30
0.000000
  70
    32
  0
VERTEX
  8
2
  5
8E1
 10
112.998
 20
85.4079
 30
0.000000
  70
    32
  0
VERTEX
  8
2
  5
8E2
 10
113.019
 20
85.4386
 30
0.000000
  70
    32
  0
VERTEX
  8
2
  5
8E3
 10
113.042
 20
85.4689
 30
0.000000
  70
    32
  0
VERTEX
  8
2
  5
8E4
 10
113.065
 20
85.4988
 30
0.000000
  70
    32
  0
VERTEX
  8
2
  5
8E5
 10
113.089
 20
85.5281
 30
0.000000
  70
    32
  0
VERTEX
  8
2
  5
8E6
 10
113.115
 20
85.5570
 30
0.000000
  70
    32
  0
VERTEX
  8
2
  5
8E7
 10
113.141
 20
85.5853
 30
0.000000
  70
    32
  0
VERTEX
  8
2
  5
8E8
 10
113.167
 20
85.6131
 30
0.000000
  70
    32
  0
VERTEX
  8
2
  5
8E9
 10
113.195
 20
85.6403
 30
0.000000
  70
    32
  0
VERTEX
  8
2
  5
8EA
 10
113.224
 20
85.6670
 30
0.000000
  70
    32
  0
VERTEX
  8
2
  5
8EB
 10
113.253
 20
85.6930
 30
0.000000
  70
    32
  0
VERTEX
  8
2
  5
8EC
 10
113.283
 20
85.7185
 30
0.000000
  70
    32
  0
VERTEX
  8
2
  5
8ED
 10
113.313
 20
85.7434
 30
0.000000
  70
    32
  0
VERTEX
  8
2
  5
8EE
 10
113.345
 20
85.7676
 30
0.000000
  70
    32
  0
VERTEX
  8
2
  5
8EF
 10
113.377
 20
85.7911
 30
0.000000
  70
    32
  0
VERTEX
  8
2
  5
8F0
 10
113.410
 20
85.8141
 30
0.000000
  70
    32
  0
VERTEX
  8
2
  5
8F1
 10
113.444
 20
85.8363
 30
0.000000
  70
    32
  0
VERTEX
  8
2
  5
8F2
 10
113.478
 20
85.8578
 30
0.000000
  70
    32
  0
VERTEX
  8
2
  5
8F3
 10
113.513
 20
85.8787
 30
0.000000
  70
    32
  0
VERTEX
  8
2
  5
8F4
 10
113.548
 20
85.8988
 30
0.000000
  70
    32
  0
VERTEX
  8
2
  5
8F5
 10
113.584
 20
85.9182
 30
0.000000
  70
    32
  0
VERTEX
  8
2
  5
8F6
 10
113.620
 20
85.9369
 30
0.000000
  70
    32
  0
VERTEX
  8
2
  5
8F7
 10
113.658
 20
85.9548
 30
0.000000
  70
    32
  0
VERTEX
  8
2
  5
8F8
 10
113.695
 20
85.9720
 30
0.000000
  70
    32
  0
VERTEX
  8
2
  5
8F9
 10
113.733
 20
85.9884
 30
0.000000
  70
    32
  0
VERTEX
  8
2
  5
8FA
 10
113.772
 20
86.0040
 30
0.000000
  70
    32
  0
VERTEX
  8
2
  5
8FB
 10
113.811
 20
86.0188
 30
0.000000
  70
    32
  0
VERTEX
  8
2
  5
8FC
 10
113.850
 20
86.0328
 30
0.000000
  70
    32
  0
VERTEX
  8
2
  5
8FD
 10
113.890
 20
86.0460
 30
0.000000
  70
    32
  0
VERTEX
  8
2
  5
8FE
 10
113.931
 20
86.0584
 30
0.000000
  70
    32
  0
VERTEX
  8
2
  5
8FF
 10
113.971
 20
86.0700
 30
0.000000
  70
    32
  0
VERTEX
  8
2
  5
900
 10
114.012
 20
86.0808
 30
0.000000
  70
    32
  0
VERTEX
  8
2
  5
901
 10
114.053
 20
86.0907
 30
0.000000
  70
    32
  0
VERTEX
  8
2
  5
902
 10
114.095
 20
86.0997
 30
0.000000
  70
    32
  0
VERTEX
  8
2
  5
903
 10
114.137
 20
86.1080
 30
0.000000
  70
    32
  0
VERTEX
  8
2
  5
904
 10
114.179
 20
86.1153
 30
0.000000
  70
    32
  0
VERTEX
  8
2
  5
905
 10
114.221
 20
86.1218
 30
0.000000
  70
    32
  0
VERTEX
  8
2
  5
906
 10
114.263
 20
86.1275
 30
0.000000
  70
    32
  0
VERTEX
  8
2
  5
907
 10
114.306
 20
86.1323
 30
0.000000
  70
    32
  0
VERTEX
  8
2
  5
908
 10
114.349
 20
86.1362
 30
0.000000
  70
    32
  0
VERTEX
  8
2
  5
909
 10
114.391
 20
86.1393
 30
0.000000
  70
    32
  0
VERTEX
  8
2
  5
90A
 10
114.434
 20
86.1414
 30
0.000000
  70
    32
  0
VERTEX
  8
2
  5
90B
 10
114.477
 20
86.1428
 30
0.000000
  70
    32
  0
VERTEX
  8
2
  5
90C
 10
114.520
 20
86.1432
 30
0.000000
  70
    32
  0
VERTEX
  8
2
  5
90D
 10
114.563
 20
86.1428
 30
0.000000
  70
    32
  0
VERTEX
  8
2
  5
90E
 10
114.606
 20
86.1414
 30
0.000000
  70
    32
  0
VERTEX
  8
2
  5
90F
 10
114.649
 20
86.1393
 30
0.000000
  70
    32
  0
VERTEX
  8
2
  5
910
 10
114.692
 20
86.1362
 30
0.000000
  70
    32
  0
VERTEX
  8
2
  5
911
 10
114.734
 20
86.1323
 30
0.000000
  70
    32
  0
VERTEX
  8
2
  5
912
 10
114.777
 20
86.1275
 30
0.000000
  70
    32
  0
VERTEX
  8
2
  5
913
 10
114.819
 20
86.1218
 30
0.000000
  70
    32
  0
VERTEX
  8
2
  5
914
 10
114.862
 20
86.1153
 30
0.000000
  70
    32
  0
VERTEX
  8
2
  5
915
 10
114.904
 20
86.1080
 30
0.000000
  70
    32
  0
VERTEX
  8
2
  5
916
 10
114.945
 20
86.0997
 30
0.000000
  70
    32
  0
VERTEX
  8
2
  5
917
 10
114.987
 20
86.0907
 30
0.000000
  70
    32
  0
VERTEX
  8
2
  5
918
 10
115.028
 20
86.0808
 30
0.000000
  70
    32
  0
VERTEX
  8
2
  5
919
 10
115.069
 20
86.0700
 30
0.000000
  70
    32
  0
VERTEX
  8
2
  5
91A
 10
115.110
 20
86.0584
 30
0.000000
  70
    32
  0
VERTEX
  8
2
  5
91B
 10
115.150
 20
86.0460
 30
0.000000
  70
    32
  0
VERTEX
  8
2
  5
91C
 10
115.190
 20
86.0328
 30
0.000000
  70
    32
  0
VERTEX
  8
2
  5
91D
 10
115.229
 20
86.0188
 30
0.000000
  70
    32
  0
VERTEX
  8
2
  5
91E
 10
115.268
 20
86.0040
 30
0.000000
  70
    32
  0
VERTEX
  8
2
  5
91F
 10
115.307
 20
85.9884
 30
0.000000
  70
    32
  0
VERTEX
  8
2
  5
920
 10
115.345
 20
85.9720
 30
0.000000
  70
    32
  0
VERTEX
  8
2
  5
921
 10
115.383
 20
85.9548
 30
0.000000
  70
    32
  0
VERTEX
  8
2
  5
922
 10
115.420
 20
85.9369
 30
0.000000
  70
    32
  0
VERTEX
  8
2
  5
923
 10
115.456
 20
85.9182
 30
0.000000
  70
    32
  0
VERTEX
  8
2
  5
924
 10
115.492
 20
85.8988
 30
0.000000
  70
    32
  0
VERTEX
  8
2
  5
925
 10
115.528
 20
85.8787
 30
0.000000
  70
    32
  0
VERTEX
  8
2
  5
926
 10
115.563
 20
85.8578
 30
0.000000
  70
    32
  0
VERTEX
  8
2
  5
927
 10
115.597
 20
85.8363
 30
0.000000
  70
    32
  0
VERTEX
  8
2
  5
928
 10
115.630
 20
85.8141
 30
0.000000
  70
    32
  0
VERTEX
  8
2
  5
929
 10
115.663
 20
85.7911
 30
0.000000
  70
    32
  0
VERTEX
  8
2
  5
92A
 10
115.695
 20
85.7676
 30
0.000000
  70
    32
  0
VERTEX
  8
2
  5
92B
 10
115.727
 20
85.7434
 30
0.000000
  70
    32
  0
VERTEX
  8
2
  5
92C
 10
115.758
 20
85.7185
 30
0.000000
  70
    32
  0
VERTEX
  8
2
  5
92D
 10
115.788
 20
85.6930
 30
0.000000
  70
    32
  0
VERTEX
  8
2
  5
92E
 10
115.817
 20
85.6670
 30
0.000000
  70
    32
  0
VERTEX
  8
2
  5
92F
 10
115.845
 20
85.6403
 30
0.000000
  70
    32
  0
VERTEX
  8
2
  5
930
 10
115.873
 20
85.6131
 30
0.000000
  70
    32
  0
VERTEX
  8
2
  5
931
 10
115.900
 20
85.5853
 30
0.000000
  70
    32
  0
VERTEX
  8
2
  5
932
 10
115.926
 20
85.5570
 30
0.000000
  70
    32
  0
VERTEX
  8
2
  5
933
 10
115.951
 20
85.5281
 30
0.000000
  70
    32
  0
VERTEX
  8
2
  5
934
 10
115.975
 20
85.4988
 30
0.000000
  70
    32
  0
VERTEX
  8
2
  5
935
 10
115.999
 20
85.4689
 30
0.000000
  70
    32
  0
VERTEX
  8
2
  5
936
 10
116.021
 20
85.4386
 30
0.000000
  70
    32
  0
VERTEX
  8
2
  5
937
 10
116.043
 20
85.4079
 30
0.000000
  70
    32
  0
VERTEX
  8
2
  5
938
 10
116.064
 20
85.3767
 30
0.000000
  70
    32
  0
VERTEX
  8
2
  5
939
 10
116.083
 20
85.3451
 30
0.000000
  70
    32
  0
VERTEX
  8
2
  5
93A
 10
116.102
 20
85.3132
 30
0.000000
  70
    32
  0
VERTEX
  8
2
  5
93B
 10
116.120
 20
85.2808
 30
0.000000
  70
    32
  0
VERTEX
  8
2
  5
93C
 10
116.137
 20
85.2481
 30
0.000000
  70
    32
  0
VERTEX
  8
2
  5
93D
 10
116.153
 20
85.2150
 30
0.000000
  70
    32
  0
VERTEX
  8
2
  5
93E
 10
116.168
 20
85.1817
 30
0.000000
  70
    32
  0
VERTEX
  8
2
  5
93F
 10
116.182
 20
85.1480
 30
0.000000
  70
    32
  0
VERTEX
  8
2
  5
940
 10
116.195
 20
85.1141
 30
0.000000
  70
    32
  0
VERTEX
  8
2
  5
941
 10
116.207
 20
85.0799
 30
0.000000
  70
    32
  0
VERTEX
  8
2
  5
942
 10
116.218
 20
85.0455
 30
0.000000
  70
    32
  0
VERTEX
  8
2
  5
943
 10
116.228
 20
85.0109
 30
0.000000
  70
    32
  0
VERTEX
  8
2
  5
944
 10
116.237
 20
84.9761
 30
0.000000
  70
    32
  0
VERTEX
  8
2
  5
945
 10
116.244
 20
84.9411
 30
0.000000
  70
    32
  0
VERTEX
  8
2
  5
946
 10
116.251
 20
84.9060
 30
0.000000
  70
    32
  0
VERTEX
  8
2
  5
947
 10
116.257
 20
84.8707
 30
0.000000
  70
    32
  0
VERTEX
  8
2
  5
948
 10
116.262
 20
84.8353
 30
0.000000
  70
    32
  0
VERTEX
  8
2
  5
949
 10
116.265
 20
84.7999
 30
0.000000
  70
    32
  0
VERTEX
  8
2
  5
94A
 10
116.268
 20
84.7643
 30
0.000000
  70
    32
  0
VERTEX
  8
2
  5
94B
 10
116.270
 20
84.7288
 30
0.000000
  70
    32
  0
VERTEX
  8
2
  5
94C
 10
116.270
 20
84.6932
 30
0.000000
  70
    32
  0
SEQEND
  8
2
  5
94D
  0
POLYLINE
  5
6E6
  8
2
 10
112.77016780359439
 20
121.79319639177778
 30
0.0
 66
     1
 70
     8
  0
VERTEX
  8
2
  5
94E
 10
112.770
 20
121.793
 30
0.000000
  70
    32
  0
VERTEX
  8
2
  5
94F
 10
112.771
 20
121.758
 30
0.000000
  70
    32
  0
VERTEX
  8
2
  5
950
 10
112.772
 20
121.722
 30
0.000000
  70
    32
  0
VERTEX
  8
2
  5
951
 10
112.775
 20
121.687
 30
0.000000
  70
    32
  0
VERTEX
  8
2
  5
952
 10
112.779
 20
121.651
 30
0.000000
  70
    32
  0
VERTEX
  8
2
  5
953
 10
112.783
 20
121.616
 30
0.000000
  70
    32
  0
VERTEX
  8
2
  5
954
 10
112.789
 20
121.580
 30
0.000000
  70
    32
  0
VERTEX
  8
2
  5
955
 10
112.796
 20
121.545
 30
0.000000
  70
    32
  0
VERTEX
  8
2
  5
956
 10
112.804
 20
121.510
 30
0.000000
  70
    32
  0
VERTEX
  8
2
  5
957
 10
112.813
 20
121.475
 30
0.000000
  70
    32
  0
VERTEX
  8
2
  5
958
 10
112.823
 20
121.441
 30
0.000000
  70
    32
  0
VERTEX
  8
2
  5
959
 10
112.834
 20
121.406
 30
0.000000
  70
    32
  0
VERTEX
  8
2
  5
95A
 10
112.846
 20
121.372
 30
0.000000
  70
    32
  0
VERTEX
  8
2
  5
95B
 10
112.858
 20
121.338
 30
0.000000
  70
    32
  0
VERTEX
  8
2
  5
95C
 10
112.872
 20
121.305
 30
0.000000
  70
    32
  0
VERTEX
  8
2
  5
95D
 10
112.887
 20
121.271
 30
0.000000
  70
    32
  0
VERTEX
  8
2
  5
95E
 10
112.903
 20
121.238
 30
0.000000
  70
    32
  0
VERTEX
  8
2
  5
95F
 10
112.920
 20
121.206
 30
0.000000
  70
    32
  0
VERTEX
  8
2
  5
960
 10
112.938
 20
121.173
 30
0.000000
  70
    32
  0
VERTEX
  8
2
  5
961
 10
112.957
 20
121.141
 30
0.000000
  70
    32
  0
VERTEX
  8
2
  5
962
 10
112.977
 20
121.110
 30
0.000000
  70
    32
  0
VERTEX
  8
2
  5
963
 10
112.998
 20
121.078
 30
0.000000
  70
    32
  0
VERTEX
  8
2
  5
964
 10
113.019
 20
121.048
 30
0.000000
  70
    32
  0
VERTEX
  8
2
  5
965
 10
113.042
 20
121.017
 30
0.000000
  70
    32
  0
VERTEX
  8
2
  5
966
 10
113.065
 20
120.988
 30
0.000000
  70
    32
  0
VERTEX
  8
2
  5
967
 10
113.089
 20
120.958
 30
0.000000
  70
    32
  0
VERTEX
  8
2
  5
968
 10
113.115
 20
120.929
 30
0.000000
  70
    32
  0
VERTEX
  8
2
  5
969
 10
113.141
 20
120.901
 30
0.000000
  70
    32
  0
VERTEX
  8
2
  5
96A
 10
113.167
 20
120.873
 30
0.000000
  70
    32
  0
VERTEX
  8
2
  5
96B
 10
113.195
 20
120.846
 30
0.000000
  70
    32
  0
VERTEX
  8
2
  5
96C
 10
113.224
 20
120.819
 30
0.000000
  70
    32
  0
VERTEX
  8
2
  5
96D
 10
113.253
 20
120.793
 30
0.000000
  70
    32
  0
VERTEX
  8
2
  5
96E
 10
113.283
 20
120.768
 30
0.000000
  70
    32
  0
VERTEX
  8
2
  5
96F
 10
113.313
 20
120.743
 30
0.000000
  70
    32
  0
VERTEX
  8
2
  5
970
 10
113.345
 20
120.719
 30
0.000000
  70
    32
  0
VERTEX
  8
2
  5
971
 10
113.377
 20
120.695
 30
0.000000
  70
    32
  0
VERTEX
  8
2
  5
972
 10
113.410
 20
120.672
 30
0.000000
  70
    32
  0
VERTEX
  8
2
  5
973
 10
113.444
 20
120.650
 30
0.000000
  70
    32
  0
VERTEX
  8
2
  5
974
 10
113.478
 20
120.629
 30
0.000000
  70
    32
  0
VERTEX
  8
2
  5
975
 10
113.513
 20
120.608
 30
0.000000
  70
    32
  0
VERTEX
  8
2
  5
976
 10
113.548
 20
120.588
 30
0.000000
  70
    32
  0
VERTEX
  8
2
  5
977
 10
113.584
 20
120.568
 30
0.000000
  70
    32
  0
VERTEX
  8
2
  5
978
 10
113.620
 20
120.549
 30
0.000000
  70
    32
  0
VERTEX
  8
2
  5
979
 10
113.658
 20
120.532
 30
0.000000
  70
    32
  0
VERTEX
  8
2
  5
97A
 10
113.695
 20
120.514
 30
0.000000
  70
    32
  0
VERTEX
  8
2
  5
97B
 10
113.733
 20
120.498
 30
0.000000
  70
    32
  0
VERTEX
  8
2
  5
97C
 10
113.772
 20
120.482
 30
0.000000
  70
    32
  0
VERTEX
  8
2
  5
97D
 10
113.811
 20
120.468
 30
0.000000
  70
    32
  0
VERTEX
  8
2
  5
97E
 10
113.850
 20
120.454
 30
0.000000
  70
    32
  0
VERTEX
  8
2
  5
97F
 10
113.890
 20
120.440
 30
0.000000
  70
    32
  0
VERTEX
  8
2
  5
980
 10
113.931
 20
120.428
 30
0.000000
  70
    32
  0
VERTEX
  8
2
  5
981
 10
113.971
 20
120.416
 30
0.000000
  70
    32
  0
VERTEX
  8
2
  5
982
 10
114.012
 20
120.406
 30
0.000000
  70
    32
  0
VERTEX
  8
2
  5
983
 10
114.053
 20
120.396
 30
0.000000
  70
    32
  0
VERTEX
  8
2
  5
984
 10
114.095
 20
120.387
 30
0.000000
  70
    32
  0
VERTEX
  8
2
  5
985
 10
114.137
 20
120.378
 30
0.000000
  70
    32
  0
VERTEX
  8
2
  5
986
 10
114.179
 20
120.371
 30
0.000000
  70
    32
  0
VERTEX
  8
2
  5
987
 10
114.221
 20
120.365
 30
0.000000
  70
    32
  0
VERTEX
  8
2
  5
988
 10
114.263
 20
120.359
 30
0.000000
  70
    32
  0
VERTEX
  8
2
  5
989
 10
114.306
 20
120.354
 30
0.000000
  70
    32
  0
VERTEX
  8
2
  5
98A
 10
114.349
 20
120.350
 30
0.000000
  70
    32
  0
VERTEX
  8
2
  5
98B
 10
114.391
 20
120.347
 30
0.000000
  70
    32
  0
VERTEX
  8
2
  5
98C
 10
114.434
 20
120.345
 30
0.000000
  70
    32
  0
VERTEX
  8
2
  5
98D
 10
114.477
 20
120.344
 30
0.000000
  70
    32
  0
VERTEX
  8
2
  5
98E
 10
114.520
 20
120.343
 30
0.000000
  70
    32
  0
VERTEX
  8
2
  5
98F
 10
114.563
 20
120.344
 30
0.000000
  70
    32
  0
VERTEX
  8
2
  5
990
 10
114.606
 20
120.345
 30
0.000000
  70
    32
  0
VERTEX
  8
2
  5
991
 10
114.649
 20
120.347
 30
0.000000
  70
    32
  0
VERTEX
  8
2
  5
992
 10
114.692
 20
120.350
 30
0.000000
  70
    32
  0
VERTEX
  8
2
  5
993
 10
114.734
 20
120.354
 30
0.000000
  70
    32
  0
VERTEX
  8
2
  5
994
 10
114.777
 20
120.359
 30
0.000000
  70
    32
  0
VERTEX
  8
2
  5
995
 10
114.819
 20
120.365
 30
0.000000
  70
    32
  0
VERTEX
  8
2
  5
996
 10
114.862
 20
120.371
 30
0.000000
  70
    32
  0
VERTEX
  8
2
  5
997
 10
114.904
 20
120.378
 30
0.000000
  70
    32
  0
VERTEX
  8
2
  5
998
 10
114.945
 20
120.387
 30
0.000000
  70
    32
  0
VERTEX
  8
2
  5
999
 10
114.987
 20
120.396
 30
0.000000
  70
    32
  0
VERTEX
  8
2
  5
99A
 10
115.028
 20
120.406
 30
0.000000
  70
    32
  0
VERTEX
  8
2
  5
99B
 10
115.069
 20
120.416
 30
0.000000
  70
    32
  0
VERTEX
  8
2
  5
99C
 10
115.110
 20
120.428
 30
0.000000
  70
    32
  0
VERTEX
  8
2
  5
99D
 10
115.150
 20
120.440
 30
0.000000
  70
    32
  0
VERTEX
  8
2
  5
99E
 10
115.190
 20
120.454
 30
0.000000
  70
    32
  0
VERTEX
  8
2
  5
99F
 10
115.229
 20
120.468
 30
0.000000
  70
    32
  0
VERTEX
  8
2
  5
9A0
 10
115.268
 20
120.482
 30
0.000000
  70
    32
  0
VERTEX
  8
2
  5
9A1
 10
115.307
 20
120.498
 30
0.000000
  70
    32
  0
VERTEX
  8
2
  5
9A2
 10
115.345
 20
120.514
 30
0.000000
  70
    32
  0
VERTEX
  8
2
  5
9A3
 10
115.383
 20
120.532
 30
0.000000
  70
    32
  0
VERTEX
  8
2
  5
9A4
 10
115.420
 20
120.549
 30
0.000000
  70
    32
  0
VERTEX
  8
2
  5
9A5
 10
115.456
 20
120.568
 30
0.000000
  70
    32
  0
VERTEX
  8
2
  5
9A6
 10
115.492
 20
120.588
 30
0.000000
  70
    32
  0
VERTEX
  8
2
  5
9A7
 10
115.528
 20
120.608
 30
0.000000
  70
    32
  0
VERTEX
  8
2
  5
9A8
 10
115.563
 20
120.629
 30
0.000000
  70
    32
  0
VERTEX
  8
2
  5
9A9
 10
115.597
 20
120.650
 30
0.000000
  70
    32
  0
VERTEX
  8
2
  5
9AA
 10
115.630
 20
120.672
 30
0.000000
  70
    32
  0
VERTEX
  8
2
  5
9AB
 10
115.663
 20
120.695
 30
0.000000
  70
    32
  0
VERTEX
  8
2
  5
9AC
 10
115.695
 20
120.719
 30
0.000000
  70
    32
  0
VERTEX
  8
2
  5
9AD
 10
115.727
 20
120.743
 30
0.000000
  70
    32
  0
VERTEX
  8
2
  5
9AE
 10
115.758
 20
120.768
 30
0.000000
  70
    32
  0
VERTEX
  8
2
  5
9AF
 10
115.788
 20
120.793
 30
0.000000
  70
    32
  0
VERTEX
  8
2
  5
9B0
 10
115.817
 20
120.819
 30
0.000000
  70
    32
  0
VERTEX
  8
2
  5
9B1
 10
115.845
 20
120.846
 30
0.000000
  70
    32
  0
VERTEX
  8
2
  5
9B2
 10
115.873
 20
120.873
 30
0.000000
  70
    32
  0
VERTEX
  8
2
  5
9B3
 10
115.900
 20
120.901
 30
0.000000
  70
    32
  0
VERTEX
  8
2
  5
9B4
 10
115.926
 20
120.929
 30
0.000000
  70
    32
  0
VERTEX
  8
2
  5
9B5
 10
115.951
 20
120.958
 30
0.000000
  70
    32
  0
VERTEX
  8
2
  5
9B6
 10
115.975
 20
120.988
 30
0.000000
  70
    32
  0
VERTEX
  8
2
  5
9B7
 10
115.999
 20
121.017
 30
0.000000
  70
    32
  0
VERTEX
  8
2
  5
9B8
 10
116.021
 20
121.048
 30
0.000000
  70
    32
  0
VERTEX
  8
2
  5
9B9
 10
116.043
 20
121.078
 30
0.000000
  70
    32
  0
VERTEX
  8
2
  5
9BA
 10
116.064
 20
121.110
 30
0.000000
  70
    32
  0
VERTEX
  8
2
  5
9BB
 10
116.083
 20
121.141
 30
0.000000
  70
    32
  0
VERTEX
  8
2
  5
9BC
 10
116.102
 20
121.173
 30
0.000000
  70
    32
  0
VERTEX
  8
2
  5
9BD
 10
116.120
 20
121.206
 30
0.000000
  70
    32
  0
VERTEX
  8
2
  5
9BE
 10
116.137
 20
121.238
 30
0.000000
  70
    32
  0
VERTEX
  8
2
  5
9BF
 10
116.153
 20
121.271
 30
0.000000
  70
    32
  0
VERTEX
  8
2
  5
9C0
 10
116.168
 20
121.305
 30
0.000000
  70
    32
  0
VERTEX
  8
2
  5
9C1
 10
116.182
 20
121.338
 30
0.000000
  70
    32
  0
VERTEX
  8
2
  5
9C2
 10
116.195
 20
121.372
 30
0.000000
  70
    32
  0
VERTEX
  8
2
  5
9C3
 10
116.207
 20
121.406
 30
0.000000
  70
    32
  0
VERTEX
  8
2
  5
9C4
 10
116.218
 20
121.441
 30
0.000000
  70
    32
  0
VERTEX
  8
2
  5
9C5
 10
116.228
 20
121.475
 30
0.000000
  70
    32
  0
VERTEX
  8
2
  5
9C6
 10
116.237
 20
121.510
 30
0.000000
  70
    32
  0
VERTEX
  8
2
  5
9C7
 10
116.244
 20
121.545
 30
0.000000
  70
    32
  0
VERTEX
  8
2
  5
9C8
 10
116.251
 20
121.580
 30
0.000000
  70
    32
  0
VERTEX
  8
2
  5
9C9
 10
116.257
 20
121.616
 30
0.000000
  70
    32
  0
VERTEX
  8
2
  5
9CA
 10
116.262
 20
121.651
 30
0.000000
  70
    32
  0
VERTEX
  8
2
  5
9CB
 10
116.265
 20
121.687
 30
0.000000
  70
    32
  0
VERTEX
  8
2
  5
9CC
 10
116.268
 20
121.722
 30
0.000000
  70
    32
  0
VERTEX
  8
2
  5
9CD
 10
116.270
 20
121.758
 30
0.000000
  70
    32
  0
VERTEX
  8
2
  5
9CE
 10
116.270
 20
121.793
 30
0.000000
  70
    32
  0
SEQEND
  8
2
  5
9CF
  0
LINE
  5
6E7
  8
2
 10
116.2701678035944
 20
120.3431963917774
 30
0.0
 11
112.7701678035944
 21
120.3431963917774
 31
0.0
  0
POLYLINE
  5
6E8
  8
0
 10
112.77016780359439
 20
121.79319639177781
 30
0.0
 66
     1
 70
     8
  0
VERTEX
  8
0
  5
9D0
 10
112.770
 20
121.793
 30
0.000000
  70
    32
  0
VERTEX
  8
0
  5
9D1
 10
112.771
 20
121.829
 30
0.000000
  70
    32
  0
VERTEX
  8
0
  5
9D2
 10
112.772
 20
121.864
 30
0.000000
  70
    32
  0
VERTEX
  8
0
  5
9D3
 10
112.775
 20
121.900
 30
0.000000
  70
    32
  0
VERTEX
  8
0
  5
9D4
 10
112.779
 20
121.935
 30
0.000000
  70
    32
  0
VERTEX
  8
0
  5
9D5
 10
112.783
 20
121.971
 30
0.000000
  70
    32
  0
VERTEX
  8
0
  5
9D6
 10
112.789
 20
122.006
 30
0.000000
  70
    32
  0
VERTEX
  8
0
  5
9D7
 10
112.796
 20
122.041
 30
0.000000
  70
    32
  0
VERTEX
  8
0
  5
9D8
 10
112.804
 20
122.076
 30
0.000000
  70
    32
  0
VERTEX
  8
0
  5
9D9
 10
112.813
 20
122.111
 30
0.000000
  70
    32
  0
VERTEX
  8
0
  5
9DA
 10
112.823
 20
122.146
 30
0.000000
  70
    32
  0
VERTEX
  8
0
  5
9DB
 10
112.834
 20
122.180
 30
0.000000
  70
    32
  0
VERTEX
  8
0
  5
9DC
 10
112.846
 20
122.214
 30
0.000000
  70
    32
  0
VERTEX
  8
0
  5
9DD
 10
112.858
 20
122.248
 30
0.000000
  70
    32
  0
VERTEX
  8
0
  5
9DE
 10
112.872
 20
122.282
 30
0.000000
  70
    32
  0
VERTEX
  8
0
  5
9DF
 10
112.887
 20
122.315
 30
0.000000
  70
    32
  0
VERTEX
  8
0
  5
9E0
 10
112.903
 20
122.348
 30
0.000000
  70
    32
  0
VERTEX
  8
0
  5
9E1
 10
112.920
 20
122.381
 30
0.000000
  70
    32
  0
VERTEX
  8
0
  5
9E2
 10
112.938
 20
122.413
 30
0.000000
  70
    32
  0
VERTEX
  8
0
  5
9E3
 10
112.957
 20
122.445
 30
0.000000
  70
    32
  0
VERTEX
  8
0
  5
9E4
 10
112.977
 20
122.477
 30
0.000000
  70
    32
  0
VERTEX
  8
0
  5
9E5
 10
112.998
 20
122.508
 30
0.000000
  70
    32
  0
VERTEX
  8
0
  5
9E6
 10
113.019
 20
122.539
 30
0.000000
  70
    32
  0
VERTEX
  8
0
  5
9E7
 10
113.042
 20
122.569
 30
0.000000
  70
    32
  0
VERTEX
  8
0
  5
9E8
 10
113.065
 20
122.599
 30
0.000000
  70
    32
  0
VERTEX
  8
0
  5
9E9
 10
113.089
 20
122.628
 30
0.000000
  70
    32
  0
VERTEX
  8
0
  5
9EA
 10
113.115
 20
122.657
 30
0.000000
  70
    32
  0
VERTEX
  8
0
  5
9EB
 10
113.141
 20
122.685
 30
0.000000
  70
    32
  0
VERTEX
  8
0
  5
9EC
 10
113.167
 20
122.713
 30
0.000000
  70
    32
  0
VERTEX
  8
0
  5
9ED
 10
113.195
 20
122.740
 30
0.000000
  70
    32
  0
VERTEX
  8
0
  5
9EE
 10
113.224
 20
122.767
 30
0.000000
  70
    32
  0
VERTEX
  8
0
  5
9EF
 10
113.253
 20
122.793
 30
0.000000
  70
    32
  0
VERTEX
  8
0
  5
9F0
 10
113.283
 20
122.819
 30
0.000000
  70
    32
  0
VERTEX
  8
0
  5
9F1
 10
113.313
 20
122.843
 30
0.000000
  70
    32
  0
VERTEX
  8
0
  5
9F2
 10
113.345
 20
122.868
 30
0.000000
  70
    32
  0
VERTEX
  8
0
  5
9F3
 10
113.377
 20
122.891
 30
0.000000
  70
    32
  0
VERTEX
  8
0
  5
9F4
 10
113.410
 20
122.914
 30
0.000000
  70
    32
  0
VERTEX
  8
0
  5
9F5
 10
113.444
 20
122.936
 30
0.000000
  70
    32
  0
VERTEX
  8
0
  5
9F6
 10
113.478
 20
122.958
 30
0.000000
  70
    32
  0
VERTEX
  8
0
  5
9F7
 10
113.513
 20
122.979
 30
0.000000
  70
    32
  0
VERTEX
  8
0
  5
9F8
 10
113.548
 20
122.999
 30
0.000000
  70
    32
  0
VERTEX
  8
0
  5
9F9
 10
113.584
 20
123.018
 30
0.000000
  70
    32
  0
VERTEX
  8
0
  5
9FA
 10
113.620
 20
123.037
 30
0.000000
  70
    32
  0
VERTEX
  8
0
  5
9FB
 10
113.658
 20
123.055
 30
0.000000
  70
    32
  0
VERTEX
  8
0
  5
9FC
 10
113.695
 20
123.072
 30
0.000000
  70
    32
  0
VERTEX
  8
0
  5
9FD
 10
113.733
 20
123.088
 30
0.000000
  70
    32
  0
VERTEX
  8
0
  5
9FE
 10
113.772
 20
123.104
 30
0.000000
  70
    32
  0
VERTEX
  8
0
  5
9FF
 10
113.811
 20
123.119
 30
0.000000
  70
    32
  0
VERTEX
  8
0
  5
A00
 10
113.850
 20
123.133
 30
0.000000
  70
    32
  0
VERTEX
  8
0
  5
A01
 10
113.890
 20
123.146
 30
0.000000
  70
    32
  0
VERTEX
  8
0
  5
A02
 10
113.931
 20
123.158
 30
0.000000
  70
    32
  0
VERTEX
  8
0
  5
A03
 10
113.971
 20
123.170
 30
0.000000
  70
    32
  0
VERTEX
  8
0
  5
A04
 10
114.012
 20
123.181
 30
0.000000
  70
    32
  0
VERTEX
  8
0
  5
A05
 10
114.053
 20
123.191
 30
0.000000
  70
    32
  0
VERTEX
  8
0
  5
A06
 10
114.095
 20
123.200
 30
0.000000
  70
    32
  0
VERTEX
  8
0
  5
A07
 10
114.137
 20
123.208
 30
0.000000
  70
    32
  0
VERTEX
  8
0
  5
A08
 10
114.179
 20
123.215
 30
0.000000
  70
    32
  0
VERTEX
  8
0
  5
A09
 10
114.221
 20
123.222
 30
0.000000
  70
    32
  0
VERTEX
  8
0
  5
A0A
 10
114.263
 20
123.228
 30
0.000000
  70
    32
  0
VERTEX
  8
0
  5
A0B
 10
114.306
 20
123.232
 30
0.000000
  70
    32
  0
VERTEX
  8
0
  5
A0C
 10
114.349
 20
123.236
 30
0.000000
  70
    32
  0
VERTEX
  8
0
  5
A0D
 10
114.391
 20
123.239
 30
0.000000
  70
    32
  0
VERTEX
  8
0
  5
A0E
 10
114.434
 20
123.241
 30
0.000000
  70
    32
  0
VERTEX
  8
0
  5
A0F
 10
114.477
 20
123.243
 30
0.000000
  70
    32
  0
VERTEX
  8
0
  5
A10
 10
114.520
 20
123.243
 30
0.000000
  70
    32
  0
VERTEX
  8
0
  5
A11
 10
114.563
 20
123.243
 30
0.000000
  70
    32
  0
VERTEX
  8
0
  5
A12
 10
114.606
 20
123.241
 30
0.000000
  70
    32
  0
VERTEX
  8
0
  5
A13
 10
114.649
 20
123.239
 30
0.000000
  70
    32
  0
VERTEX
  8
0
  5
A14
 10
114.692
 20
123.236
 30
0.000000
  70
    32
  0
VERTEX
  8
0
  5
A15
 10
114.734
 20
123.232
 30
0.000000
  70
    32
  0
VERTEX
  8
0
  5
A16
 10
114.777
 20
123.228
 30
0.000000
  70
    32
  0
VERTEX
  8
0
  5
A17
 10
114.819
 20
123.222
 30
0.000000
  70
    32
  0
VERTEX
  8
0
  5
A18
 10
114.862
 20
123.215
 30
0.000000
  70
    32
  0
VERTEX
  8
0
  5
A19
 10
114.904
 20
123.208
 30
0.000000
  70
    32
  0
VERTEX
  8
0
  5
A1A
 10
114.945
 20
123.200
 30
0.000000
  70
    32
  0
VERTEX
  8
0
  5
A1B
 10
114.987
 20
123.191
 30
0.000000
  70
    32
  0
VERTEX
  8
0
  5
A1C
 10
115.028
 20
123.181
 30
0.000000
  70
    32
  0
VERTEX
  8
0
  5
A1D
 10
115.069
 20
123.170
 30
0.000000
  70
    32
  0
VERTEX
  8
0
  5
A1E
 10
115.110
 20
123.158
 30
0.000000
  70
    32
  0
VERTEX
  8
0
  5
A1F
 10
115.150
 20
123.146
 30
0.000000
  70
    32
  0
VERTEX
  8
0
  5
A20
 10
115.190
 20
123.133
 30
0.000000
  70
    32
  0
VERTEX
  8
0
  5
A21
 10
115.229
 20
123.119
 30
0.000000
  70
    32
  0
VERTEX
  8
0
  5
A22
 10
115.268
 20
123.104
 30
0.000000
  70
    32
  0
VERTEX
  8
0
  5
A23
 10
115.307
 20
123.088
 30
0.000000
  70
    32
  0
VERTEX
  8
0
  5
A24
 10
115.345
 20
123.072
 30
0.000000
  70
    32
  0
VERTEX
  8
0
  5
A25
 10
115.383
 20
123.055
 30
0.000000
  70
    32
  0
VERTEX
  8
0
  5
A26
 10
115.420
 20
123.037
 30
0.000000
  70
    32
  0
VERTEX
  8
0
  5
A27
 10
115.456
 20
123.018
 30
0.000000
  70
    32
  0
VERTEX
  8
0
  5
A28
 10
115.492
 20
122.999
 30
0.000000
  70
    32
  0
VERTEX
  8
0
  5
A29
 10
115.528
 20
122.979
 30
0.000000
  70
    32
  0
VERTEX
  8
0
  5
A2A
 10
115.563
 20
122.958
 30
0.000000
  70
    32
  0
VERTEX
  8
0
  5
A2B
 10
115.597
 20
122.936
 30
0.000000
  70
    32
  0
VERTEX
  8
0
  5
A2C
 10
115.630
 20
122.914
 30
0.000000
  70
    32
  0
VERTEX
  8
0
  5
A2D
 10
115.663
 20
122.891
 30
0.000000
  70
    32
  0
VERTEX
  8
0
  5
A2E
 10
115.695
 20
122.868
 30
0.000000
  70
    32
  0
VERTEX
  8
0
  5
A2F
 10
115.727
 20
122.843
 30
0.000000
  70
    32
  0
VERTEX
  8
0
  5
A30
 10
115.758
 20
122.819
 30
0.000000
  70
    32
  0
VERTEX
  8
0
  5
A31
 10
115.788
 20
122.793
 30
0.000000
  70
    32
  0
VERTEX
  8
0
  5
A32
 10
115.817
 20
122.767
 30
0.000000
  70
    32
  0
VERTEX
  8
0
  5
A33
 10
115.845
 20
122.740
 30
0.000000
  70
    32
  0
VERTEX
  8
0
  5
A34
 10
115.873
 20
122.713
 30
0.000000
  70
    32
  0
VERTEX
  8
0
  5
A35
 10
115.900
 20
122.685
 30
0.000000
  70
    32
  0
VERTEX
  8
0
  5
A36
 10
115.926
 20
122.657
 30
0.000000
  70
    32
  0
VERTEX
  8
0
  5
A37
 10
115.951
 20
122.628
 30
0.000000
  70
    32
  0
VERTEX
  8
0
  5
A38
 10
115.975
 20
122.599
 30
0.000000
  70
    32
  0
VERTEX
  8
0
  5
A39
 10
115.999
 20
122.569
 30
0.000000
  70
    32
  0
VERTEX
  8
0
  5
A3A
 10
116.021
 20
122.539
 30
0.000000
  70
    32
  0
VERTEX
  8
0
  5
A3B
 10
116.043
 20
122.508
 30
0.000000
  70
    32
  0
VERTEX
  8
0
  5
A3C
 10
116.064
 20
122.477
 30
0.000000
  70
    32
  0
VERTEX
  8
0
  5
A3D
 10
116.083
 20
122.445
 30
0.000000
  70
    32
  0
VERTEX
  8
0
  5
A3E
 10
116.102
 20
122.413
 30
0.000000
  70
    32
  0
VERTEX
  8
0
  5
A3F
 10
116.120
 20
122.381
 30
0.000000
  70
    32
  0
VERTEX
  8
0
  5
A40
 10
116.137
 20
122.348
 30
0.000000
  70
    32
  0
VERTEX
  8
0
  5
A41
 10
116.153
 20
122.315
 30
0.000000
  70
    32
  0
VERTEX
  8
0
  5
A42
 10
116.168
 20
122.282
 30
0.000000
  70
    32
  0
VERTEX
  8
0
  5
A43
 10
116.182
 20
122.248
 30
0.000000
  70
    32
  0
VERTEX
  8
0
  5
A44
 10
116.195
 20
122.214
 30
0.000000
  70
    32
  0
VERTEX
  8
0
  5
A45
 10
116.207
 20
122.180
 30
0.000000
  70
    32
  0
VERTEX
  8
0
  5
A46
 10
116.218
 20
122.146
 30
0.000000
  70
    32
  0
VERTEX
  8
0
  5
A47
 10
116.228
 20
122.111
 30
0.000000
  70
    32
  0
VERTEX
  8
0
  5
A48
 10
116.237
 20
122.076
 30
0.000000
  70
    32
  0
VERTEX
  8
0
  5
A49
 10
116.244
 20
122.041
 30
0.000000
  70
    32
  0
VERTEX
  8
0
  5
A4A
 10
116.251
 20
122.006
 30
0.000000
  70
    32
  0
VERTEX
  8
0
  5
A4B
 10
116.257
 20
121.971
 30
0.000000
  70
    32
  0
VERTEX
  8
0
  5
A4C
 10
116.262
 20
121.935
 30
0.000000
  70
    32
  0
VERTEX
  8
0
  5
A4D
 10
116.265
 20
121.900
 30
0.000000
  70
    32
  0
VERTEX
  8
0
  5
A4E
 10
116.268
 20
121.864
 30
0.000000
  70
    32
  0
VERTEX
  8
0
  5
A4F
 10
116.270
 20
121.829
 30
0.000000
  70
    32
  0
VERTEX
  8
0
  5
A50
 10
116.270
 20
121.793
 30
0.000000
  70
    32
  0
SEQEND
  8
0
  5
A51
  0
LINE
  5
6E9
  8
0
 10
112.7701678035944
 20
119.3364453917782
 30
0.0
 11
109.47016780359451
 21
119.3364453917782
 31
0.0
  0
LINE
  5
6EA
  8
0
 10
112.7701678035944
 20
118.40121039177821
 30
0.0
 11
109.47016780359451
 21
118.40121039177821
 31
0.0
  0
LINE
  5
6EB
  8
0
 10
112.7701678035944
 20
123.2431963917782
 30
0.0
 11
109.47016780359451
 21
123.2431963917782
 31
0.0
  0
LINE
  5
6EC
  8
0
 10
112.7701678035944
 20
122.9723643917782
 30
0.0
 11
109.47016780359451
 21
122.9723643917782
 31
0.0
  0
LINE
  5
6ED
  8
0
 10
112.7701678035944
 20
122.5611493917782
 30
0.0
 11
109.47016780359451
 21
122.5611493917782
 31
0.0
  0
LINE
  5
6EE
  8
0
 10
118.97016780359451
 20
123.2431963917782
 30
0.0
 11
116.2701678035944
 21
123.2431963917782
 31
0.0
  0
LINE
  5
6EF
  8
0
 10
112.7701678035944
 20
103.9931963917782
 30
0.0
 11
109.47016780359451
 21
103.9931963917782
 31
0.0
  0
LINE
  5
6F0
  8
0
 10
112.7701678035944
 20
111.2390403917782
 30
0.0
 11
109.47016780359451
 21
111.2390403917782
 31
0.0
  0
LINE
  5
6F1
  8
0
 10
112.7701678035944
 20
112.59049439177819
 30
0.0
 11
109.47016780359451
 21
112.59049439177819
 31
0.0
  0
INSERT
  5
6F2
  8
0
  2
*X0
 10
-181.06553173533109
 20
0.4861520272698386
 30
0.0
  0
CIRCLE
  5
6F3
  8
0
 10
53.970167803594499
 20
103.2431963917782
 30
0.0
 40
21.5
  0
CIRCLE
  5
6F4
  8
0
 10
53.970167803594499
 20
103.2431963917782
 30
0.0
 40
14.0
  0
CIRCLE
  5
6F5
  8
0
 10
53.970167803594499
 20
103.2431963917782
 30
0.0
 40
16.5
  0
CIRCLE
  5
6F6
  8
0
 10
53.970167803594499
 20
103.2431963917782
 30
0.0
 40
19.5
  0
LINE
  5
6F7
  8
0
 10
42.481042510518421
 20
95.24319639177827
 30
0.0
 11
65.459293096670478
 21
95.24319639177827
 31
0.0
  0
LINE
  5
6F8
  8
0
 10
39.990271523578542
 20
103.9931963917782
 30
0.0
 11
67.950064083610243
 21
103.9931963917782
 31
0.0
  0
LINE
  5
6F9
  8
0
 10
39.990271523578542
 20
102.4931963917782
 30
0.0
 11
67.950064083610243
 21
102.4931963917782
 31
0.0
  0
ARC
  5
6FA
  8
0
 10
53.970167803594499
 20
118.2431963917782
 30
0.0
 40
4.5
 50
201.39618653817331
 51
338.6038134618268
  0
TEXT
  5
6FB
  8
3
 10
46.332667803594497
 20
96.843196391778235
 30
0.0
 40
1.5
  1
ELESA
 41
2.3500000000000001
  7
SIM235
 72
     1
 11
53.970167803594499
 21
96.843196391778235
 31
0.0
  0
LINE
  5
6FC
  8
1
 10
80.470167803594506
 20
103.2431963917782
 30
0.0
 11
27.47016780359451
 21
103.2431963917782
 31
0.0
  0
LINE
  5
6FD
  8
1
 10
53.970167803594499
 20
129.74319639177821
 30
0.0
 11
53.970167803594499
 21
76.743196391778213
 31
0.0
  0
TEXT
  5
7B9
  8
0
 62
     3
 10
0.0
 20
0.0
 30
0.0
 40
10.0
  1
LE-40
  7
STANDARD1
  0
ENDSEC
  0
EOF
