  0
SECTION
  2
HEADER
  9
$ACADVER
  1
AC1009
  9
$INSBASE
 10
0.0
 20
0.0
 30
0.0
  9
$EXTMIN
 10
0.0
 20
-1.4802182810368341
 30
0.0
  9
$EXTMAX
 10
158.90208999999999
 20
124.90008
 30
0.0
  9
$LIMMIN
 10
0.0
 20
0.0
  9
$LIMMAX
 10
187.5
 20
135.0
  9
$ORTHOMODE
 70
     0
  9
$REGENMODE
 70
     1
  9
$FILLMODE
 70
     1
  9
$QTEXTMODE
 70
     0
  9
$MIRRTEXT
 70
     0
  9
$DRAGMODE
 70
     2
  9
$LTSCALE
 40
5.0
  9
$OSMODE
 70
  3071
  9
$ATTMODE
 70
     1
  9
$TEXTSIZE
 40
0.2
  9
$TRACEWID
 40
0.05
  9
$TEXTSTYLE
  7
STANDARD
  9
$CLAYER
  8
0
  9
$CELTYPE
  6
BYLAYER
  9
$CECOLOR
 62
   256
  9
$DIMSCALE
 40
0.5
  9
$DIMASZ
 40
3.0
  9
$DIMEXO
 40
2.0
  9
$DIMDLI
 40
10.0
  9
$DIMRND
 40
0.0
  9
$DIMDLE
 40
0.0
  9
$DIMEXE
 40
2.0
  9
$DIMTP
 40
0.0
  9
$DIMTM
 40
0.0
  9
$DIMTXT
 40
3.0
  9
$DIMCEN
 40
0.09
  9
$DIMTSZ
 40
0.0
  9
$DIMTOL
 70
     0
  9
$DIMLIM
 70
     0
  9
$DIMTIH
 70
     0
  9
$DIMTOH
 70
     0
  9
$DIMSE1
 70
     0
  9
$DIMSE2
 70
     0
  9
$DIMTAD
 70
     1
  9
$DIMZIN
 70
     0
  9
$DIMBLK
  1

  9
$DIMASO
 70
     1
  9
$DIMSHO
 70
     0
  9
$DIMPOST
  1

  9
$DIMAPOST
  1

  9
$DIMALT
 70
     0
  9
$DIMALTD
 70
     2
  9
$DIMALTF
 40
25.399999999999999
  9
$DIMLFAC
 40
1.0
  9
$DIMTOFL
 70
     1
  9
$DIMTVP
 40
1.6000000000000001
  9
$DIMTIX
 70
     1
  9
$DIMSOXD
 70
     0
  9
$DIMSAH
 70
     0
  9
$DIMBLK1
  1

  9
$DIMBLK2
  1

  9
$DIMSTYLE
  2
STANDARD
  9
$DIMCLRD
 70
     0
  9
$DIMCLRE
 70
     0
  9
$DIMCLRT
 70
     0
  9
$DIMTFAC
 40
1.0
  9
$DIMGAP
 40
0.09
  9
$LUNITS
 70
     2
  9
$LUPREC
 70
     4
  9
$SKETCHINC
 40
0.1
  9
$FILLETRAD
 40
0.0
  9
$AUNITS
 70
     0
  9
$AUPREC
 70
     0
  9
$MENU
  1
E:\r13\win\SUPPORT\ACAD
  9
$ELEVATION
 40
0.0
  9
$PELEVATION
 40
0.0
  9
$THICKNESS
 40
0.0
  9
$LIMCHECK
 70
     0
  9
$BLIPMODE
 70
     0
  9
$CHAMFERA
 40
0.0
  9
$CHAMFERB
 40
0.0
  9
$SKPOLY
 70
     0
  9
$TDCREATE
 40
2449840.618946759
  9
$TDUPDATE
 40
2456597.5721938889
  9
$TDINDWG
 40
0.0204072685
  9
$TDUSRTIMER
 40
0.0204072685
  9
$USRTIMER
 70
     1
  9
$ANGBASE
 50
0.0
  9
$ANGDIR
 70
     0
  9
$PDMODE
 70
     0
  9
$PDSIZE
 40
0.0
  9
$PLINEWID
 40
0.0
  9
$COORDS
 70
     1
  9
$SPLFRAME
 70
     0
  9
$SPLINETYPE
 70
     6
  9
$SPLINESEGS
 70
     8
  9
$ATTDIA
 70
     0
  9
$ATTREQ
 70
     1
  9
$HANDLING
 70
     1
  9
$HANDSEED
  5
707
  9
$SURFTAB1
 70
     6
  9
$SURFTAB2
 70
     6
  9
$SURFTYPE
 70
     6
  9
$SURFU
 70
     6
  9
$SURFV
 70
     6
  9
$UCSNAME
  2

  9
$UCSORG
 10
0.0
 20
0.0
 30
0.0
  9
$UCSXDIR
 10
1.0
 20
0.0
 30
0.0
  9
$UCSYDIR
 10
0.0
 20
1.0
 30
0.0
  9
$PUCSNAME
  2

  9
$PUCSORG
 10
0.0
 20
0.0
 30
0.0
  9
$PUCSXDIR
 10
1.0
 20
0.0
 30
0.0
  9
$PUCSYDIR
 10
0.0
 20
1.0
 30
0.0
  9
$USERI1
 70
     0
  9
$USERI2
 70
     1
  9
$USERI3
 70
     1
  9
$USERI4
 70
     0
  9
$USERI5
 70
     0
  9
$USERR1
 40
0.0
  9
$USERR2
 40
0.0
  9
$USERR3
 40
0.0
  9
$USERR4
 40
0.0
  9
$USERR5
 40
0.0
  9
$WORLDVIEW
 70
     1
  9
$SHADEDGE
 70
     3
  9
$SHADEDIF
 70
    70
  9
$TILEMODE
 70
     1
  9
$MAXACTVP
 70
    16
  9
$PLIMCHECK
 70
     0
  9
$PEXTMIN
 10
1.0000000000000000E+020
 20
1.0000000000000000E+020
 30
1.0000000000000000E+020
  9
$PEXTMAX
 10
-1.0000000000000000E+020
 20
-1.0000000000000000E+020
 30
-1.0000000000000000E+020
  9
$PLIMMIN
 10
0.0
 20
0.0
  9
$PLIMMAX
 10
12.0
 20
9.0
  9
$UNITMODE
 70
     0
  9
$VISRETAIN
 70
     0
  9
$PLINEGEN
 70
     0
  9
$PSLTSCALE
 70
     0
  0
ENDSEC
  0
SECTION
  2
TABLES
  0
TABLE
  2
VPORT
 70
     1
  0
VPORT
  2
*ACTIVE
 70
     0
 10
0.0
 20
0.0
 11
1.0
 21
1.0
 12
93.74713919532617
 22
81.430819429735848
 13
0.0
 23
0.0
 14
5.0
 24
5.0
 15
5.0
 25
5.0
 16
0.0
 26
0.0
 36
1.0
 17
0.0
 27
0.0
 37
0.0
 40
167.40500581387491
 41
1.9089595375722539
 42
50.0
 43
0.0
 44
0.0
 50
0.0
 51
0.0
 71
     0
 72
   100
 73
     1
 74
     0
 75
     0
 76
     0
 77
     0
 78
     2
  0
ENDTAB
  0
TABLE
  2
LTYPE
 70
     4
  0
LTYPE
  2
CONTINUOUS
 70
     0
  3
Solid Line
 72
    65
 73
     0
 40
0.0
  0
LTYPE
  2
CENTER
 70
     0
  3
____ _ ____ _ ____ _ ____ _ ____ _ ____ _ ____
 72
    65
 73
     4
 40
2.0
 49
1.25
 49
-0.25
 49
0.25
 49
-0.25
  0
LTYPE
  2
HIDDEN
 70
     0
  3
_ _ _ _ _ _ _ _ _ _ _ _ _ _ _ _ _ _ _ _ _ _ _
 72
    65
 73
     2
 40
0.375
 49
0.25
 49
-0.125
  0
LTYPE
  2
PHANTOM2
 70
     0
  3
___ _ _ ___ _ _ ___ _ _ ___ _ _
 72
    65
 73
     6
 40
1.25
 49
0.625
 49
-0.125
 49
0.125
 49
-0.125
 49
0.125
 49
-0.125
  0
ENDTAB
  0
TABLE
  2
LAYER
 70
     4
  0
LAYER
  2
0
 70
     0
 62
     7
  6
CONTINUOUS
  0
LAYER
  2
1
 70
     0
 62
     1
  6
CENTER
  0
LAYER
  2
2
 70
     0
 62
     2
  6
HIDDEN
  0
LAYER
  2
3
 70
     0
 62
     3
  6
CONTINUOUS
  0
ENDTAB
  0
TABLE
  2
STYLE
 70
     2
  0
STYLE
  2
STANDARD
 70
     0
 40
0.0
 41
1.0
 50
0.0
 71
     0
 42
0.2
  3
TXT
  4
BIGFONT
  0
STYLE
  2
STANDARD1
 70
     0
 40
0.0
 41
1.0
 50
0.0
 71
     0
 42
3.0
  3
txt
  4

  0
ENDTAB
  0
TABLE
  2
VIEW
 70
     1
  0
VIEW
  2
ALL
 70
     0
 40
135.0
 10
110.49579799999999
 20
67.5
 41
0.0
 11
0.0
 21
0.0
 31
1.0
 12
0.0
 22
0.0
 32
0.0
 42
0.0
 43
0.0
 44
0.0
 50
0.0
 71
     0
  0
ENDTAB
  0
TABLE
  2
UCS
 70
     0
  0
ENDTAB
  0
TABLE
  2
APPID
 70
     3
  0
APPID
  2
ACAD
 70
     0
  0
APPID
  2
ACAD_MLEADERVER
 70
     0
  0
APPID
  2
ACAD_NAV_VCDISPLAY
 70
     0
  0
ENDTAB
  0
TABLE
  2
DIMSTYLE
 70
     1
  0
DIMSTYLE
  2
STANDARD
 70
     0
  3

  4

  5

  6

  7

 40
1.0
 41
0.18
 42
0.0625
 43
0.38
 44
0.18
 45
0.0
 46
0.0
 47
0.0
 48
0.0
140
0.18
141
0.09
142
0.0
143
25.399999999999999
144
1.0
145
0.0
146
1.0
147
0.09
 71
     0
 72
     0
 73
     1
 74
     1
 75
     0
 76
     0
 77
     0
 78
     0
170
     0
171
     2
172
     0
173
     0
174
     0
175
     0
176
     0
177
     0
178
     0
  0
ENDTAB
  0
ENDSEC
  0
SECTION
  2
BLOCKS
  0
BLOCK
  8
0
  2
$MODEL_SPACE
 70
     0
 10
0.0
 20
0.0
 30
0.0
  3
$MODEL_SPACE
  1

  0
ENDBLK
  5
4D9
  8
0
  0
BLOCK
 67
     1
  8
0
  2
$PAPER_SPACE
 70
     0
 10
0.0
 20
0.0
 30
0.0
  3
$PAPER_SPACE
  1

  0
ENDBLK
  5
4D7
 67
     1
  8
0
  0
ENDSEC
  0
SECTION
  2
ENTITIES
  0
LINE
  5
36
  8
1
 10
27.675328000000011
 20
78.900080000000003
 30
0.0
 11
44.675327999999993
 21
78.900080000000003
 31
0.0
  0
LINE
  5
37
  8
1
 10
77.913426999999999
 20
78.900080000000003
 30
0.0
 11
111.413427
 21
78.900080000000003
 31
0.0
  0
LINE
  5
38
  8
1
 10
141.90208999999999
 20
78.900080000000003
 30
0.0
 11
158.90208999999999
 21
78.900080000000003
 31
0.0
  0
LINE
  5
39
  8
1
 10
150.40208999999999
 20
87.400080000000017
 30
0.0
 11
150.40208999999999
 21
70.400080000000003
 31
0.0
  0
LINE
  5
3A
  8
1
 10
36.175328000000007
 20
87.400080000000017
 30
0.0
 11
36.175328000000007
 21
70.400080000000003
 31
0.0
  0
LINE
  5
3B
  8
0
 10
104.963427
 20
84.900079999999988
 30
0.0
 11
81.613427000000001
 21
84.900080000000017
 31
0.0
  0
LINE
  5
3C
  8
3
 10
105.910427
 20
83.953079999999986
 30
0.0
 11
80.666426999999999
 21
83.953079999999986
 31
0.0
  0
LINE
  5
3D
  8
3
 10
105.910427
 20
73.847080000000005
 30
0.0
 11
80.666426999999999
 21
73.847080000000005
 31
0.0
  0
LINE
  5
3E
  8
0
 10
104.963427
 20
72.900080000000003
 30
0.0
 11
81.613427000000001
 21
72.900080000000003
 31
0.0
  0
LINE
  5
44
  8
0
 10
106.413427
 20
83.450079999999986
 30
0.0
 11
106.413427
 21
74.350080000000005
 31
0.0
  0
LINE
  5
47
  8
0
 10
80.413426999999984
 20
83.70008
 30
0.0
 11
80.413426999999984
 21
74.100080000000005
 31
0.0
  0
LINE
  5
48
  8
0
 10
81.613427000000001
 20
84.900080000000017
 30
0.0
 11
80.413426999999984
 21
83.70008
 31
0.0
  0
LINE
  5
49
  8
0
 10
80.413426999999984
 20
74.100080000000005
 30
0.0
 11
81.613427000000001
 21
72.900080000000003
 31
0.0
  0
CIRCLE
  5
4A
  8
0
 10
150.40208999999999
 20
78.900080000000003
 30
0.0
 40
6.0
  0
CIRCLE
  5
4B
  8
3
 10
150.40208999999999
 20
78.900080000000003
 30
0.0
 40
5.052999999999999
  0
CIRCLE
  5
4C
  8
0
 10
150.40208999999999
 20
78.900080000000003
 30
0.0
 40
4.0
  0
CIRCLE
  5
4D
  8
0
 10
36.175328000000007
 20
78.900080000000003
 30
0.0
 40
6.0
  0
CIRCLE
  5
4E
  8
3
 10
36.175328000000007
 20
78.900080000000003
 30
0.0
 40
5.052999999999999
  0
LINE
  5
52
  8
0
 10
81.613427000000001
 20
84.900080000000017
 30
0.0
 11
81.613427000000001
 21
72.900080000000003
 31
0.0
  0
LINE
  5
55
  8
0
 10
106.413427
 20
83.450079999999986
 30
0.0
 11
104.963427
 21
84.900080000000017
 31
0.0
  0
LINE
  5
56
  8
0
 10
106.413427
 20
74.350080000000005
 30
0.0
 11
104.963427
 21
72.900080000000003
 31
0.0
  0
LINE
  5
57
  8
0
 10
104.963427
 20
72.900080000000003
 30
0.0
 11
104.963427
 21
84.900080000000017
 31
0.0
  0
CIRCLE
  5
58
  8
0
 10
150.40208999999999
 20
78.900080000000003
 30
0.0
 40
4.5499999999999989
  0
ARC
  5
125
  8
0
 10
104.913427
 20
78.900080000000003
 30
0.0
 40
4.0
 50
292.02431283704209
 51
67.975687162957854
  0
ARC
  5
129
  8
2
 10
102.413427
 20
78.900080000000003
 30
0.0
 40
4.0
 50
292.02431283704209
 51
67.975687162957854
  0
LINE
  5
205
  8
2
 10
85.413426999999984
 20
75.435978387683065
 30
0.0
 11
85.413426999999984
 21
82.364181612317566
 31
0.0
  0
LINE
  5
207
  8
2
 10
80.413426999999984
 20
75.435978387683065
 30
0.0
 11
85.413426999999984
 21
75.435978387683065
 31
0.0
  0
LINE
  5
208
  8
2
 10
80.413426999999984
 20
77.168029193842131
 30
0.0
 11
85.413426999999984
 21
77.168029193842131
 31
0.0
  0
LINE
  5
209
  8
2
 10
80.413426999999984
 20
80.632130806157946
 30
0.0
 11
85.413426999999984
 21
80.632130806157946
 31
0.0
  0
LINE
  5
20A
  8
2
 10
80.413426999999942
 20
82.364181612317566
 30
0.0
 11
85.413426999999984
 21
82.364181612317566
 31
0.0
  0
LINE
  5
215
  8
0
 10
39.175327997559037
 20
80.632130806160092
 30
0.0
 11
39.175327997559037
 21
77.168029191022413
 31
0.0
  0
LINE
  5
216
  8
0
 10
33.175328002443031
 20
77.168029193841846
 30
0.0
 11
33.175328002443031
 21
80.632130808979525
 31
0.0
  0
LINE
  5
217
  8
0
 10
33.175328002443031
 20
80.632130806159637
 30
0.0
 11
36.175328002443031
 21
82.364181613728704
 31
0.0
  0
LINE
  5
218
  8
0
 10
36.175328000000121
 20
82.364181612316713
 30
0.0
 11
39.175328000000121
 21
80.632130804748556
 31
0.0
  0
LINE
  5
219
  8
0
 10
39.175327997555399
 20
77.168029193840027
 30
0.0
 11
36.175327997559037
 21
75.435978386270961
 31
0.0
  0
LINE
  5
21A
  8
0
 10
36.175328000000121
 20
75.435978387682951
 30
0.0
 11
33.175328000000121
 21
77.168029195251108
 31
0.0
  0
LINE
  5
2CD
  8
0
 10
104.963427
 20
124.90008
 30
0.0
 11
81.613427000000001
 21
124.90008
 31
0.0
  0
LINE
  5
2CE
  8
3
 10
105.910427
 20
123.95308
 30
0.0
 11
80.666426999999999
 21
123.95308
 31
0.0
  0
LINE
  5
2CF
  8
1
 10
77.913426999999999
 20
118.90008
 30
0.0
 11
111.413427
 21
118.90008
 31
0.0
  0
LINE
  5
2D0
  8
3
 10
105.910427
 20
113.84708000000001
 30
0.0
 11
80.666426999999999
 21
113.84708000000001
 31
0.0
  0
LINE
  5
2D1
  8
0
 10
104.963427
 20
112.90008
 30
0.0
 11
81.613427000000001
 21
112.90008
 31
0.0
  0
LINE
  5
2D2
  8
0
 10
80.413426999999984
 20
123.70008
 30
0.0
 11
80.413426999999984
 21
114.10008000000001
 31
0.0
  0
LINE
  5
2D3
  8
2
 10
85.413427000000013
 20
115.90008
 30
0.0
 11
85.413427000000013
 21
121.90008
 31
0.0
  0
LINE
  5
2D5
  8
0
 10
81.613427000000001
 20
124.90008
 30
0.0
 11
81.613427000000001
 21
112.90008
 31
0.0
  0
LINE
  5
2D6
  8
2
 10
80.413426999999984
 20
115.90008
 30
0.0
 11
85.413426999999984
 21
115.90008
 31
0.0
  0
LINE
  5
2D7
  8
0
 10
80.413426999999984
 20
114.10008000000001
 30
0.0
 11
81.613427000000001
 21
112.90008
 31
0.0
  0
LINE
  5
2DA
  8
2
 10
80.413426999999984
 20
118.90008
 30
0.0
 11
85.413426999999984
 21
118.90008
 31
0.0
  0
LINE
  5
2DB
  8
2
 10
80.413426999999956
 20
121.90008
 30
0.0
 11
85.413427000000013
 21
121.90008
 31
0.0
  0
LINE
  5
2DC
  8
0
 10
81.613427000000001
 20
124.90008
 30
0.0
 11
80.413426999999984
 21
123.70008
 31
0.0
  0
ARC
  5
2DD
  8
0
 10
104.913427
 20
118.90008
 30
0.0
 40
4.0
 50
292.02431283704209
 51
67.975687162957854
  0
LINE
  5
2DE
  8
0
 10
106.413427
 20
123.45008
 30
0.0
 11
106.413427
 21
114.35008000000001
 31
0.0
  0
ARC
  5
2DF
  8
2
 10
102.413427
 20
118.90008
 30
0.0
 40
4.0
 50
292.02431283704209
 51
67.975687162957854
  0
LINE
  5
2E0
  8
0
 10
104.963427
 20
112.90008
 30
0.0
 11
104.963427
 21
124.90008
 31
0.0
  0
LINE
  5
2E1
  8
0
 10
106.413427
 20
114.35008000000001
 30
0.0
 11
104.963427
 21
112.90008
 31
0.0
  0
LINE
  5
2E2
  8
0
 10
106.413427
 20
123.45008
 30
0.0
 11
104.963427
 21
124.90008
 31
0.0
  0
LINE
  5
2E3
  8
0
 10
104.963427
 20
44.900079999999981
 30
0.0
 11
81.613427000000001
 21
44.900080000000003
 31
0.0
  0
LINE
  5
2E4
  8
3
 10
105.910427
 20
43.953079999999993
 30
0.0
 11
80.666426999999999
 21
43.953079999999993
 31
0.0
  0
LINE
  5
2E5
  8
1
 10
77.913426999999999
 20
38.900080000000003
 30
0.0
 11
111.413427
 21
38.900080000000003
 31
0.0
  0
LINE
  5
2E6
  8
3
 10
105.910427
 20
33.847080000000012
 30
0.0
 11
80.666426999999999
 21
33.847080000000012
 31
0.0
  0
LINE
  5
2E7
  8
0
 10
104.963427
 20
32.900080000000003
 30
0.0
 11
81.613427000000001
 21
32.900080000000003
 31
0.0
  0
LINE
  5
2E8
  8
0
 10
80.413426999999984
 20
43.70008
 30
0.0
 11
80.413426999999984
 21
34.100080000000013
 31
0.0
  0
LINE
  5
2EB
  8
0
 10
81.613427000000001
 20
44.900080000000003
 30
0.0
 11
81.613427000000001
 21
32.900080000000003
 31
0.0
  0
LINE
  5
2ED
  8
0
 10
80.413426999999984
 20
34.100080000000013
 30
0.0
 11
81.613427000000001
 21
32.900080000000003
 31
0.0
  0
LINE
  5
2F2
  8
0
 10
81.613427000000001
 20
44.900080000000003
 30
0.0
 11
80.413426999999984
 21
43.70008
 31
0.0
  0
ARC
  5
2F3
  8
0
 10
104.913427
 20
38.900080000000003
 30
0.0
 40
4.0
 50
292.02431283704209
 51
67.975687162957854
  0
LINE
  5
2F4
  8
0
 10
106.413427
 20
43.450079999999993
 30
0.0
 11
106.413427
 21
34.350080000000013
 31
0.0
  0
ARC
  5
2F5
  8
2
 10
102.413427
 20
38.900080000000003
 30
0.0
 40
4.0
 50
292.02431283704209
 51
67.975687162957854
  0
LINE
  5
2F6
  8
0
 10
104.963427
 20
32.900080000000003
 30
0.0
 11
104.963427
 21
44.900080000000003
 31
0.0
  0
LINE
  5
2F7
  8
0
 10
106.413427
 20
34.350080000000013
 30
0.0
 11
104.963427
 21
32.900080000000003
 31
0.0
  0
LINE
  5
2F8
  8
0
 10
106.413427
 20
43.450079999999993
 30
0.0
 11
104.963427
 21
44.900080000000003
 31
0.0
  0
LINE
  5
42F
  8
2
 10
106.26342699999999
 20
83.600080000000005
 30
0.0
 11
91.013427000000007
 21
83.600080000000005
 31
0.0
  0
LINE
  5
434
  8
2
 10
91.013427000000007
 20
83.600080000000005
 30
0.0
 11
91.013427000000007
 21
84.900080000000017
 31
0.0
  0
LINE
  5
43F
  8
2
 10
102.410427
 20
84.900080000000017
 30
0.0
 11
102.410427
 21
83.600080000000005
 31
0.0
  0
LINE
  5
440
  8
2
 10
92.410427000000013
 20
83.600080000000005
 30
0.0
 11
92.410427000000013
 21
84.900080000000017
 31
0.0
  0
LINE
  5
448
  8
2
 10
92.410427000000013
 20
84.900080000000017
 30
0.0
 11
102.410427
 21
84.900080000000017
 31
0.0
  0
LINE
  5
462
  8
0
 10
149.85209
 20
84.874818000000005
 30
0.0
 11
149.85209
 21
83.600080000000005
 31
0.0
  0
LINE
  5
463
  8
0
 10
150.95209
 20
84.874818000000005
 30
0.0
 11
150.95209
 21
83.600080000000005
 31
0.0
  0
LINE
  5
476
  8
0
 10
149.85209
 20
83.600080000000005
 30
0.0
 11
150.95209
 21
83.600080000000005
 31
0.0
  0
LINE
  5
477
  8
0
 10
106.26342699999999
 20
119.55007999999999
 30
0.0
 11
91.013427000000007
 21
119.55007999999999
 31
0.0
  0
LINE
  5
47D
  8
0
 10
106.26342699999999
 20
118.25008
 30
0.0
 11
91.013427000000007
 21
118.25008
 31
0.0
  0
LINE
  5
481
  8
0
 10
91.013427000000007
 20
118.25008
 30
0.0
 11
91.013427000000007
 21
119.55007999999999
 31
0.0
  0
LINE
  5
48B
  8
0
 10
92.410426999999984
 20
118.25008
 30
0.0
 11
92.410426999999984
 21
119.55007999999999
 31
0.0
  0
LINE
  5
48C
  8
0
 10
102.410427
 20
119.55007999999999
 30
0.0
 11
102.410427
 21
118.25008
 31
0.0
  0
LINE
  5
48D
  8
0
 10
106.26342699999999
 20
119.55007999999999
 30
0.0
 11
106.26342699999999
 21
118.25008
 31
0.0
  0
ARC
  5
49A
  8
0
 10
150.61832216825309
 20
84.250079520677005
 30
0.0
 40
0.7662321682532046
 50
179.99996415813999
 51
199.31503517731429
  0
ARC
  5
49B
  8
0
 10
150.51255662669561
 20
84.213009310578158
 30
0.0
 40
0.6541583075296936
 50
199.31499522430229
 51
220.23633847605871
  0
ARC
  5
49C
  8
0
 10
150.44518606466971
 20
84.156002810780308
 30
0.0
 40
0.5659056381843579
 50
220.23628594672761
 51
243.91702202829771
  0
ARC
  5
49D
  8
0
 10
150.4020894011428
 20
84.067968354657026
 30
0.0
 40
0.4678883546574121
 50
243.91718204439721
 51
270.00007333370371
  0
ARC
  5
49E
  8
0
 10
150.40209059885709
 20
84.067968354657026
 30
0.0
 40
0.467888354657418
 50
269.99992666629629
 51
296.08281795560282
  0
ARC
  5
49F
  8
0
 10
150.3589939353302
 20
84.156002810780308
 30
0.0
 40
0.565905638184355
 50
296.08297797170218
 51
319.76371405327239
  0
ARC
  5
4A0
  8
0
 10
150.29162337330439
 20
84.213009310578315
 30
0.0
 40
0.6541583075297711
 50
319.76366152392922
 51
340.68500477568563
  0
ARC
  5
4A1
  8
0
 10
150.18585783174689
 20
84.250079520677005
 30
0.0
 40
0.766232168253208
 50
340.68496482268569
 51
0.0000358418599864
  0
ARC
  5
4A2
  8
0
 10
150.185857831747
 20
84.250080479323032
 30
0.0
 40
0.7662321682531477
 50
359.99996415814002
 51
19.315035177314702
  0
ARC
  5
4A3
  8
0
 10
150.29162337330439
 20
84.287150689421694
 30
0.0
 40
0.6541583075297721
 50
19.314995224314419
 51
40.236338476070792
  0
ARC
  5
4A4
  8
0
 10
150.3589939353302
 20
84.344157189219715
 30
0.0
 40
0.5659056381843488
 50
40.236285946726497
 51
63.917022028297758
  0
ARC
  5
4A5
  8
0
 10
150.40209059885709
 20
84.432191645342982
 30
0.0
 40
0.4678883546574121
 50
63.917182044397158
 51
90.000073333703625
  0
ARC
  5
4A6
  8
0
 10
150.4020894011428
 20
84.432191645342982
 30
0.0
 40
0.4678883546574038
 50
89.999926666296375
 51
116.08281795560281
  0
ARC
  5
4A7
  8
0
 10
150.44518606466971
 20
84.344157189219715
 30
0.0
 40
0.565905638184355
 50
116.08297797170221
 51
139.7637140532735
  0
ARC
  5
4A8
  8
0
 10
150.51255662669561
 20
84.28715068942185
 30
0.0
 40
0.6541583075296917
 50
139.76366152394121
 51
160.68500477569759
  0
ARC
  5
4A9
  8
0
 10
150.618322168253
 20
84.250080479323032
 30
0.0
 40
0.7662321682531497
 50
160.68496482268529
 51
180.00003584186001
  0
LINE
  5
5FF
  8
2
 10
85.413427000000013
 20
35.900080000000003
 30
0.0
 11
85.413427000000013
 21
41.900080000000003
 31
0.0
  0
LINE
  5
600
  8
2
 10
80.413426999999984
 20
35.900080000000003
 30
0.0
 11
85.413426999999984
 21
35.900080000000003
 31
0.0
  0
LINE
  5
601
  8
2
 10
80.413426999999984
 20
38.900080000000003
 30
0.0
 11
85.413426999999984
 21
38.900080000000003
 31
0.0
  0
LINE
  5
602
  8
2
 10
80.413426999999956
 20
41.900080000000003
 30
0.0
 11
85.413427000000013
 21
41.900080000000003
 31
0.0
  0
TEXT
  5
6A1
  8
0
 62
     3
 10
0.0
 20
0.0
 30
0.0
 40
5.0
  1
LBSUH12A
  7
STANDARD1
  0
ENDSEC
  0
EOF
