  0
SECTION
  2
HEADER
  9
$ACADVER
  1
AC1009
  9
$INSBASE
 10
0.0
 20
0.0
 30
0.0
  9
$EXTMIN
 10
0.0
 20
-1.4802182810368341
 30
0.0
  9
$EXTMAX
 10
143.76399499999999
 20
104.029796
 30
0.0
  9
$LIMMIN
 10
0.0
 20
0.0
  9
$LIMMAX
 10
187.5
 20
135.0
  9
$ORTHOMODE
 70
     1
  9
$REGENMODE
 70
     1
  9
$FILLMODE
 70
     1
  9
$QTEXTMODE
 70
     0
  9
$MIRRTEXT
 70
     0
  9
$DRAGMODE
 70
     2
  9
$LTSCALE
 40
2.0
  9
$OSMODE
 70
  3071
  9
$ATTMODE
 70
     1
  9
$TEXTSIZE
 40
2.0
  9
$TRACEWID
 40
0.05
  9
$TEXTSTYLE
  7
STANDARD
  9
$CLAYER
  8
0
  9
$CELTYPE
  6
BYLAYER
  9
$CECOLOR
 62
   256
  9
$DIMSCALE
 40
0.5
  9
$DIMASZ
 40
3.0
  9
$DIMEXO
 40
2.0
  9
$DIMDLI
 40
10.0
  9
$DIMRND
 40
0.0
  9
$DIMDLE
 40
0.0
  9
$DIMEXE
 40
2.0
  9
$DIMTP
 40
0.0
  9
$DIMTM
 40
0.0
  9
$DIMTXT
 40
3.2000000000000002
  9
$DIMCEN
 40
0.09
  9
$DIMTSZ
 40
0.0
  9
$DIMTOL
 70
     0
  9
$DIMLIM
 70
     0
  9
$DIMTIH
 70
     0
  9
$DIMTOH
 70
     0
  9
$DIMSE1
 70
     0
  9
$DIMSE2
 70
     0
  9
$DIMTAD
 70
     1
  9
$DIMZIN
 70
     0
  9
$DIMBLK
  1

  9
$DIMASO
 70
     1
  9
$DIMSHO
 70
     0
  9
$DIMPOST
  1

  9
$DIMAPOST
  1

  9
$DIMALT
 70
     0
  9
$DIMALTD
 70
     2
  9
$DIMALTF
 40
25.399999999999999
  9
$DIMLFAC
 40
1.0
  9
$DIMTOFL
 70
     1
  9
$DIMTVP
 40
1.6000000000000001
  9
$DIMTIX
 70
     0
  9
$DIMSOXD
 70
     0
  9
$DIMSAH
 70
     0
  9
$DIMBLK1
  1

  9
$DIMBLK2
  1

  9
$DIMSTYLE
  2
STANDARD
  9
$DIMCLRD
 70
     0
  9
$DIMCLRE
 70
     0
  9
$DIMCLRT
 70
     0
  9
$DIMTFAC
 40
1.0
  9
$DIMGAP
 40
0.09
  9
$LUNITS
 70
     2
  9
$LUPREC
 70
     4
  9
$SKETCHINC
 40
0.1
  9
$FILLETRAD
 40
0.5
  9
$AUNITS
 70
     0
  9
$AUPREC
 70
     0
  9
$MENU
  1
E:\r13\win\SUPPORT\ACAD
  9
$ELEVATION
 40
0.0
  9
$PELEVATION
 40
0.0
  9
$THICKNESS
 40
0.0
  9
$LIMCHECK
 70
     0
  9
$BLIPMODE
 70
     0
  9
$CHAMFERA
 40
0.0
  9
$CHAMFERB
 40
0.0
  9
$SKPOLY
 70
     0
  9
$TDCREATE
 40
2449840.6191087961
  9
$TDUPDATE
 40
2456597.5721714818
  9
$TDINDWG
 40
0.0001407755
  9
$TDUSRTIMER
 40
0.0001407755
  9
$USRTIMER
 70
     1
  9
$ANGBASE
 50
0.0
  9
$ANGDIR
 70
     0
  9
$PDMODE
 70
     0
  9
$PDSIZE
 40
0.0
  9
$PLINEWID
 40
0.0
  9
$COORDS
 70
     1
  9
$SPLFRAME
 70
     0
  9
$SPLINETYPE
 70
     6
  9
$SPLINESEGS
 70
     8
  9
$ATTDIA
 70
     0
  9
$ATTREQ
 70
     1
  9
$HANDLING
 70
     1
  9
$HANDSEED
  5
263
  9
$SURFTAB1
 70
     6
  9
$SURFTAB2
 70
     6
  9
$SURFTYPE
 70
     6
  9
$SURFU
 70
     6
  9
$SURFV
 70
     6
  9
$UCSNAME
  2

  9
$UCSORG
 10
0.0
 20
0.0
 30
0.0
  9
$UCSXDIR
 10
1.0
 20
0.0
 30
0.0
  9
$UCSYDIR
 10
0.0
 20
1.0
 30
0.0
  9
$PUCSNAME
  2

  9
$PUCSORG
 10
0.0
 20
0.0
 30
0.0
  9
$PUCSXDIR
 10
1.0
 20
0.0
 30
0.0
  9
$PUCSYDIR
 10
0.0
 20
1.0
 30
0.0
  9
$USERI1
 70
     0
  9
$USERI2
 70
     1
  9
$USERI3
 70
     1
  9
$USERI4
 70
     0
  9
$USERI5
 70
     0
  9
$USERR1
 40
0.0
  9
$USERR2
 40
0.0
  9
$USERR3
 40
0.0
  9
$USERR4
 40
0.0
  9
$USERR5
 40
0.0
  9
$WORLDVIEW
 70
     1
  9
$SHADEDGE
 70
     3
  9
$SHADEDIF
 70
    70
  9
$TILEMODE
 70
     1
  9
$MAXACTVP
 70
    16
  9
$PLIMCHECK
 70
     0
  9
$PEXTMIN
 10
1.0000000000000000E+020
 20
1.0000000000000000E+020
 30
1.0000000000000000E+020
  9
$PEXTMAX
 10
-1.0000000000000000E+020
 20
-1.0000000000000000E+020
 30
-1.0000000000000000E+020
  9
$PLIMMIN
 10
0.0
 20
0.0
  9
$PLIMMAX
 10
12.0
 20
9.0
  9
$UNITMODE
 70
     0
  9
$VISRETAIN
 70
     0
  9
$PLINEGEN
 70
     0
  9
$PSLTSCALE
 70
     0
  0
ENDSEC
  0
SECTION
  2
TABLES
  0
TABLE
  2
VPORT
 70
     1
  0
VPORT
  2
*ACTIVE
 70
     0
 10
0.0
 20
0.0
 11
1.0
 21
1.0
 12
93.74713919532617
 22
81.430819429735848
 13
0.0
 23
0.0
 14
5.0
 24
5.0
 15
5.0
 25
5.0
 16
0.0
 26
0.0
 36
1.0
 17
0.0
 27
0.0
 37
0.0
 40
167.40500581387491
 41
1.9089595375722539
 42
50.0
 43
0.0
 44
0.0
 50
0.0
 51
0.0
 71
     0
 72
   100
 73
     1
 74
     0
 75
     0
 76
     0
 77
     0
 78
     0
  0
ENDTAB
  0
TABLE
  2
LTYPE
 70
     4
  0
LTYPE
  2
CONTINUOUS
 70
     0
  3
Solid Line
 72
    65
 73
     0
 40
0.0
  0
LTYPE
  2
CENTER
 70
     0
  3
____ _ ____ _ ____ _ ____ _ ____ _ ____ _ ____
 72
    65
 73
     4
 40
2.0
 49
1.25
 49
-0.25
 49
0.25
 49
-0.25
  0
LTYPE
  2
HIDDEN
 70
     0
  3
_ _ _ _ _ _ _ _ _ _ _ _ _ _ _ _ _ _ _ _ _ _ _
 72
    65
 73
     2
 40
0.375
 49
0.25
 49
-0.125
  0
LTYPE
  2
PHANTOM2
 70
     0
  3
___ _ _ ___ _ _ ___ _ _ ___ _ _
 72
    65
 73
     6
 40
1.25
 49
0.625
 49
-0.125
 49
0.125
 49
-0.125
 49
0.125
 49
-0.125
  0
ENDTAB
  0
TABLE
  2
LAYER
 70
     4
  0
LAYER
  2
0
 70
     0
 62
     7
  6
CONTINUOUS
  0
LAYER
  2
1
 70
     0
 62
     1
  6
CENTER
  0
LAYER
  2
2
 70
     0
 62
     2
  6
HIDDEN
  0
LAYER
  2
3
 70
     0
 62
     3
  6
CONTINUOUS
  0
ENDTAB
  0
TABLE
  2
STYLE
 70
     2
  0
STYLE
  2
STANDARD
 70
     0
 40
0.0
 41
1.0
 50
0.0
 71
     0
 42
2.0
  3
ROMANS
  4
BIGFONT
  0
STYLE
  2
STANDARD1
 70
     0
 40
0.0
 41
1.0
 50
0.0
 71
     0
 42
3.0
  3
txt
  4

  0
ENDTAB
  0
TABLE
  2
VIEW
 70
     1
  0
VIEW
  2
ALL
 70
     0
 40
135.0
 10
110.29971
 20
67.5
 41
220.59942000000001
 11
0.0
 21
0.0
 31
1.0
 12
0.0
 22
0.0
 32
0.0
 42
0.0
 43
0.0
 44
0.0
 50
0.0
 71
     0
  0
ENDTAB
  0
TABLE
  2
UCS
 70
     0
  0
ENDTAB
  0
TABLE
  2
APPID
 70
     3
  0
APPID
  2
ACAD
 70
     0
  0
APPID
  2
ACAD_MLEADERVER
 70
     0
  0
APPID
  2
ACAD_NAV_VCDISPLAY
 70
     0
  0
ENDTAB
  0
TABLE
  2
DIMSTYLE
 70
     1
  0
DIMSTYLE
  2
STANDARD
 70
     0
  3

  4

  5

  6

  7

 40
1.0
 41
0.18
 42
0.0625
 43
0.38
 44
0.18
 45
0.0
 46
0.0
 47
0.0
 48
0.0
140
0.18
141
0.09
142
0.0
143
25.399999999999999
144
1.0
145
0.0
146
1.0
147
0.09
 71
     0
 72
     0
 73
     1
 74
     1
 75
     0
 76
     0
 77
     0
 78
     0
170
     0
171
     2
172
     0
173
     0
174
     0
175
     0
176
     0
177
     0
178
     0
  0
ENDTAB
  0
ENDSEC
  0
SECTION
  2
BLOCKS
  0
BLOCK
  8
0
  2
$MODEL_SPACE
 70
     0
 10
0.0
 20
0.0
 30
0.0
  3
$MODEL_SPACE
  1

  0
ENDBLK
  5
E0
  8
0
  0
BLOCK
 67
     1
  8
0
  2
$PAPER_SPACE
 70
     0
 10
0.0
 20
0.0
 30
0.0
  3
$PAPER_SPACE
  1

  0
ENDBLK
  5
DE
 67
     1
  8
0
  0
ENDSEC
  0
SECTION
  2
ENTITIES
  0
LINE
  5
39
  8
0
 10
101.616793
 20
73.133266000000006
 30
0.0
 11
101.616793
 21
66.033265999999983
 31
0.0
  0
LINE
  5
3A
  8
0
 10
83.616793000000001
 20
68.783265999999998
 30
0.0
 11
85.217435999999978
 21
68.783265999999998
 31
0.0
  0
LINE
  5
3B
  8
0
 10
83.616793000000001
 20
70.383266000000006
 30
0.0
 11
85.217435999999978
 21
70.383266000000006
 31
0.0
  0
LINE
  5
3C
  8
0
 10
48.681207999999998
 20
68.783265999999998
 30
0.0
 11
58.552378000000012
 21
68.783265999999998
 31
0.0
  0
LINE
  5
3D
  8
0
 10
48.681207999999998
 20
70.383266000000006
 30
0.0
 11
58.552378000000012
 21
70.383266000000006
 31
0.0
  0
LINE
  5
3E
  8
0
 10
102.616793
 20
73.133266000000006
 30
0.0
 11
102.616793
 21
66.033265999999983
 31
0.0
  0
LINE
  5
3F
  8
0
 10
83.616793000000001
 20
73.083265999999995
 30
0.0
 11
83.616793000000001
 21
70.383266000000006
 31
0.0
  0
LINE
  5
40
  8
0
 10
100.166793
 20
64.583266000000009
 30
0.0
 11
85.116793000000001
 21
64.583266000000009
 31
0.0
  0
LINE
  5
41
  8
3
 10
100.978793
 20
65.395266000000007
 30
0.0
 11
84.304793000000004
 21
65.395266000000007
 31
0.0
  0
LINE
  5
42
  8
3
 10
100.978793
 20
73.771265999999997
 30
0.0
 11
84.304793000000004
 21
73.771265999999997
 31
0.0
  0
LINE
  5
43
  8
0
 10
100.166793
 20
74.583266000000009
 30
0.0
 11
85.116793000000001
 21
74.583266000000009
 31
0.0
  0
CIRCLE
  5
44
  8
3
 10
53.616793000000008
 20
69.583266000000009
 30
0.0
 40
4.1879999999999988
  0
CIRCLE
  5
45
  8
0
 10
53.616793000000008
 20
69.583266000000009
 30
0.0
 40
5.0
  0
CIRCLE
  5
46
  8
3
 10
136.26399499999999
 20
69.583266000000009
 30
0.0
 40
4.1879999999999988
  0
ARC
  5
47
  8
0
 10
136.26399499999999
 20
69.583266000000009
 30
0.0
 40
5.0
 50
93.49034300000001
 51
86.509656999999976
  0
LINE
  5
48
  8
1
 10
81.116793000000001
 20
69.583266000000009
 30
0.0
 11
107.116793
 21
69.583266000000009
 31
0.0
  0
LINE
  5
49
  8
2
 10
85.616792999999987
 20
70.383266000000006
 30
0.0
 11
85.616792999999987
 21
68.783265999999998
 31
0.0
  0
LINE
  5
4A
  8
0
 10
85.217435999999978
 20
70.383266000000006
 30
0.0
 11
85.217435999999978
 21
68.783265999999998
 31
0.0
  0
ARC
  5
4B
  8
0
 10
101.616793
 20
69.583266000000009
 30
0.0
 40
3.0
 50
289.47122100000001
 51
70.528779
  0
LINE
  5
4C
  8
0
 10
83.616793000000001
 20
68.783265999999998
 30
0.0
 11
83.616793000000001
 21
66.083266000000009
 31
0.0
  0
LINE
  5
4D
  8
0
 10
83.616793000000001
 20
66.083266000000009
 30
0.0
 11
85.116793000000001
 21
64.583266000000009
 31
0.0
  0
LINE
  5
4E
  8
0
 10
83.616793000000001
 20
73.083265999999995
 30
0.0
 11
85.116793000000001
 21
74.583266000000009
 31
0.0
  0
LINE
  5
4F
  8
0
 10
85.116793000000001
 20
74.583266000000009
 30
0.0
 11
85.116793000000001
 21
70.383266000000006
 31
0.0
  0
LINE
  5
50
  8
0
 10
85.116793000000001
 20
68.783265999999998
 30
0.0
 11
85.116793000000001
 21
64.583266000000009
 31
0.0
  0
CIRCLE
  5
51
  8
0
 10
136.26399499999999
 20
69.583266000000009
 30
0.0
 40
3.0
  0
LINE
  5
52
  8
0
 10
101.616793
 20
73.133266000000006
 30
0.0
 11
102.616793
 21
73.133266000000006
 31
0.0
  0
LINE
  5
53
  8
0
 10
101.616793
 20
66.033265999999983
 30
0.0
 11
102.616793
 21
66.033265999999983
 31
0.0
  0
LINE
  5
54
  8
0
 10
101.616793
 20
73.133266000000006
 30
0.0
 11
100.166793
 21
74.583266000000009
 31
0.0
  0
LINE
  5
55
  8
0
 10
101.616793
 20
66.033265999999983
 30
0.0
 11
100.166793
 21
64.583266000000009
 31
0.0
  0
LINE
  5
56
  8
0
 10
100.166793
 20
74.583266000000009
 30
0.0
 11
100.166793
 21
64.583266000000009
 31
0.0
  0
CIRCLE
  5
57
  8
0
 10
136.26399499999999
 20
69.583266000000009
 30
0.0
 40
3.5499999999999989
  0
LINE
  5
58
  8
2
 10
85.217435999999978
 20
70.383266000000006
 30
0.0
 11
85.616792999999987
 21
70.383266000000006
 31
0.0
  0
LINE
  5
59
  8
2
 10
85.217435999999978
 20
68.783265999999998
 30
0.0
 11
85.616792999999987
 21
68.783265999999998
 31
0.0
  0
ARC
  5
5A
  8
2
 10
99.616793000000001
 20
69.583266000000009
 30
0.0
 40
3.0
 50
289.47122100000001
 51
70.528779
  0
LINE
  5
5B
  8
1
 10
61.116793000000008
 20
69.583266000000009
 30
0.0
 11
46.116793000000001
 21
69.583266000000009
 31
0.0
  0
LINE
  5
5C
  8
1
 10
53.616793000000008
 20
77.083266000000009
 30
0.0
 11
53.616793000000008
 21
62.083266000000002
 31
0.0
  0
LINE
  5
5D
  8
1
 10
143.76399499999999
 20
69.583266000000009
 30
0.0
 11
128.76399499999999
 21
69.583266000000009
 31
0.0
  0
LINE
  5
5E
  8
1
 10
136.26399499999999
 20
77.083266000000009
 30
0.0
 11
136.26399499999999
 21
62.083266000000002
 31
0.0
  0
LINE
  5
5F
  8
2
 10
101.366793
 20
73.383266000000006
 30
0.0
 11
87.616793000000001
 21
73.383266000000006
 31
0.0
  0
LINE
  5
60
  8
2
 10
87.616793000000001
 20
73.383266000000006
 30
0.0
 11
87.616793000000001
 21
74.583266000000009
 31
0.0
  0
LINE
  5
61
  8
0
 10
88.97879300000001
 20
74.583266000000009
 30
0.0
 11
88.97879300000001
 21
74.683266000000003
 31
0.0
  0
LINE
  5
62
  8
0
 10
88.97879300000001
 20
74.683266000000003
 30
0.0
 11
97.97879300000001
 21
74.683266000000003
 31
0.0
  0
LINE
  5
63
  8
0
 10
97.97879300000001
 20
74.683266000000003
 30
0.0
 11
97.97879300000001
 21
74.583266000000009
 31
0.0
  0
LINE
  5
64
  8
2
 10
88.97879300000001
 20
74.583266000000009
 30
0.0
 11
88.97879300000001
 21
73.383266000000006
 31
0.0
  0
LINE
  5
65
  8
2
 10
97.97879300000001
 20
74.583266000000009
 30
0.0
 11
97.97879300000001
 21
73.383266000000006
 31
0.0
  0
LINE
  5
66
  8
0
 10
135.71399500000001
 20
73.383266000000006
 30
0.0
 11
136.81399500000001
 21
73.383266000000006
 31
0.0
  0
LINE
  5
67
  8
0
 10
135.71399500000001
 20
74.552924000000004
 30
0.0
 11
135.71399500000001
 21
73.383266000000006
 31
0.0
  0
LINE
  5
68
  8
0
 10
136.81399500000001
 20
74.552924000000004
 30
0.0
 11
136.81399500000001
 21
73.383266000000006
 31
0.0
  0
POLYLINE
  5
69
  8
0
 66
     1
 10
0.0
 20
0.0
 30
0.0
 70
     1
  0
VERTEX
  5
6A
  8
0
 10
135.71399500000001
 20
74.033265999999983
 30
0.0
 42
0.084478
  0
VERTEX
  5
6B
  8
0
 10
135.75712300000001
 20
73.779825000000002
 30
0.0
 42
0.091541
  0
VERTEX
  5
6C
  8
0
 10
135.87508700000001
 20
73.573646999999994
 30
0.0
 42
0.103696
 70
     2
 50
310.236358
  0
VERTEX
  5
6D
  8
0
 10
136.058278
 20
73.430915999999996
 30
0.0
 42
0.114302
 50
310.236358
  0
VERTEX
  5
6E
  8
0
 10
136.26399499999999
 20
73.383266000000006
 30
0.0
 42
0.114302
  0
VERTEX
  5
6F
  8
0
 10
136.46971300000001
 20
73.430915999999996
 30
0.0
 42
0.103696
  0
VERTEX
  5
70
  8
0
 10
136.65290400000001
 20
73.573646999999994
 30
0.0
 42
0.091541
 70
     2
 50
49.76364199999999
  0
VERTEX
  5
71
  8
0
 10
136.77086700000001
 20
73.779825000000002
 30
0.0
 42
0.084478
 50
49.76364199999999
  0
VERTEX
  5
72
  8
0
 10
136.81399500000001
 20
74.033265999999983
 30
0.0
 42
0.084478
  0
VERTEX
  5
73
  8
0
 10
136.77086700000001
 20
74.286706999999993
 30
0.0
 42
0.091541
  0
VERTEX
  5
74
  8
0
 10
136.65290400000001
 20
74.492885000000001
 30
0.0
 42
0.103696
 70
     2
 50
130.236358
  0
VERTEX
  5
75
  8
0
 10
136.46971300000001
 20
74.635615999999999
 30
0.0
 42
0.114302
 50
130.236358
  0
VERTEX
  5
76
  8
0
 10
136.26399499999999
 20
74.683266000000003
 30
0.0
 42
0.114302
  0
VERTEX
  5
77
  8
0
 10
136.058278
 20
74.635615999999999
 30
0.0
 42
0.103696
  0
VERTEX
  5
78
  8
0
 10
135.87508700000001
 20
74.492885000000001
 30
0.0
 42
0.091541
 70
     2
 50
229.763642
  0
VERTEX
  5
79
  8
0
 10
135.75712300000001
 20
74.286706999999993
 30
0.0
 42
0.084478
 50
229.763642
  0
SEQEND
  5
7A
  8
0
  0
POLYLINE
  5
7B
  8
0
 66
     1
 10
0.0
 20
0.0
 30
0.0
  0
VERTEX
  5
7C
  8
0
 10
53.921193999999993
 20
74.573991000000007
 30
0.0
 42
0.051534
 70
     2
 50
130.236358
  0
VERTEX
  5
7D
  8
0
 10
53.822510000000001
 20
74.635615999999999
 30
0.0
 42
0.114302
 50
130.236358
  0
VERTEX
  5
7E
  8
0
 10
53.616793000000008
 20
74.683266000000003
 30
0.0
 42
0.114302
  0
VERTEX
  5
7F
  8
0
 10
53.411076000000001
 20
74.635615999999999
 30
0.0
 42
0.051534
  0
VERTEX
  5
80
  8
0
 10
53.312391000000012
 20
74.573991000000007
 30
0.0
 42
0.091541
 70
     2
 50
229.763642
  0
SEQEND
  5
81
  8
0
  0
LINE
  5
82
  8
0
 10
97.97879300000001
 20
99.679795999999996
 30
0.0
 11
97.97879300000001
 21
98.379795999999999
 31
0.0
  0
LINE
  5
83
  8
0
 10
88.97879300000001
 20
98.379795999999999
 30
0.0
 11
88.97879300000001
 21
99.679795999999996
 31
0.0
  0
LINE
  5
84
  8
0
 10
87.616793000000001
 20
98.379795999999999
 30
0.0
 11
87.616793000000001
 21
99.679795999999996
 31
0.0
  0
LINE
  5
85
  8
0
 10
101.366793
 20
98.379795999999999
 30
0.0
 11
87.616793000000001
 21
98.379795999999999
 31
0.0
  0
ARC
  5
86
  8
2
 10
99.616793000000001
 20
99.029796000000005
 30
0.0
 40
3.0
 50
289.47122100000001
 51
70.528779
  0
LINE
  5
87
  8
0
 10
100.166793
 20
104.029796
 30
0.0
 11
100.166793
 21
99.679795999999996
 31
0.0
  0
LINE
  5
88
  8
0
 10
101.616793
 20
95.479795999999993
 30
0.0
 11
100.166793
 21
94.029796000000005
 31
0.0
  0
LINE
  5
89
  8
0
 10
101.616793
 20
102.579796
 30
0.0
 11
100.166793
 21
104.029796
 31
0.0
  0
LINE
  5
8A
  8
0
 10
101.616793
 20
95.479795999999993
 30
0.0
 11
102.616793
 21
95.479795999999993
 31
0.0
  0
LINE
  5
8B
  8
0
 10
101.616793
 20
102.579796
 30
0.0
 11
102.616793
 21
102.579796
 31
0.0
  0
LINE
  5
8C
  8
0
 10
85.116793000000001
 20
104.029796
 30
0.0
 11
85.116793000000001
 21
94.029796000000005
 31
0.0
  0
LINE
  5
8D
  8
0
 10
83.616793000000001
 20
102.529796
 30
0.0
 11
85.116793000000001
 21
104.029796
 31
0.0
  0
LINE
  5
8E
  8
0
 10
83.616793000000001
 20
95.529795999999976
 30
0.0
 11
85.116793000000001
 21
94.029796000000005
 31
0.0
  0
LINE
  5
8F
  8
0
 10
83.616793000000001
 20
102.529796
 30
0.0
 11
83.616793000000001
 21
95.529795999999976
 31
0.0
  0
ARC
  5
90
  8
0
 10
101.616793
 20
99.029796000000005
 30
0.0
 40
3.0
 50
289.47122100000001
 51
70.528779
  0
LINE
  5
91
  8
1
 10
81.116793000000001
 20
99.029796000000005
 30
0.0
 11
107.116793
 21
99.029796000000005
 31
0.0
  0
LINE
  5
92
  8
0
 10
100.166793
 20
104.029796
 30
0.0
 11
85.116793000000001
 21
104.029796
 31
0.0
  0
LINE
  5
93
  8
3
 10
100.978793
 20
103.21779600000001
 30
0.0
 11
84.304793000000004
 21
103.21779600000001
 31
0.0
  0
LINE
  5
94
  8
3
 10
100.978793
 20
94.841796000000002
 30
0.0
 11
84.304793000000004
 21
94.841796000000002
 31
0.0
  0
LINE
  5
95
  8
0
 10
100.166793
 20
94.029796000000005
 30
0.0
 11
85.116793000000001
 21
94.029796000000005
 31
0.0
  0
LINE
  5
96
  8
0
 10
102.616793
 20
102.579796
 30
0.0
 11
102.616793
 21
95.479795999999993
 31
0.0
  0
LINE
  5
97
  8
0
 10
101.616793
 20
102.579796
 30
0.0
 11
101.616793
 21
95.479795999999993
 31
0.0
  0
LINE
  5
98
  8
0
 10
101.366793
 20
99.679795999999996
 30
0.0
 11
87.616793000000001
 21
99.679795999999996
 31
0.0
  0
LINE
  5
99
  8
0
 10
101.366793
 20
99.679795999999996
 30
0.0
 11
101.366793
 21
98.379795999999999
 31
0.0
  0
LINE
  5
9A
  8
0
 10
100.166793
 20
98.379795999999999
 30
0.0
 11
100.166793
 21
94.029796000000005
 31
0.0
  0
LINE
  5
9B
  8
0
 10
100.166793
 20
45.136735999999992
 30
0.0
 11
100.166793
 21
35.136735999999999
 31
0.0
  0
LINE
  5
9C
  8
0
 10
101.616793
 20
43.686736000000003
 30
0.0
 11
101.616793
 21
36.586736000000002
 31
0.0
  0
LINE
  5
9D
  8
0
 10
102.616793
 20
43.686736000000003
 30
0.0
 11
102.616793
 21
36.586736000000002
 31
0.0
  0
LINE
  5
9E
  8
0
 10
100.166793
 20
35.136735999999999
 30
0.0
 11
85.116793000000001
 21
35.136735999999999
 31
0.0
  0
LINE
  5
9F
  8
3
 10
100.978793
 20
35.948735999999997
 30
0.0
 11
84.304793000000004
 21
35.948735999999997
 31
0.0
  0
LINE
  5
A0
  8
3
 10
100.978793
 20
44.324736000000001
 30
0.0
 11
84.304793000000004
 21
44.324736000000001
 31
0.0
  0
LINE
  5
A1
  8
0
 10
100.166793
 20
45.136735999999992
 30
0.0
 11
85.116793000000001
 21
45.136735999999992
 31
0.0
  0
LINE
  5
A2
  8
1
 10
81.116793000000001
 20
40.136735999999992
 30
0.0
 11
107.116793
 21
40.136735999999992
 31
0.0
  0
ARC
  5
A3
  8
0
 10
101.616793
 20
40.136735999999992
 30
0.0
 40
3.0
 50
289.47122100000001
 51
70.528779
  0
LINE
  5
A4
  8
0
 10
83.616793000000001
 20
43.636735999999999
 30
0.0
 11
83.616793000000001
 21
36.636735999999999
 31
0.0
  0
LINE
  5
A5
  8
0
 10
83.616793000000001
 20
36.636735999999999
 30
0.0
 11
85.116793000000001
 21
35.136735999999999
 31
0.0
  0
LINE
  5
A6
  8
0
 10
83.616793000000001
 20
43.636735999999999
 30
0.0
 11
85.116793000000001
 21
45.136735999999992
 31
0.0
  0
LINE
  5
A7
  8
0
 10
85.116793000000001
 20
45.136735999999992
 30
0.0
 11
85.116793000000001
 21
35.136735999999999
 31
0.0
  0
LINE
  5
A8
  8
0
 10
101.616793
 20
43.686736000000003
 30
0.0
 11
102.616793
 21
43.686736000000003
 31
0.0
  0
LINE
  5
A9
  8
0
 10
101.616793
 20
36.586736000000002
 30
0.0
 11
102.616793
 21
36.586736000000002
 31
0.0
  0
LINE
  5
AA
  8
0
 10
101.616793
 20
43.686736000000003
 30
0.0
 11
100.166793
 21
45.136735999999992
 31
0.0
  0
LINE
  5
AB
  8
0
 10
101.616793
 20
36.586736000000002
 30
0.0
 11
100.166793
 21
35.136735999999999
 31
0.0
  0
ARC
  5
AC
  8
2
 10
99.616793000000001
 20
40.136735999999992
 30
0.0
 40
3.0
 50
289.47122100000001
 51
70.528779
  0
TEXT
  5
1D4
  8
0
 62
     3
 10
0.0
 20
0.0
 30
0.0
 40
5.0
  1
LBSUH10
  7
STANDARD1
  0
ENDSEC
  0
EOF
