  0
SECTION
  2
HEADER
  9
$ACADVER
  1
AC1009
  9
$INSBASE
 10
0.0
 20
0.0
 30
0.0
  9
$EXTMIN
 10
0.0
 20
-1.4802182810368341
 30
0.0
  9
$EXTMAX
 10
50.092465553645162
 20
35.607069137604533
 30
0.0
  9
$LIMMIN
 10
0.0
 20
0.0
  9
$LIMMAX
 10
75.0
 20
54.0
  9
$ORTHOMODE
 70
     0
  9
$REGENMODE
 70
     1
  9
$FILLMODE
 70
     1
  9
$QTEXTMODE
 70
     0
  9
$MIRRTEXT
 70
     0
  9
$DRAGMODE
 70
     2
  9
$LTSCALE
 40
2.0
  9
$OSMODE
 70
  3071
  9
$ATTMODE
 70
     1
  9
$TEXTSIZE
 40
0.8
  9
$TRACEWID
 40
0.05
  9
$TEXTSTYLE
  7
STANDARD
  9
$CLAYER
  8
0
  9
$CELTYPE
  6
BYLAYER
  9
$CECOLOR
 62
   256
  9
$DIMSCALE
 40
0.2
  9
$DIMASZ
 40
3.0
  9
$DIMEXO
 40
2.0
  9
$DIMDLI
 40
10.0
  9
$DIMRND
 40
0.0
  9
$DIMDLE
 40
0.0
  9
$DIMEXE
 40
2.0
  9
$DIMTP
 40
0.0
  9
$DIMTM
 40
0.0
  9
$DIMTXT
 40
3.0
  9
$DIMCEN
 40
0.09
  9
$DIMTSZ
 40
0.0
  9
$DIMTOL
 70
     0
  9
$DIMLIM
 70
     0
  9
$DIMTIH
 70
     0
  9
$DIMTOH
 70
     0
  9
$DIMSE1
 70
     0
  9
$DIMSE2
 70
     0
  9
$DIMTAD
 70
     1
  9
$DIMZIN
 70
     0
  9
$DIMBLK
  1

  9
$DIMASO
 70
     0
  9
$DIMSHO
 70
     0
  9
$DIMPOST
  1

  9
$DIMAPOST
  1

  9
$DIMALT
 70
     0
  9
$DIMALTD
 70
     2
  9
$DIMALTF
 40
25.399999999999999
  9
$DIMLFAC
 40
1.0
  9
$DIMTOFL
 70
     1
  9
$DIMTVP
 40
1.6000000000000001
  9
$DIMTIX
 70
     0
  9
$DIMSOXD
 70
     0
  9
$DIMSAH
 70
     0
  9
$DIMBLK1
  1

  9
$DIMBLK2
  1

  9
$DIMSTYLE
  2
STANDARD
  9
$DIMCLRD
 70
     0
  9
$DIMCLRE
 70
     0
  9
$DIMCLRT
 70
     0
  9
$DIMTFAC
 40
1.0
  9
$DIMGAP
 40
0.09
  9
$LUNITS
 70
     2
  9
$LUPREC
 70
     4
  9
$SKETCHINC
 40
0.1
  9
$FILLETRAD
 40
0.3
  9
$AUNITS
 70
     0
  9
$AUPREC
 70
     0
  9
$MENU
  1
E:\r13\win\SUPPORT\ACAD
  9
$ELEVATION
 40
0.0
  9
$PELEVATION
 40
0.0
  9
$THICKNESS
 40
0.0
  9
$LIMCHECK
 70
     0
  9
$BLIPMODE
 70
     0
  9
$CHAMFERA
 40
0.0
  9
$CHAMFERB
 40
0.0
  9
$SKPOLY
 70
     0
  9
$TDCREATE
 40
2449840.6192129632
  9
$TDUPDATE
 40
2456597.5718537038
  9
$TDINDWG
 40
0.0193915856
  9
$TDUSRTIMER
 40
0.0193915856
  9
$USRTIMER
 70
     1
  9
$ANGBASE
 50
0.0
  9
$ANGDIR
 70
     0
  9
$PDMODE
 70
     0
  9
$PDSIZE
 40
0.0
  9
$PLINEWID
 40
0.0
  9
$COORDS
 70
     1
  9
$SPLFRAME
 70
     0
  9
$SPLINETYPE
 70
     6
  9
$SPLINESEGS
 70
     8
  9
$ATTDIA
 70
     0
  9
$ATTREQ
 70
     1
  9
$HANDLING
 70
     1
  9
$HANDSEED
  5
278
  9
$SURFTAB1
 70
     6
  9
$SURFTAB2
 70
     6
  9
$SURFTYPE
 70
     6
  9
$SURFU
 70
     6
  9
$SURFV
 70
     6
  9
$UCSNAME
  2

  9
$UCSORG
 10
0.0
 20
0.0
 30
0.0
  9
$UCSXDIR
 10
1.0
 20
0.0
 30
0.0
  9
$UCSYDIR
 10
0.0
 20
1.0
 30
0.0
  9
$PUCSNAME
  2

  9
$PUCSORG
 10
0.0
 20
0.0
 30
0.0
  9
$PUCSXDIR
 10
1.0
 20
0.0
 30
0.0
  9
$PUCSYDIR
 10
0.0
 20
1.0
 30
0.0
  9
$USERI1
 70
     0
  9
$USERI2
 70
     1
  9
$USERI3
 70
     1
  9
$USERI4
 70
     0
  9
$USERI5
 70
     0
  9
$USERR1
 40
0.0
  9
$USERR2
 40
0.0
  9
$USERR3
 40
0.0
  9
$USERR4
 40
0.0
  9
$USERR5
 40
0.0
  9
$WORLDVIEW
 70
     1
  9
$SHADEDGE
 70
     3
  9
$SHADEDIF
 70
    70
  9
$TILEMODE
 70
     1
  9
$MAXACTVP
 70
    16
  9
$PLIMCHECK
 70
     0
  9
$PEXTMIN
 10
1.0000000000000000E+020
 20
1.0000000000000000E+020
 30
1.0000000000000000E+020
  9
$PEXTMAX
 10
-1.0000000000000000E+020
 20
-1.0000000000000000E+020
 30
-1.0000000000000000E+020
  9
$PLIMMIN
 10
0.0
 20
0.0
  9
$PLIMMAX
 10
12.0
 20
9.0
  9
$UNITMODE
 70
     0
  9
$VISRETAIN
 70
     0
  9
$PLINEGEN
 70
     0
  9
$PSLTSCALE
 70
     0
  0
ENDSEC
  0
SECTION
  2
TABLES
  0
TABLE
  2
VPORT
 70
     1
  0
VPORT
  2
*ACTIVE
 70
     0
 10
0.0
 20
0.0
 11
1.0
 21
1.0
 12
37.498855678130482
 22
32.224675447272617
 13
0.0
 23
0.0
 14
2.0
 24
2.0
 15
2.0
 25
2.0
 16
0.0
 26
0.0
 36
1.0
 17
0.0
 27
0.0
 37
0.0
 40
68.048424383997698
 41
1.9089595375722539
 42
50.0
 43
0.0
 44
0.0
 50
0.0
 51
0.0
 71
     0
 72
   100
 73
     1
 74
     0
 75
     0
 76
     0
 77
     0
 78
     1
  0
ENDTAB
  0
TABLE
  2
LTYPE
 70
     4
  0
LTYPE
  2
CONTINUOUS
 70
     0
  3
Solid Line
 72
    65
 73
     0
 40
0.0
  0
LTYPE
  2
CENTER
 70
     0
  3
____ _ ____ _ ____ _ ____ _ ____ _ ____ _ ____
 72
    65
 73
     4
 40
2.0
 49
1.25
 49
-0.25
 49
0.25
 49
-0.25
  0
LTYPE
  2
HIDDEN
 70
     0
  3
_ _ _ _ _ _ _ _ _ _ _ _ _ _ _ _ _ _ _ _ _ _ _
 72
    65
 73
     2
 40
0.375
 49
0.25
 49
-0.125
  0
LTYPE
  2
PHANTOM2
 70
     0
  3
___ _ _ ___ _ _ ___ _ _ ___ _ _
 72
    65
 73
     6
 40
1.25
 49
0.625
 49
-0.125
 49
0.125
 49
-0.125
 49
0.125
 49
-0.125
  0
ENDTAB
  0
TABLE
  2
LAYER
 70
     4
  0
LAYER
  2
0
 70
     0
 62
     7
  6
CONTINUOUS
  0
LAYER
  2
1
 70
     0
 62
     1
  6
CENTER
  0
LAYER
  2
2
 70
     0
 62
     2
  6
HIDDEN
  0
LAYER
  2
3
 70
     0
 62
     3
  6
CONTINUOUS
  0
ENDTAB
  0
TABLE
  2
STYLE
 70
     2
  0
STYLE
  2
STANDARD
 70
     0
 40
0.0
 41
1.0
 50
0.0
 71
     0
 42
0.8
  3
ROMANS
  4
BIGFONT
  0
STYLE
  2
STANDARD1
 70
     0
 40
0.0
 41
1.0
 50
0.0
 71
     0
 42
3.0
  3
txt
  4

  0
ENDTAB
  0
TABLE
  2
VIEW
 70
     1
  0
VIEW
  2
ALL
 70
     0
 40
54.0
 10
44.119884000000013
 20
27.0
 41
88.239768000000026
 11
0.0
 21
0.0
 31
1.0
 12
0.0
 22
0.0
 32
0.0
 42
0.0
 43
0.0
 44
0.0
 50
0.0
 71
     0
  0
ENDTAB
  0
TABLE
  2
UCS
 70
     0
  0
ENDTAB
  0
TABLE
  2
APPID
 70
     3
  0
APPID
  2
ACAD
 70
     0
  0
APPID
  2
ACAD_MLEADERVER
 70
     0
  0
APPID
  2
ACAD_NAV_VCDISPLAY
 70
     0
  0
ENDTAB
  0
TABLE
  2
DIMSTYLE
 70
     1
  0
DIMSTYLE
  2
STANDARD
 70
     0
  3

  4

  5

  6

  7

 40
1.0
 41
0.18
 42
0.0625
 43
0.38
 44
0.18
 45
0.0
 46
0.0
 47
0.0
 48
0.0
140
0.18
141
0.09
142
0.0
143
25.399999999999999
144
1.0
145
0.0
146
1.0
147
0.09
 71
     0
 72
     0
 73
     1
 74
     1
 75
     0
 76
     0
 77
     0
 78
     0
170
     0
171
     2
172
     0
173
     0
174
     0
175
     0
176
     0
177
     0
178
     0
  0
ENDTAB
  0
ENDSEC
  0
SECTION
  2
BLOCKS
  0
BLOCK
  8
0
  2
$MODEL_SPACE
 70
     0
 10
0.0
 20
0.0
 30
0.0
  3
$MODEL_SPACE
  1

  0
ENDBLK
  5
EE
  8
0
  0
BLOCK
 67
     1
  8
0
  2
$PAPER_SPACE
 70
     0
 10
0.0
 20
0.0
 30
0.0
  3
$PAPER_SPACE
  1

  0
ENDBLK
  5
EC
 67
     1
  8
0
  0
ENDSEC
  0
SECTION
  2
ENTITIES
  0
LINE
  5
39
  8
0
 10
35.12209655364515
 20
25.080691137604521
 30
0.0
 11
35.12209655364515
 21
23.180691137604519
 31
0.0
  0
LINE
  5
3A
  8
0
 10
28.122096553645161
 20
25.130691137604519
 30
0.0
 11
28.122096553645161
 21
24.330691137604521
 31
0.0
  0
LINE
  5
3B
  8
0
 10
15.342108553645151
 20
23.930691137604519
 30
0.0
 11
18.315321553645148
 21
23.930691137604519
 31
0.0
  0
LINE
  5
3C
  8
0
 10
15.342108553645151
 20
24.330691137604521
 30
0.0
 11
18.315321553645148
 21
24.330691137604521
 31
0.0
  0
LINE
  5
3D
  8
0
 10
28.122096553645161
 20
24.330691137604521
 30
0.0
 11
29.086362553645159
 21
24.330691137604521
 31
0.0
  0
LINE
  5
3E
  8
0
 10
28.122096553645161
 20
23.930691137604519
 30
0.0
 11
29.086362553645159
 21
23.930691137604519
 31
0.0
  0
LINE
  5
3F
  8
3
 10
28.351596553645152
 20
22.901191137604521
 30
0.0
 11
34.342596553645151
 21
22.901191137604521
 31
0.0
  0
LINE
  5
40
  8
3
 10
28.351596553645152
 20
25.36019113760452
 30
0.0
 11
34.342596553645151
 21
25.36019113760452
 31
0.0
  0
LINE
  5
41
  8
0
 10
28.622096553645161
 20
22.630691137604519
 30
0.0
 11
34.072096553645153
 21
22.630691137604519
 31
0.0
  0
LINE
  5
42
  8
0
 10
28.622096553645161
 20
25.630691137604519
 30
0.0
 11
34.072096553645153
 21
25.630691137604519
 31
0.0
  0
ARC
  5
43
  8
0
 10
16.82871555364515
 20
24.130691137604519
 30
0.0
 40
1.5
 50
96.920078000000004
 51
83.079921999999996
  0
ARC
  5
44
  8
0
 10
47.592465553645148
 20
24.130691137604519
 30
0.0
 40
1.5
 50
96.920078000000004
 51
83.079921999999996
  0
LINE
  5
45
  8
1
 10
27.122096553645161
 20
24.130691137604519
 30
0.0
 11
36.62209655364515
 21
24.130691137604519
 31
0.0
  0
LINE
  5
46
  8
2
 10
29.12209655364515
 20
24.330691137604521
 30
0.0
 11
29.12209655364515
 21
23.930691137604519
 31
0.0
  0
LINE
  5
47
  8
0
 10
29.086362553645159
 20
24.330691137604521
 30
0.0
 11
29.086362553645159
 21
23.930691137604519
 31
0.0
  0
LINE
  5
48
  8
0
 10
28.122096553645161
 20
23.930691137604519
 30
0.0
 11
28.122096553645161
 21
23.130691137604519
 31
0.0
  0
LINE
  5
49
  8
0
 10
28.622096553645161
 20
25.630691137604519
 30
0.0
 11
28.122096553645161
 21
25.130691137604519
 31
0.0
  0
LINE
  5
4A
  8
0
 10
28.122096553645161
 20
23.130691137604519
 30
0.0
 11
28.622096553645161
 21
22.630691137604519
 31
0.0
  0
CIRCLE
  5
4B
  8
0
 10
47.592465553645148
 20
24.130691137604519
 30
0.0
 40
0.95
  0
CIRCLE
  5
4C
  8
0
 10
47.592465553645148
 20
24.130691137604519
 30
0.0
 40
0.75
  0
LINE
  5
4D
  8
0
 10
34.62209655364515
 20
25.080691137604521
 30
0.0
 11
34.62209655364515
 21
23.180691137604519
 31
0.0
  0
LINE
  5
4E
  8
0
 10
34.62209655364515
 20
25.080691137604521
 30
0.0
 11
35.12209655364515
 21
25.080691137604521
 31
0.0
  0
LINE
  5
4F
  8
0
 10
34.62209655364515
 20
23.180691137604519
 30
0.0
 11
35.12209655364515
 21
23.180691137604519
 31
0.0
  0
LINE
  5
50
  8
0
 10
34.62209655364515
 20
25.080691137604521
 30
0.0
 11
34.072096553645153
 21
25.630691137604519
 31
0.0
  0
LINE
  5
51
  8
0
 10
34.62209655364515
 20
23.180691137604519
 30
0.0
 11
34.072096553645153
 21
22.630691137604519
 31
0.0
  0
LINE
  5
52
  8
0
 10
28.622096553645161
 20
25.630691137604519
 30
0.0
 11
28.622096553645161
 21
24.330691137604521
 31
0.0
  0
LINE
  5
53
  8
0
 10
34.072096553645153
 20
25.630691137604519
 30
0.0
 11
34.072096553645153
 21
22.630691137604519
 31
0.0
  0
LINE
  5
54
  8
0
 10
28.622096553645161
 20
23.930691137604519
 30
0.0
 11
28.622096553645161
 21
22.630691137604519
 31
0.0
  0
ARC
  5
55
  8
0
 10
34.87209655364515
 20
24.130691137604519
 30
0.0
 40
0.75
 50
289.47122100000001
 51
70.528779
  0
LINE
  5
56
  8
2
 10
29.086362553645159
 20
24.330691137604521
 30
0.0
 11
29.12209655364515
 21
24.330691137604521
 31
0.0
  0
LINE
  5
57
  8
2
 10
29.086362553645159
 20
23.930691137604519
 30
0.0
 11
29.12209655364515
 21
23.930691137604519
 31
0.0
  0
ARC
  5
58
  8
2
 10
34.37209655364515
 20
24.130691137604519
 30
0.0
 40
0.75
 50
289.47122100000001
 51
70.528779
  0
LINE
  5
59
  8
1
 10
19.32871555364515
 20
24.130691137604519
 30
0.0
 11
14.32871555364515
 21
24.130691137604519
 31
0.0
  0
LINE
  5
5A
  8
1
 10
16.82871555364515
 20
26.630691137604519
 30
0.0
 11
16.82871555364515
 21
21.630691137604519
 31
0.0
  0
LINE
  5
5B
  8
1
 10
50.092465553645162
 20
24.130691137604519
 30
0.0
 11
45.092465553645148
 21
24.130691137604519
 31
0.0
  0
LINE
  5
5C
  8
1
 10
47.592465553645148
 20
26.630691137604519
 30
0.0
 11
47.592465553645148
 21
21.630691137604519
 31
0.0
  0
LINE
  5
5D
  8
2
 10
28.172096553645162
 20
25.180691137604519
 30
0.0
 11
34.322096553645153
 21
25.180691137604519
 31
0.0
  0
LINE
  5
5E
  8
0
 10
29.351596553645152
 20
25.630691137604519
 30
0.0
 11
29.351596553645152
 21
25.73069113760452
 31
0.0
  0
LINE
  5
5F
  8
0
 10
29.351596553645152
 20
25.73069113760452
 30
0.0
 11
33.351596553645152
 21
25.73069113760452
 31
0.0
  0
LINE
  5
60
  8
0
 10
33.351596553645152
 20
25.73069113760452
 30
0.0
 11
33.351596553645152
 21
25.630691137604519
 31
0.0
  0
LINE
  5
61
  8
2
 10
29.351596553645152
 20
25.630691137604519
 30
0.0
 11
29.351596553645152
 21
25.180691137604519
 31
0.0
  0
LINE
  5
62
  8
2
 10
33.351596553645152
 20
25.630691137604519
 30
0.0
 11
33.351596553645152
 21
25.180691137604519
 31
0.0
  0
LINE
  5
63
  8
0
 10
47.367465553645147
 20
25.613720137604531
 30
0.0
 11
47.367465553645147
 21
25.380691137604519
 31
0.0
  0
LINE
  5
64
  8
0
 10
47.817465553645157
 20
25.613720137604531
 30
0.0
 11
47.817465553645157
 21
25.380691137604519
 31
0.0
  0
LINE
  5
65
  8
2
 10
34.322096553645153
 20
25.380691137604519
 30
0.0
 11
34.322096553645153
 21
25.180691137604519
 31
0.0
  0
POLYLINE
  5
66
  8
0
 66
     1
 10
0.0
 20
0.0
 30
0.0
 70
     1
  0
VERTEX
  5
219
  8
0
 10
16.603715553645149
 20
25.455691137604521
 30
0.0
 42
0.081871
  0
VERTEX
  5
21A
  8
0
 10
16.621448553645148
 20
25.348113137604521
 30
0.0
 42
0.089986
  0
VERTEX
  5
21B
  8
0
 10
16.669616553645149
 20
25.261237137604521
 30
0.0
 42
0.104483
  0
VERTEX
  5
21C
  8
0
 10
16.744988553645161
 20
25.20067813760452
 30
0.0
 42
0.1177
  0
VERTEX
  5
21D
  8
0
 10
16.82871555364515
 20
25.180691137604519
 30
0.0
 42
0.1177
  0
VERTEX
  5
21E
  8
0
 10
16.91244255364515
 20
25.20067813760452
 30
0.0
 42
0.104483
  0
VERTEX
  5
21F
  8
0
 10
16.987814553645151
 20
25.261237137604521
 30
0.0
 42
0.089986
  0
VERTEX
  5
220
  8
0
 10
17.035981553645161
 20
25.348113137604521
 30
0.0
 42
0.081871
  0
VERTEX
  5
221
  8
0
 10
17.053715553645151
 20
25.455691137604521
 30
0.0
 42
0.081871
  0
VERTEX
  5
222
  8
0
 10
17.035981553645161
 20
25.563270137604519
 30
0.0
 42
0.089986
  0
VERTEX
  5
223
  8
0
 10
16.987814553645151
 20
25.650146137604519
 30
0.0
 42
0.104483
  0
VERTEX
  5
224
  8
0
 10
16.91244255364515
 20
25.710705137604521
 30
0.0
 42
0.1177
  0
VERTEX
  5
225
  8
0
 10
16.82871555364515
 20
25.73069113760452
 30
0.0
 42
0.1177
  0
VERTEX
  5
226
  8
0
 10
16.744988553645161
 20
25.710705137604521
 30
0.0
 42
0.104483
  0
VERTEX
  5
227
  8
0
 10
16.669616553645149
 20
25.650146137604519
 30
0.0
 42
0.089986
  0
VERTEX
  5
228
  8
0
 10
16.621448553645148
 20
25.563270137604519
 30
0.0
 42
0.081871
  0
SEQEND
  5
229
  8
0
  0
LINE
  5
78
  8
0
 10
17.053715553645151
 20
25.613720137604531
 30
0.0
 11
17.053715553645151
 21
25.180691137604519
 31
0.0
  0
LINE
  5
79
  8
0
 10
16.603715553645149
 20
25.613720137604531
 30
0.0
 11
16.603715553645149
 21
25.180691137604519
 31
0.0
  0
LINE
  5
7A
  8
0
 10
16.603715553645149
 20
25.180691137604519
 30
0.0
 11
17.053715553645151
 21
25.180691137604519
 31
0.0
  0
LINE
  5
7B
  8
0
 10
47.367465553645147
 20
25.380691137604519
 30
0.0
 11
47.817465553645157
 21
25.380691137604519
 31
0.0
  0
POLYLINE
  5
7C
  8
0
 66
     1
 10
0.0
 20
0.0
 30
0.0
  0
VERTEX
  5
22A
  8
0
 10
47.367465553645147
 20
25.455691137604521
 30
0.0
 42
0.05648
  0
VERTEX
  5
22B
  8
0
 10
47.375965553645152
 20
25.380691137604519
 30
0.0
 42
0.089986
  0
SEQEND
  5
22C
  8
0
  0
POLYLINE
  5
80
  8
0
 66
     1
 10
0.0
 20
0.0
 30
0.0
  0
VERTEX
  5
22D
  8
0
 10
47.808966553645149
 20
25.380691137604519
 30
0.0
 42
0.05648
  0
VERTEX
  5
22E
  8
0
 10
47.817465553645157
 20
25.455691137604521
 30
0.0
 42
0.081871
  0
VERTEX
  5
22F
  8
0
 10
47.799731553645152
 20
25.563270137604519
 30
0.0
 42
0.089986
  0
VERTEX
  5
230
  8
0
 10
47.751564553645153
 20
25.650146137604519
 30
0.0
 42
0.104483
  0
VERTEX
  5
231
  8
0
 10
47.676192553645159
 20
25.710705137604521
 30
0.0
 42
0.1177
  0
VERTEX
  5
232
  8
0
 10
47.592465553645148
 20
25.73069113760452
 30
0.0
 42
0.1177
  0
VERTEX
  5
233
  8
0
 10
47.508738553645159
 20
25.710705137604521
 30
0.0
 42
0.104483
  0
VERTEX
  5
234
  8
0
 10
47.433366553645151
 20
25.650146137604519
 30
0.0
 42
0.089986
  0
VERTEX
  5
235
  8
0
 10
47.385199553645151
 20
25.563270137604519
 30
0.0
 42
0.081871
  0
VERTEX
  5
236
  8
0
 10
47.367465553645147
 20
25.455691137604521
 30
0.0
 42
0.081871
  0
SEQEND
  5
237
  8
0
  0
LINE
  5
8C
  8
0
 10
46.362965553645147
 20
24.130691137604519
 30
0.0
 11
46.362965553645147
 21
24.130691137604519
 31
0.0
  0
CIRCLE
  5
8D
  8
3
 10
47.592465553645148
 20
24.130691137604519
 30
0.0
 40
1.2295
  0
CIRCLE
  5
8E
  8
3
 10
16.82871555364515
 20
24.130691137604519
 30
0.0
 40
1.2295
  0
LINE
  5
8F
  8
0
 10
34.322096553645153
 20
34.382069137604532
 30
0.0
 11
34.322096553645153
 21
33.83206913760452
 31
0.0
  0
LINE
  5
90
  8
0
 10
33.351596553645152
 20
34.382069137604532
 30
0.0
 11
33.351596553645152
 21
33.83206913760452
 31
0.0
  0
LINE
  5
91
  8
0
 10
29.351596553645152
 20
33.83206913760452
 30
0.0
 11
29.351596553645152
 21
34.382069137604532
 31
0.0
  0
LINE
  5
92
  8
0
 10
28.172096553645162
 20
33.83206913760452
 30
0.0
 11
34.322096553645153
 21
33.83206913760452
 31
0.0
  0
ARC
  5
93
  8
2
 10
34.37209655364515
 20
34.107069137604533
 30
0.0
 40
0.75
 50
289.47122100000001
 51
70.528779
  0
ARC
  5
94
  8
0
 10
34.87209655364515
 20
34.107069137604533
 30
0.0
 40
0.75
 50
289.47122100000001
 51
70.528779
  0
LINE
  5
95
  8
0
 10
28.622096553645161
 20
35.607069137604533
 30
0.0
 11
28.622096553645161
 21
34.382069137604532
 31
0.0
  0
LINE
  5
96
  8
0
 10
34.072096553645153
 20
35.607069137604533
 30
0.0
 11
34.072096553645153
 21
34.382069137604532
 31
0.0
  0
LINE
  5
97
  8
0
 10
34.62209655364515
 20
33.15706913760453
 30
0.0
 11
34.072096553645153
 21
32.607069137604533
 31
0.0
  0
LINE
  5
98
  8
0
 10
34.62209655364515
 20
35.057069137604522
 30
0.0
 11
34.072096553645153
 21
35.607069137604533
 31
0.0
  0
LINE
  5
99
  8
0
 10
34.62209655364515
 20
33.15706913760453
 30
0.0
 11
35.12209655364515
 21
33.15706913760453
 31
0.0
  0
LINE
  5
9A
  8
0
 10
34.62209655364515
 20
35.057069137604522
 30
0.0
 11
35.12209655364515
 21
35.057069137604522
 31
0.0
  0
LINE
  5
9B
  8
0
 10
34.62209655364515
 20
35.057069137604522
 30
0.0
 11
34.62209655364515
 21
33.15706913760453
 31
0.0
  0
LINE
  5
9C
  8
0
 10
28.122096553645161
 20
33.107069137604533
 30
0.0
 11
28.622096553645161
 21
32.607069137604533
 31
0.0
  0
LINE
  5
9D
  8
0
 10
28.622096553645161
 20
35.607069137604533
 30
0.0
 11
28.122096553645161
 21
35.107069137604533
 31
0.0
  0
LINE
  5
9E
  8
0
 10
28.122096553645161
 20
35.107069137604533
 30
0.0
 11
28.122096553645161
 21
33.107069137604533
 31
0.0
  0
LINE
  5
9F
  8
1
 10
27.122096553645161
 20
34.107069137604533
 30
0.0
 11
36.62209655364515
 21
34.107069137604533
 31
0.0
  0
LINE
  5
A0
  8
0
 10
28.622096553645161
 20
35.607069137604533
 30
0.0
 11
34.072096553645153
 21
35.607069137604533
 31
0.0
  0
LINE
  5
A1
  8
0
 10
28.622096553645161
 20
32.607069137604533
 30
0.0
 11
34.072096553645153
 21
32.607069137604533
 31
0.0
  0
LINE
  5
A2
  8
3
 10
28.351596553645152
 20
35.336569137604521
 30
0.0
 11
34.342596553645151
 21
35.336569137604521
 31
0.0
  0
LINE
  5
A3
  8
3
 10
28.351596553645152
 20
32.877569137604517
 30
0.0
 11
34.342596553645151
 21
32.877569137604517
 31
0.0
  0
LINE
  5
A4
  8
0
 10
35.12209655364515
 20
35.057069137604522
 30
0.0
 11
35.12209655364515
 21
33.15706913760453
 31
0.0
  0
LINE
  5
A5
  8
0
 10
28.172096553645162
 20
34.382069137604532
 30
0.0
 11
34.322096553645153
 21
34.382069137604532
 31
0.0
  0
LINE
  5
A6
  8
0
 10
28.172096553645162
 20
34.382069137604532
 30
0.0
 11
28.172096553645162
 21
33.83206913760452
 31
0.0
  0
LINE
  5
A7
  8
0
 10
34.072096553645153
 20
33.83206913760452
 30
0.0
 11
34.072096553645153
 21
32.607069137604533
 31
0.0
  0
LINE
  5
A8
  8
0
 10
28.622096553645161
 20
33.83206913760452
 30
0.0
 11
28.622096553645161
 21
32.607069137604533
 31
0.0
  0
LINE
  5
A9
  8
0
 10
28.622096553645161
 20
14.873138137604521
 30
0.0
 11
28.622096553645161
 21
11.873138137604521
 31
0.0
  0
LINE
  5
AA
  8
0
 10
34.072096553645153
 20
14.873138137604521
 30
0.0
 11
34.072096553645153
 21
11.873138137604521
 31
0.0
  0
LINE
  5
AB
  8
0
 10
35.12209655364515
 20
14.32313813760452
 30
0.0
 11
35.12209655364515
 21
12.42313813760452
 31
0.0
  0
LINE
  5
AC
  8
3
 10
28.351596553645152
 20
12.143638137604521
 30
0.0
 11
34.342596553645151
 21
12.143638137604521
 31
0.0
  0
LINE
  5
AD
  8
3
 10
28.351596553645152
 20
14.60263813760452
 30
0.0
 11
34.342596553645151
 21
14.60263813760452
 31
0.0
  0
LINE
  5
AE
  8
0
 10
28.622096553645161
 20
11.873138137604521
 30
0.0
 11
34.072096553645153
 21
11.873138137604521
 31
0.0
  0
LINE
  5
AF
  8
0
 10
28.622096553645161
 20
14.873138137604521
 30
0.0
 11
34.072096553645153
 21
14.873138137604521
 31
0.0
  0
LINE
  5
B0
  8
1
 10
27.122096553645161
 20
13.373138137604521
 30
0.0
 11
36.62209655364515
 21
13.373138137604521
 31
0.0
  0
LINE
  5
B1
  8
0
 10
28.122096553645161
 20
14.373138137604521
 30
0.0
 11
28.122096553645161
 21
12.373138137604521
 31
0.0
  0
LINE
  5
B2
  8
0
 10
28.622096553645161
 20
14.873138137604521
 30
0.0
 11
28.122096553645161
 21
14.373138137604521
 31
0.0
  0
LINE
  5
B3
  8
0
 10
28.122096553645161
 20
12.373138137604521
 30
0.0
 11
28.622096553645161
 21
11.873138137604521
 31
0.0
  0
LINE
  5
B4
  8
0
 10
34.62209655364515
 20
14.32313813760452
 30
0.0
 11
34.62209655364515
 21
12.42313813760452
 31
0.0
  0
LINE
  5
B5
  8
0
 10
34.62209655364515
 20
14.32313813760452
 30
0.0
 11
35.12209655364515
 21
14.32313813760452
 31
0.0
  0
LINE
  5
B6
  8
0
 10
34.62209655364515
 20
12.42313813760452
 30
0.0
 11
35.12209655364515
 21
12.42313813760452
 31
0.0
  0
LINE
  5
B7
  8
0
 10
34.62209655364515
 20
14.32313813760452
 30
0.0
 11
34.072096553645153
 21
14.873138137604521
 31
0.0
  0
LINE
  5
B8
  8
0
 10
34.62209655364515
 20
12.42313813760452
 30
0.0
 11
34.072096553645153
 21
11.873138137604521
 31
0.0
  0
ARC
  5
B9
  8
0
 10
34.87209655364515
 20
13.373138137604521
 30
0.0
 40
0.75
 50
289.47122100000001
 51
70.528779
  0
ARC
  5
BA
  8
2
 10
34.37209655364515
 20
13.373138137604521
 30
0.0
 40
0.75
 50
289.47122100000001
 51
70.528779
  0
TEXT
  5
1C8
  8
0
 62
     3
 10
0.0
 20
0.0
 30
0.0
 40
5.0
  1
LBST3
  7
STANDARD1
  0
ENDSEC
  0
EOF
