  0
SECTION
  2
HEADER
  9
$ACADVER
  1
AC1009
  9
$INSBASE
 10
7.37824081052986
 20
15.90864369846679
 30
0.0
  9
$EXTMIN
 10
0.0
 20
-2.960436562073669
 30
0.0
  9
$EXTMAX
 10
247.271426071451
 20
217.8120704239677
 30
0.0
  9
$LIMMIN
 10
0.0
 20
0.0
  9
$LIMMAX
 10
385.0
 20
270.0
  9
$ORTHOMODE
 70
     1
  9
$REGENMODE
 70
     1
  9
$FILLMODE
 70
     1
  9
$QTEXTMODE
 70
     0
  9
$MIRRTEXT
 70
     0
  9
$DRAGMODE
 70
     2
  9
$LTSCALE
 40
10.0
  9
$OSMODE
 70
  3071
  9
$ATTMODE
 70
     1
  9
$TEXTSIZE
 40
4.0
  9
$TRACEWID
 40
0.05
  9
$TEXTSTYLE
  7
STANDARD
  9
$CLAYER
  8
0
  9
$CELTYPE
  6
BYLAYER
  9
$CECOLOR
 62
   256
  9
$DIMSCALE
 40
1.0
  9
$DIMASZ
 40
3.0
  9
$DIMEXO
 40
2.0
  9
$DIMDLI
 40
10.0
  9
$DIMRND
 40
0.0
  9
$DIMDLE
 40
0.0
  9
$DIMEXE
 40
2.0
  9
$DIMTP
 40
0.0
  9
$DIMTM
 40
0.0
  9
$DIMTXT
 40
3.0
  9
$DIMCEN
 40
0.09
  9
$DIMTSZ
 40
0.0
  9
$DIMTOL
 70
     0
  9
$DIMLIM
 70
     0
  9
$DIMTIH
 70
     0
  9
$DIMTOH
 70
     0
  9
$DIMSE1
 70
     0
  9
$DIMSE2
 70
     0
  9
$DIMTAD
 70
     1
  9
$DIMZIN
 70
     0
  9
$DIMBLK
  1

  9
$DIMASO
 70
     0
  9
$DIMSHO
 70
     0
  9
$DIMPOST
  1

  9
$DIMAPOST
  1

  9
$DIMALT
 70
     0
  9
$DIMALTD
 70
     2
  9
$DIMALTF
 40
25.399999999999999
  9
$DIMLFAC
 40
1.0
  9
$DIMTOFL
 70
     1
  9
$DIMTVP
 40
1.6000000000000001
  9
$DIMTIX
 70
     1
  9
$DIMSOXD
 70
     0
  9
$DIMSAH
 70
     0
  9
$DIMBLK1
  1

  9
$DIMBLK2
  1

  9
$DIMSTYLE
  2
STANDARD
  9
$DIMCLRD
 70
     0
  9
$DIMCLRE
 70
     0
  9
$DIMCLRT
 70
     0
  9
$DIMTFAC
 40
1.0
  9
$DIMGAP
 40
1.0
  9
$LUNITS
 70
     2
  9
$LUPREC
 70
     2
  9
$SKETCHINC
 40
0.1
  9
$FILLETRAD
 40
0.0
  9
$AUNITS
 70
     0
  9
$AUPREC
 70
     2
  9
$MENU
  1
E:\r13\win\SUPPORT\ACAD
  9
$ELEVATION
 40
0.0
  9
$PELEVATION
 40
0.0
  9
$THICKNESS
 40
0.0
  9
$LIMCHECK
 70
     0
  9
$BLIPMODE
 70
     0
  9
$CHAMFERA
 40
1.0
  9
$CHAMFERB
 40
1.0
  9
$SKPOLY
 70
     0
  9
$TDCREATE
 40
2450252.6853964119
  9
$TDUPDATE
 40
2456597.5628683679
  9
$TDINDWG
 40
0.311099375
  9
$TDUSRTIMER
 40
0.311099375
  9
$USRTIMER
 70
     1
  9
$ANGBASE
 50
0.0
  9
$ANGDIR
 70
     0
  9
$PDMODE
 70
     0
  9
$PDSIZE
 40
0.0
  9
$PLINEWID
 40
0.0
  9
$COORDS
 70
     1
  9
$SPLFRAME
 70
     0
  9
$SPLINETYPE
 70
     6
  9
$SPLINESEGS
 70
     8
  9
$ATTDIA
 70
     0
  9
$ATTREQ
 70
     1
  9
$HANDLING
 70
     1
  9
$HANDSEED
  5
3818
  9
$SURFTAB1
 70
     6
  9
$SURFTAB2
 70
     6
  9
$SURFTYPE
 70
     6
  9
$SURFU
 70
     6
  9
$SURFV
 70
     6
  9
$UCSNAME
  2

  9
$UCSORG
 10
0.0
 20
0.0
 30
0.0
  9
$UCSXDIR
 10
1.0
 20
0.0
 30
0.0
  9
$UCSYDIR
 10
0.0
 20
1.0
 30
0.0
  9
$PUCSNAME
  2

  9
$PUCSORG
 10
0.0
 20
0.0
 30
0.0
  9
$PUCSXDIR
 10
1.0
 20
0.0
 30
0.0
  9
$PUCSYDIR
 10
0.0
 20
1.0
 30
0.0
  9
$USERI1
 70
     3
  9
$USERI2
 70
     1
  9
$USERI3
 70
     0
  9
$USERI4
 70
     1
  9
$USERI5
 70
     0
  9
$USERR1
 40
1.0
  9
$USERR2
 40
3.0
  9
$USERR3
 40
3.0
  9
$USERR4
 40
3.0
  9
$USERR5
 40
10.0
  9
$WORLDVIEW
 70
     1
  9
$SHADEDGE
 70
     3
  9
$SHADEDIF
 70
    70
  9
$TILEMODE
 70
     1
  9
$MAXACTVP
 70
    16
  9
$PLIMCHECK
 70
     0
  9
$PEXTMIN
 10
1.0000000000000000E+020
 20
1.0000000000000000E+020
 30
1.0000000000000000E+020
  9
$PEXTMAX
 10
-1.0000000000000000E+020
 20
-1.0000000000000000E+020
 30
-1.0000000000000000E+020
  9
$PLIMMIN
 10
0.0
 20
0.0
  9
$PLIMMAX
 10
12.0
 20
9.0
  9
$UNITMODE
 70
     0
  9
$VISRETAIN
 70
     0
  9
$PLINEGEN
 70
     0
  9
$PSLTSCALE
 70
     0
  0
ENDSEC
  0
SECTION
  2
TABLES
  0
TABLE
  2
VPORT
 70
     1
  0
VPORT
  2
*ACTIVE
 70
     0
 10
0.0
 20
0.0
 11
1.0
 21
1.0
 12
192.49412581440311
 22
162.8616388594717
 13
0.0
 23
0.0
 14
5.0
 24
5.0
 15
5.0
 25
5.0
 16
0.0
 26
0.0
 36
1.0
 17
0.0
 27
0.0
 37
0.0
 40
334.81001162774987
 41
1.9089595375722539
 42
50.0
 43
0.0
 44
0.0
 50
0.0
 51
0.0
 71
     0
 72
  1000
 73
     1
 74
     0
 75
     0
 76
     0
 77
     0
 78
     1
  0
ENDTAB
  0
TABLE
  2
LTYPE
 70
     3
  0
LTYPE
  2
CONTINUOUS
 70
     0
  3
Solid Line
 72
    65
 73
     0
 40
0.0
  0
LTYPE
  2
CENTER
 70
     0
  3
____ _ ____ _ ____ _ ____ _ ____ _ ____ _ ____
 72
    65
 73
     4
 40
2.0
 49
1.25
 49
-0.25
 49
0.25
 49
-0.25
  0
LTYPE
  2
PHANTOM2
 70
     0
  3
___ _ _ ___ _ _ ___ _ _ ___ _ _
 72
    65
 73
     6
 40
1.25
 49
0.625
 49
-0.125
 49
0.125
 49
-0.125
 49
0.125
 49
-0.125
  0
ENDTAB
  0
TABLE
  2
LAYER
 70
     2
  0
LAYER
  2
0
 70
     0
 62
     7
  6
CONTINUOUS
  0
LAYER
  2
1
 70
     0
 62
     1
  6
CENTER
  0
ENDTAB
  0
TABLE
  2
STYLE
 70
     2
  0
STYLE
  2
STANDARD
 70
     0
 40
0.0
 41
1.0
 50
0.0
 71
     0
 42
4.0
  3
simplex
  4
bigfont
  0
STYLE
  2
STANDARD1
 70
     0
 40
0.0
 41
1.0
 50
0.0
 71
     0
 42
3.0
  3
txt
  4

  0
ENDTAB
  0
TABLE
  2
VIEW
 70
     0
  0
ENDTAB
  0
TABLE
  2
UCS
 70
     0
  0
ENDTAB
  0
TABLE
  2
APPID
 70
    10
  0
APPID
  2
ACAD
 70
     0
  0
APPID
  2
GENIUS_GENODEF_13
 70
     0
  0
APPID
  2
GENIUS_GENOENT_13
 70
     0
  0
APPID
  2
GENIUS_GENOBJ_13
 70
     0
  0
APPID
  2
GENIUS_GENOLIS_13
 70
     0
  0
APPID
  2
GENIUS_GENOREF_13
 70
     0
  0
APPID
  2
GENIUS_GENOBJ-N-FIL_13
 70
     0
  0
APPID
  2
GENIUS_GENOBJ-N-CEN_13
 70
     0
  0
APPID
  2
ACAD_MLEADERVER
 70
     0
  0
APPID
  2
ACAD_NAV_VCDISPLAY
 70
     0
  0
ENDTAB
  0
TABLE
  2
DIMSTYLE
 70
     1
  0
DIMSTYLE
  2
STANDARD
 70
     0
  3

  4

  5

  6

  7

 40
1.0
 41
0.18
 42
0.0625
 43
0.38
 44
0.18
 45
0.0
 46
0.0
 47
0.0
 48
0.0
140
0.18
141
0.09
142
0.0
143
25.399999999999999
144
1.0
145
0.0
146
1.0
147
0.09
 71
     0
 72
     0
 73
     1
 74
     1
 75
     0
 76
     0
 77
     0
 78
     0
170
     0
171
     2
172
     0
173
     0
174
     0
175
     0
176
     0
177
     0
178
     0
  0
ENDTAB
  0
ENDSEC
  0
SECTION
  2
BLOCKS
  0
BLOCK
  8
0
  2
$MODEL_SPACE
 70
     0
 10
0.0
 20
0.0
 30
0.0
  3
$MODEL_SPACE
  1

  0
ENDBLK
  5
36B1
  8
0
  0
BLOCK
 67
     1
  8
0
  2
$PAPER_SPACE
 70
     0
 10
0.0
 20
0.0
 30
0.0
  3
$PAPER_SPACE
  1

  0
ENDBLK
  5
36AF
 67
     1
  8
0
  0
BLOCK
  8
0
  2
STDGX5
 70
     0
 10
0.0
 20
0.0
 30
0.0
  3
STDGX5
  1

  0
ENDBLK
  5
2663
  8
0
  0
ENDSEC
  0
SECTION
  2
ENTITIES
  0
INSERT
  5
2703
  8
0
  2
STDGX5
 10
0.0
 20
0.0
 30
0.0
  0
INSERT
  5
2704
  8
0
  2
STDGX5
 10
0.0
 20
0.0
 30
0.0
  0
INSERT
  5
2705
  8
0
  2
STDGX5
 10
275.0
 20
0.0
 30
0.0
  0
INSERT
  5
2706
  8
0
  2
STDGX5
 10
275.0
 20
0.0
 30
0.0
  0
INSERT
  5
28B3
  8
0
  2
STDGX5
 10
0.0
 20
0.0
 30
0.0
  0
INSERT
  5
28B4
  8
0
  2
STDGX5
 10
0.0
 20
0.0
 30
0.0
  0
INSERT
  5
28B5
  8
0
  2
STDGX5
 10
275.0
 20
0.0
 30
0.0
  0
INSERT
  5
28B6
  8
0
  2
STDGX5
 10
275.0
 20
0.0
 30
0.0
  0
INSERT
  5
2EB5
  8
0
  2
STDGX5
 10
0.0
 20
0.0
 30
0.0
  0
INSERT
  5
2EB6
  8
0
  2
STDGX5
 10
0.0
 20
0.0
 30
0.0
  0
INSERT
  5
2EB7
  8
0
  2
STDGX5
 10
275.0
 20
0.0
 30
0.0
  0
INSERT
  5
2EB8
  8
0
  2
STDGX5
 10
275.0
 20
0.0
 30
0.0
  0
INSERT
  5
3041
  8
0
  2
STDGX5
 10
388.12750674921563
 20
0.8889990940682537
 30
0.0
  0
INSERT
  5
3042
  8
0
  2
STDGX5
 10
388.12750674921563
 20
0.8889990940682537
 30
0.0
  0
INSERT
  5
3043
  8
0
  2
STDGX5
 10
663.12750674921563
 20
0.8889990940682537
 30
0.0
  0
INSERT
  5
3044
  8
0
  2
STDGX5
 10
663.12750674921563
 20
0.8889990940682537
 30
0.0
  0
INSERT
  5
3045
  8
0
  2
STDGX5
 10
388.12750674921563
 20
0.8889990940682537
 30
0.0
  0
INSERT
  5
3046
  8
0
  2
STDGX5
 10
388.12750674921563
 20
0.8889990940682537
 30
0.0
  0
INSERT
  5
3047
  8
0
  2
STDGX5
 10
663.12750674921563
 20
0.8889990940682537
 30
0.0
  0
INSERT
  5
3048
  8
0
  2
STDGX5
 10
663.12750674921563
 20
0.8889990940682537
 30
0.0
  0
INSERT
  5
3049
  8
0
  2
STDGX5
 10
388.12750674921563
 20
0.8889990940682537
 30
0.0
  0
INSERT
  5
304A
  8
0
  2
STDGX5
 10
388.12750674921563
 20
0.8889990940682537
 30
0.0
  0
INSERT
  5
304B
  8
0
  2
STDGX5
 10
663.12750674921563
 20
0.8889990940682537
 30
0.0
  0
INSERT
  5
304C
  8
0
  2
STDGX5
 10
663.12750674921563
 20
0.8889990940682537
 30
0.0
  0
INSERT
  5
329C
  8
0
  2
STDGX5
 10
0.0
 20
0.0
 30
0.0
  0
INSERT
  5
329D
  8
0
  2
STDGX5
 10
0.0
 20
0.0
 30
0.0
  0
INSERT
  5
329E
  8
0
  2
STDGX5
 10
275.0
 20
0.0
 30
0.0
  0
INSERT
  5
329F
  8
0
  2
STDGX5
 10
275.0
 20
0.0
 30
0.0
  0
LINE
  5
332E
  8
1
 10
112.2906166260391
 20
155.31424450825321
 30
0.0
 11
112.290616626039
 21
166.61424450825291
 31
0.0
  0
ARC
  5
3512
  8
0
 10
125.8833545940217
 20
210.01207042396771
 30
0.0
 40
1.0
 50
0.4999999999982387
 51
89.999999999996945
1001
GENIUS_GENODEF_13
1002
{
1000
HIER
1070
     0
1002
}
1002
{
1000
MANEDIT
1070
     0
1002
}
1002
{
1000
NOSEL
1070
     0
1002
}
1002
{
1000
BEHIND
1070
     0
1002
}
1002
{
1000
REACTOR
1002
}
1001
GENIUS_GENOBJ-N-FIL_13
1002
{
1000
OWNER
1000
GEN
1002
}
  0
ARC
  5
3514
  8
0
 10
124.2906296527801
 20
163.31424450790391
 30
0.0
 40
3.0
 50
270.00000000000171
 51
0.5000000000007832
1001
GENIUS_GENODEF_13
1002
{
1000
HIER
1070
     0
1002
}
1002
{
1000
MANEDIT
1070
     0
1002
}
1002
{
1000
NOSEL
1070
     0
1002
}
1002
{
1000
BEHIND
1070
     0
1002
}
1002
{
1000
REACTOR
1002
}
1001
GENIUS_GENOBJ-N-FIL_13
1002
{
1000
OWNER
1000
GEN
1002
}
  0
LINE
  5
3518
  8
0
 10
97.290616626039139
 20
100.3142445082532
 30
0.0
 11
127.2906166260391
 21
100.3142445082532
 31
0.0
  0
POINT
  5
3519
  8
0
 10
112.290616626039
 20
160.31424450790391
 30
0.0
  0
LINE
  5
351A
  8
1
 10
112.2906166260391
 20
45.314244508253182
 30
0.0
 11
112.2906166260391
 21
105.3142445082531
 31
0.0
  0
ARC
  5
351C
  8
0
 10
100.290603599298
 20
163.31424450790391
 30
0.0
 40
3.0
 50
179.4999999999992
 51
269.99999999999829
1001
GENIUS_GENODEF_13
1002
{
1000
HIER
1070
     0
1002
}
1002
{
1000
MANEDIT
1070
     0
1002
}
1002
{
1000
NOSEL
1070
     0
1002
}
1002
{
1000
BEHIND
1070
     0
1002
}
1002
{
1000
REACTOR
1002
}
1001
GENIUS_GENOBJ-N-FIL_13
1002
{
1000
OWNER
1000
GEN
1002
}
  0
LINE
  5
351D
  8
0
 10
111.99061662571791
 20
160.31424450790391
 30
0.0
 11
100.290603599298
 21
160.31424450790391
 31
0.0
  0
LINE
  5
351E
  8
0
 10
97.290616626039139
 20
100.3142445082532
 30
0.0
 11
97.290616626039139
 21
50.314244508253182
 31
0.0
  0
LINE
  5
351F
  8
0
 10
112.5906166263602
 20
160.31424450790391
 30
0.0
 11
124.2906296527801
 21
160.31424450790391
 31
0.0
  0
LINE
  5
3520
  8
0
 10
112.2906166260391
 20
100.3142445082532
 30
0.0
 11
112.2906166260391
 21
50.314244508253182
 31
0.0
  0
LINE
  5
3521
  8
0
 10
111.9906166257182
 20
160.31424450790391
 30
0.0
 11
112.2240526035624
 21
160.46986849230359
 31
0.0
  0
ARC
  5
3522
  8
0
 10
112.2906166270523
 20
160.37002245694489
 30
0.0
 40
0.1200000000000115
 50
90.000000483810709
 51
123.6900674932202
  0
ARC
  5
3523
  8
0
 10
112.29061662502581
 20
160.37002245694489
 30
0.0
 40
0.1200000000000115
 50
56.30993250677983
 51
89.999999516189305
  0
LINE
  5
3524
  8
0
 10
112.59061662636
 20
160.31424450790391
 30
0.0
 11
112.35718064851569
 21
160.46986849230359
 31
0.0
  0
LINE
  5
3526
  8
0
 10
97.659850604295343
 20
205.65885042721939
 30
0.0
 11
97.697916734992305
 21
210.02079695946591
 31
0.0
  0
LINE
  5
3528
  8
0
 10
97.398054539343548
 20
175.6599927352938
 30
0.0
 11
97.523716650520328
 21
190.0594444274181
 31
0.0
  0
LINE
  5
3529
  8
0
 10
100.290603599298
 20
162.31424450790391
 30
0.0
 11
112.290616626039
 21
162.31424450790391
 31
0.0
  0
ARC
  5
352B
  8
0
 10
100.290603599298
 20
163.31424450790391
 30
0.0
 40
1.0
 50
179.49999999999861
 51
269.99999999999829
1001
GENIUS_GENODEF_13
1002
{
1000
HIER
1070
     0
1002
}
1002
{
1000
MANEDIT
1070
     0
1002
}
1002
{
1000
NOSEL
1070
     0
1002
}
1002
{
1000
BEHIND
1070
     0
1002
}
1002
{
1000
REACTOR
1002
}
1001
GENIUS_GENOBJ-N-FIL_13
1002
{
1000
OWNER
1000
GEN
1002
}
  0
LINE
  5
352D
  8
0
 10
97.398054539343548
 20
175.6599927352942
 30
0.0
 11
97.571057708574486
 21
175.43180442832789
 31
0.0
  0
LINE
  5
352E
  8
0
 10
97.392818618044416
 20
175.06001558145559
 30
0.0
 11
97.569777873132594
 21
175.28514981261279
 31
0.0
  0
ARC
  5
352F
  8
0
 10
97.475433532539455
 20
175.35930603553479
 30
0.0
 40
0.119999999999891
 50
321.83206335107337
 51
37.167936648873649
  0
LINE
  5
3530
  8
0
 10
124.2906296527801
 20
162.31424450790391
 30
0.0
 11
112.290616626039
 21
162.31424450790391
 31
0.0
  0
ARC
  5
3531
  8
0
 10
124.2906296527801
 20
163.31424450790391
 30
0.0
 40
1.0
 50
270.00000000000171
 51
0.500000000001343
1001
GENIUS_GENODEF_13
1002
{
1000
HIER
1070
     0
1002
}
1002
{
1000
MANEDIT
1070
     0
1002
}
1002
{
1000
NOSEL
1070
     0
1002
}
1002
{
1000
BEHIND
1070
     0
1002
}
1002
{
1000
REACTOR
1002
}
1001
GENIUS_GENOBJ-N-FIL_13
1002
{
1000
OWNER
1000
GEN
1002
}
  0
LINE
  5
3532
  8
0
 10
97.528952571819687
 20
190.65942158125671
 30
0.0
 11
97.654614682996225
 21
205.05887327338061
 31
0.0
  0
LINE
  5
3533
  8
0
 10
97.523716650520328
 20
190.0594444274181
 30
0.0
 11
97.700675905608264
 21
190.2845786585755
 31
0.0
  0
LINE
  5
3534
  8
0
 10
97.528952571819687
 20
190.65942158125671
 30
0.0
 11
97.701955741050597
 21
190.43123327429061
 31
0.0
  0
ARC
  5
3536
  8
0
 10
97.606331565015125
 20
190.35873488149761
 30
0.0
 40
0.119999999999891
 50
321.83206335107337
 51
37.167936648873649
  0
LINE
  5
3538
  8
0
 10
97.659850604295343
 20
205.65885042721919
 30
0.0
 11
97.832853773526267
 21
205.43066212025309
 31
0.0
  0
LINE
  5
3539
  8
0
 10
97.654614682996225
 20
205.05887327338081
 30
0.0
 11
97.831573938084162
 21
205.28400750453801
 31
0.0
  0
ARC
  5
353A
  8
0
 10
97.73722959749125
 20
205.35816372746001
 30
0.0
 40
0.119999999999891
 50
321.83206335107337
 51
37.167936648873649
  0
ARC
  5
353C
  8
0
 10
101.87916405332651
 20
217.3120704239677
 30
0.0
 40
0.5
 50
89.999999999997215
 51
150.00000000000011
1001
GENIUS_GENODEF_13
1002
{
1000
HIER
1070
     0
1002
}
1002
{
1000
MANEDIT
1070
     0
1002
}
1002
{
1000
NOSEL
1070
     0
1002
}
1002
{
1000
BEHIND
1070
     0
1002
}
1002
{
1000
REACTOR
1002
}
1001
GENIUS_GENOBJ-N-FIL_13
1002
{
1000
OWNER
1000
GEN
1002
}
  0
ARC
  5
353D
  8
0
 10
101.81048891873139
 20
213.44278839166529
 30
0.0
 40
0.12
 50
119.99999999997409
 51
180.0000000000077
1001
GENIUS_GENODEF_13
1002
{
1000
HIER
1070
     0
1002
}
1002
{
1000
MANEDIT
1070
     0
1002
}
1002
{
1000
NOSEL
1070
     0
1002
}
1002
{
1000
BEHIND
1070
     0
1002
}
1002
{
1000
REACTOR
1002
}
1001
GENIUS_GENOBJ-N-FIL_13
1002
{
1000
OWNER
1000
GEN
1002
}
  0
LINE
  5
353E
  8
0
 10
101.6904889187315
 20
212.80193323203969
 30
0.0
 11
102.30777009028699
 21
212.6001746455419
 31
0.0
  0
LINE
  5
353F
  8
0
 10
101.69048891873121
 20
212.00193323203979
 30
0.0
 11
102.39048891873129
 21
212.00193323203979
 31
0.0
  0
ARC
  5
3540
  8
0
 10
100.1904889187319
 20
210.5120704239684
 30
0.0
 40
1.5
 50
270.00000000006759
 51
0.0000000000261823
1001
GENIUS_GENODEF_13
1002
{
1000
HIER
1070
     0
1002
}
1002
{
1000
MANEDIT
1070
     0
1002
}
1002
{
1000
NOSEL
1070
     0
1002
}
1002
{
1000
BEHIND
1070
     0
1002
}
1002
{
1000
REACTOR
1002
}
1001
GENIUS_GENOBJ-N-FIL_13
1002
{
1000
OWNER
1000
GEN
1002
}
  0
ARC
  5
3541
  8
0
 10
99.090488918731808
 20
213.51207042396771
 30
0.0
 40
1.600000000000023
 50
292.0243128370422
 51
40.14689749960116
  0
LINE
  5
3543
  8
0
 10
101.6904889187315
 20
212.80193323203969
 30
0.0
 11
101.6904889187315
 21
213.44278839166529
 31
0.0
  0
ARC
  5
3545
  8
0
 10
98.697878658056425
 20
210.01207042396771
 30
0.0
 40
1.0
 50
90.000000000003027
 51
179.50000000000171
1001
GENIUS_GENODEF_13
1002
{
1000
HIER
1070
     0
1002
}
1002
{
1000
MANEDIT
1070
     0
1002
}
1002
{
1000
NOSEL
1070
     0
1002
}
1002
{
1000
BEHIND
1070
     0
1002
}
1002
{
1000
REACTOR
1002
}
1001
GENIUS_GENOBJ-N-FIL_13
1002
{
1000
OWNER
1000
GEN
1002
}
  0
ARC
  5
3546
  8
0
 10
100.1848454739493
 20
208.5120704239684
 30
0.0
 40
0.5
 50
90.000000000070045
 51
179.49999999999889
1001
GENIUS_GENODEF_13
1002
{
1000
HIER
1070
     0
1002
}
1002
{
1000
MANEDIT
1070
     0
1002
}
1002
{
1000
NOSEL
1070
     0
1002
}
1002
{
1000
BEHIND
1070
     0
1002
}
1002
{
1000
REACTOR
1002
}
1001
GENIUS_GENOBJ-N-FIL_13
1002
{
1000
OWNER
1000
GEN
1002
}
  0
LINE
  5
3547
  8
0
 10
100.1848454739486
 20
209.0120704239684
 30
0.0
 11
100.19048891873371
 21
209.0120704239684
 31
0.0
  0
ARC
  5
3548
  8
0
 10
99.190488918731944
 20
211.51207042396771
 30
0.0
 40
0.5
 50
269.99999999999812
 51
0.0000000000059886
1001
GENIUS_GENODEF_13
1002
{
1000
HIER
1070
     0
1002
}
1002
{
1000
MANEDIT
1070
     0
1002
}
1002
{
1000
NOSEL
1070
     0
1002
}
1002
{
1000
BEHIND
1070
     0
1002
}
1002
{
1000
REACTOR
1002
}
1001
GENIUS_GENOBJ-N-FIL_13
1002
{
1000
OWNER
1000
GEN
1002
}
  0
LINE
  5
3549
  8
0
 10
98.697878658056425
 20
211.01207042396771
 30
0.0
 11
99.190488918731489
 21
211.01207042396771
 31
0.0
  0
LINE
  5
354A
  8
0
 10
99.690488918731944
 20
211.51207042396771
 30
0.0
 11
99.690488918731504
 21
212.02883072654839
 31
0.0
  0
LINE
  5
354B
  8
0
 10
101.6904889187319
 20
210.51207042396911
 30
0.0
 11
101.69048891873121
 21
212.00193323203979
 31
0.0
  0
LINE
  5
354E
  8
0
 10
100.23221400223269
 20
215.45946925794479
 30
0.0
 11
101.4461513514343
 21
217.5620704239677
 31
0.0
  0
ARC
  5
354F
  8
0
 10
100.9250343252604
 20
215.05946925794501
 30
0.0
 40
0.8
 50
149.99999999999719
 51
220.1468974996001
1001
GENIUS_GENODEF_13
1002
{
1000
HIER
1070
     0
1002
}
1002
{
1000
MANEDIT
1070
     0
1002
}
1002
{
1000
NOSEL
1070
     0
1002
}
1002
{
1000
BEHIND
1070
     0
1002
}
1002
{
1000
REACTOR
1002
}
1001
GENIUS_GENOBJ-N-FIL_13
1002
{
1000
OWNER
1000
GEN
1002
}
  0
ARC
  5
3553
  8
0
 10
102.2704889187314
 20
212.48611275774661
 30
0.0
 40
0.12
 50
359.99999999999699
 51
71.900000000005363
1001
GENIUS_GENODEF_13
1002
{
1000
HIER
1070
     0
1002
}
1002
{
1000
MANEDIT
1070
     0
1002
}
1002
{
1000
NOSEL
1070
     0
1002
}
1002
{
1000
BEHIND
1070
     0
1002
}
1002
{
1000
REACTOR
1002
}
1001
GENIUS_GENOBJ-N-FIL_13
1002
{
1000
OWNER
1000
GEN
1002
}
  0
LINE
  5
3554
  8
0
 10
102.39048891873129
 20
212.00193323203979
 30
0.0
 11
102.39048891873129
 21
212.48611275774661
 31
0.0
  0
LINE
  5
3555
  8
0
 10
102.1904889187317
 20
217.34301053164401
 30
0.0
 11
102.1904889187319
 21
217.81207042396741
 31
0.0
  0
LINE
  5
3556
  8
0
 10
102.1904889187317
 20
216.14301053164411
 30
0.0
 11
102.1904889187317
 21
216.76566026245419
 31
0.0
  0
LINE
  5
3557
  8
0
 10
102.1904889187315
 20
214.94301053164389
 30
0.0
 11
102.1904889187315
 21
215.5656602624542
 31
0.0
  0
LINE
  5
3558
  8
0
 10
102.1904889187321
 20
213.80074555856291
 30
0.0
 11
102.1904889187319
 21
214.3656602624541
 31
0.0
  0
ARC
  5
3559
  8
0
 10
101.9304889187317
 20
217.05433539704919
 30
0.0
 40
0.12
 50
120.0000000000061
 51
239.9999999999896
1001
GENIUS_GENODEF_13
1002
{
1000
HIER
1070
     0
1002
}
1002
{
1000
MANEDIT
1070
     0
1002
}
1002
{
1000
NOSEL
1070
     0
1002
}
1002
{
1000
BEHIND
1070
     0
1002
}
1002
{
1000
REACTOR
1002
}
1001
GENIUS_GENOBJ-N-FIL_13
1002
{
1000
OWNER
1000
GEN
1002
}
  0
ARC
  5
355A
  8
0
 10
101.9304889187317
 20
214.6543353970491
 30
0.0
 40
0.12
 50
120.0000000000061
 51
239.9999999999896
1001
GENIUS_GENODEF_13
1002
{
1000
HIER
1070
     0
1002
}
1002
{
1000
MANEDIT
1070
     0
1002
}
1002
{
1000
NOSEL
1070
     0
1002
}
1002
{
1000
BEHIND
1070
     0
1002
}
1002
{
1000
REACTOR
1002
}
1001
GENIUS_GENOBJ-N-FIL_13
1002
{
1000
OWNER
1000
GEN
1002
}
  0
ARC
  5
355B
  8
0
 10
101.9304889187317
 20
215.8543353970492
 30
0.0
 40
0.12
 50
120.0000000000061
 51
239.9999999999896
1001
GENIUS_GENODEF_13
1002
{
1000
HIER
1070
     0
1002
}
1002
{
1000
MANEDIT
1070
     0
1002
}
1002
{
1000
NOSEL
1070
     0
1002
}
1002
{
1000
BEHIND
1070
     0
1002
}
1002
{
1000
REACTOR
1002
}
1001
GENIUS_GENOBJ-N-FIL_13
1002
{
1000
OWNER
1000
GEN
1002
}
  0
LINE
  5
355C
  8
0
 10
102.1904889187315
 20
216.76566026245419
 30
0.0
 11
101.8704889187313
 21
216.95041234859511
 31
0.0
  0
LINE
  5
355D
  8
0
 10
102.1904889187315
 20
217.34301053164401
 30
0.0
 11
101.8704889187315
 21
217.15825844550341
 31
0.0
  0
LINE
  5
355E
  8
0
 10
102.1904889187317
 20
216.14301053164411
 30
0.0
 11
101.8704889187315
 21
215.9582584455033
 31
0.0
  0
LINE
  5
355F
  8
0
 10
101.87916405332651
 20
217.8120704239677
 30
0.0
 11
102.1904889187319
 21
217.81207042396741
 31
0.0
  0
LINE
  5
3560
  8
0
 10
102.1904889187321
 20
213.80074555856291
 30
0.0
 11
101.75048891873141
 21
213.5467114401194
 31
0.0
  0
LINE
  5
3561
  8
0
 10
102.1904889187315
 20
215.5656602624542
 30
0.0
 11
101.8704889187315
 21
215.75041234859501
 31
0.0
  0
LINE
  5
3562
  8
0
 10
102.1904889187315
 20
214.94301053164389
 30
0.0
 11
101.87048891873179
 21
214.75825844550329
 31
0.0
  0
LINE
  5
3563
  8
0
 10
102.1904889187315
 20
214.36566026245441
 30
0.0
 11
101.8704889187313
 21
214.55041234859499
 31
0.0
  0
LINE
  5
3565
  8
0
 10
122.8907443333467
 20
212.80193323203969
 30
0.0
 11
122.8907443333467
 21
213.44278839166529
 31
0.0
  0
ARC
  5
3567
  8
0
 10
125.4907443333463
 20
213.51207042396771
 30
0.0
 40
1.600000000000023
 50
139.85310250039879
 51
247.9756871629578
  0
LINE
  5
3569
  8
0
 10
122.8907443333469
 20
212.00193323203979
 30
0.0
 11
122.1907443333468
 21
212.00193323203979
 31
0.0
  0
ARC
  5
356A
  8
0
 10
122.3107443333467
 20
212.48611275774661
 30
0.0
 40
0.12
 50
108.09999999999459
 51
180.00000000000301
1001
GENIUS_GENODEF_13
1002
{
1000
HIER
1070
     0
1002
}
1002
{
1000
MANEDIT
1070
     0
1002
}
1002
{
1000
NOSEL
1070
     0
1002
}
1002
{
1000
BEHIND
1070
     0
1002
}
1002
{
1000
REACTOR
1002
}
1001
GENIUS_GENOBJ-N-FIL_13
1002
{
1000
OWNER
1000
GEN
1002
}
  0
LINE
  5
356B
  8
0
 10
122.1907443333468
 20
212.00193323203979
 30
0.0
 11
122.1907443333468
 21
212.48611275774661
 31
0.0
  0
LINE
  5
356C
  8
0
 10
122.8907443333467
 20
212.80193323203969
 30
0.0
 11
122.2734631617911
 21
212.6001746455419
 31
0.0
  0
LINE
  5
356D
  8
0
 10
125.8833545940217
 20
211.01207042396771
 30
0.0
 11
125.3907443333466
 21
211.01207042396771
 31
0.0
  0
ARC
  5
356E
  8
0
 10
125.39074433334621
 20
211.51207042396771
 30
0.0
 40
0.5
 50
179.999999999994
 51
270.00000000000188
1001
GENIUS_GENODEF_13
1002
{
1000
HIER
1070
     0
1002
}
1002
{
1000
MANEDIT
1070
     0
1002
}
1002
{
1000
NOSEL
1070
     0
1002
}
1002
{
1000
BEHIND
1070
     0
1002
}
1002
{
1000
REACTOR
1002
}
1001
GENIUS_GENOBJ-N-FIL_13
1002
{
1000
OWNER
1000
GEN
1002
}
  0
LINE
  5
356F
  8
0
 10
124.39638777812949
 20
209.0120704239684
 30
0.0
 11
124.3907443333444
 21
209.0120704239684
 31
0.0
  0
ARC
  5
3570
  8
0
 10
124.3963877781289
 20
208.5120704239684
 30
0.0
 40
0.5
 50
0.5000000000010632
 51
89.999999999929955
1001
GENIUS_GENODEF_13
1002
{
1000
HIER
1070
     0
1002
}
1002
{
1000
MANEDIT
1070
     0
1002
}
1002
{
1000
NOSEL
1070
     0
1002
}
1002
{
1000
BEHIND
1070
     0
1002
}
1002
{
1000
REACTOR
1002
}
1001
GENIUS_GENOBJ-N-FIL_13
1002
{
1000
OWNER
1000
GEN
1002
}
  0
ARC
  5
3571
  8
0
 10
124.39074433334621
 20
210.5120704239684
 30
0.0
 40
1.5
 50
179.9999999999738
 51
269.99999999993241
1001
GENIUS_GENODEF_13
1002
{
1000
HIER
1070
     0
1002
}
1002
{
1000
MANEDIT
1070
     0
1002
}
1002
{
1000
NOSEL
1070
     0
1002
}
1002
{
1000
BEHIND
1070
     0
1002
}
1002
{
1000
REACTOR
1002
}
1001
GENIUS_GENOBJ-N-FIL_13
1002
{
1000
OWNER
1000
GEN
1002
}
  0
LINE
  5
3572
  8
0
 10
122.89074433334621
 20
210.51207042396911
 30
0.0
 11
122.8907443333469
 21
212.00193323203979
 31
0.0
  0
LINE
  5
3573
  8
0
 10
124.89074433334621
 20
211.51207042396771
 30
0.0
 11
124.8907443333467
 21
212.02883072654839
 31
0.0
  0
LINE
  5
3574
  8
0
 10
122.3907443333466
 20
214.36566026245441
 30
0.0
 11
122.7107443333468
 21
214.55041234859499
 31
0.0
  0
LINE
  5
3575
  8
0
 10
122.3907443333466
 20
214.94301053164389
 30
0.0
 11
122.7107443333464
 21
214.75825844550329
 31
0.0
  0
LINE
  5
3576
  8
0
 10
122.3907443333466
 20
215.5656602624542
 30
0.0
 11
122.7107443333466
 21
215.75041234859501
 31
0.0
  0
LINE
  5
3577
  8
0
 10
122.39074433334601
 20
213.80074555856291
 30
0.0
 11
122.8307443333467
 21
213.5467114401194
 31
0.0
  0
LINE
  5
3578
  8
0
 10
122.7020691987516
 20
217.8120704239677
 30
0.0
 11
122.39074433334621
 21
217.81207042396741
 31
0.0
  0
LINE
  5
3579
  8
0
 10
122.3907443333464
 20
216.14301053164411
 30
0.0
 11
122.7107443333466
 21
215.9582584455033
 31
0.0
  0
LINE
  5
357A
  8
0
 10
122.3907443333466
 20
217.34301053164401
 30
0.0
 11
122.7107443333466
 21
217.15825844550341
 31
0.0
  0
LINE
  5
357B
  8
0
 10
122.3907443333466
 20
216.76566026245419
 30
0.0
 11
122.7107443333468
 21
216.95041234859511
 31
0.0
  0
ARC
  5
357C
  8
0
 10
122.6507443333464
 20
215.8543353970492
 30
0.0
 40
0.12
 50
300.00000000001029
 51
59.99999999999384
1001
GENIUS_GENODEF_13
1002
{
1000
HIER
1070
     0
1002
}
1002
{
1000
MANEDIT
1070
     0
1002
}
1002
{
1000
NOSEL
1070
     0
1002
}
1002
{
1000
BEHIND
1070
     0
1002
}
1002
{
1000
REACTOR
1002
}
1001
GENIUS_GENOBJ-N-FIL_13
1002
{
1000
OWNER
1000
GEN
1002
}
  0
ARC
  5
357D
  8
0
 10
122.6507443333464
 20
214.6543353970491
 30
0.0
 40
0.12
 50
300.00000000001029
 51
59.99999999999384
1001
GENIUS_GENODEF_13
1002
{
1000
HIER
1070
     0
1002
}
1002
{
1000
MANEDIT
1070
     0
1002
}
1002
{
1000
NOSEL
1070
     0
1002
}
1002
{
1000
BEHIND
1070
     0
1002
}
1002
{
1000
REACTOR
1002
}
1001
GENIUS_GENOBJ-N-FIL_13
1002
{
1000
OWNER
1000
GEN
1002
}
  0
ARC
  5
357E
  8
0
 10
122.7707443333468
 20
213.44278839166529
 30
0.0
 40
0.12
 50
359.99999999999233
 51
60.000000000025892
1001
GENIUS_GENODEF_13
1002
{
1000
HIER
1070
     0
1002
}
1002
{
1000
MANEDIT
1070
     0
1002
}
1002
{
1000
NOSEL
1070
     0
1002
}
1002
{
1000
BEHIND
1070
     0
1002
}
1002
{
1000
REACTOR
1002
}
1001
GENIUS_GENOBJ-N-FIL_13
1002
{
1000
OWNER
1000
GEN
1002
}
  0
ARC
  5
357F
  8
0
 10
122.6507443333464
 20
217.05433539704919
 30
0.0
 40
0.12
 50
300.00000000001029
 51
59.99999999999384
1001
GENIUS_GENODEF_13
1002
{
1000
HIER
1070
     0
1002
}
1002
{
1000
MANEDIT
1070
     0
1002
}
1002
{
1000
NOSEL
1070
     0
1002
}
1002
{
1000
BEHIND
1070
     0
1002
}
1002
{
1000
REACTOR
1002
}
1001
GENIUS_GENOBJ-N-FIL_13
1002
{
1000
OWNER
1000
GEN
1002
}
  0
ARC
  5
3580
  8
0
 10
122.7020691987516
 20
217.3120704239677
 30
0.0
 40
0.5
 50
29.999999999999918
 51
90.0000000000028
1001
GENIUS_GENODEF_13
1002
{
1000
HIER
1070
     0
1002
}
1002
{
1000
MANEDIT
1070
     0
1002
}
1002
{
1000
NOSEL
1070
     0
1002
}
1002
{
1000
BEHIND
1070
     0
1002
}
1002
{
1000
REACTOR
1002
}
1001
GENIUS_GENOBJ-N-FIL_13
1002
{
1000
OWNER
1000
GEN
1002
}
  0
LINE
  5
3581
  8
0
 10
122.39074433334601
 20
213.80074555856291
 30
0.0
 11
122.39074433334621
 21
214.3656602624541
 31
0.0
  0
LINE
  5
3582
  8
0
 10
122.3907443333466
 20
214.94301053164389
 30
0.0
 11
122.3907443333466
 21
215.5656602624542
 31
0.0
  0
LINE
  5
3583
  8
0
 10
122.3907443333464
 20
216.14301053164411
 30
0.0
 11
122.3907443333464
 21
216.76566026245419
 31
0.0
  0
LINE
  5
3584
  8
0
 10
122.3907443333464
 20
217.34301053164401
 30
0.0
 11
122.39074433334621
 21
217.81207042396741
 31
0.0
  0
ARC
  5
3588
  8
0
 10
123.65619892681769
 20
215.05946925794501
 30
0.0
 40
0.8
 50
319.85310250039993
 51
30.000000000002771
1001
GENIUS_GENODEF_13
1002
{
1000
HIER
1070
     0
1002
}
1002
{
1000
MANEDIT
1070
     0
1002
}
1002
{
1000
NOSEL
1070
     0
1002
}
1002
{
1000
BEHIND
1070
     0
1002
}
1002
{
1000
REACTOR
1002
}
1001
GENIUS_GENOBJ-N-FIL_13
1002
{
1000
OWNER
1000
GEN
1002
}
  0
LINE
  5
358A
  8
0
 10
124.3490192498454
 20
215.45946925794479
 30
0.0
 11
123.1350819006438
 21
217.5620704239677
 31
0.0
  0
LINE
  5
358C
  8
0
 10
197.27142607145089
 20
160.31424450790411
 30
0.0
 11
197.27142607145089
 21
217.81207042396741
 31
0.0
  0
LINE
  5
358D
  8
0
 10
127.2906166260391
 20
100.3142445082532
 30
0.0
 11
127.2906166260391
 21
50.314244508253182
 31
0.0
  0
LINE
  5
358F
  8
0
 10
126.92138264778281
 20
205.65885042721939
 30
0.0
 11
126.8833165170858
 21
210.02079695946591
 31
0.0
  0
LINE
  5
3590
  8
0
 10
127.1831787127346
 20
175.6599927352938
 30
0.0
 11
127.05751660155779
 21
190.0594444274181
 31
0.0
  0
ARC
  5
3592
  8
0
 10
127.10579971953869
 20
175.35930603553479
 30
0.0
 40
0.119999999999891
 50
142.83206335112629
 51
218.1679366489266
  0
LINE
  5
3593
  8
0
 10
127.18841463403371
 20
175.06001558145559
 30
0.0
 11
127.0114553789456
 21
175.28514981261279
 31
0.0
  0
LINE
  5
3594
  8
0
 10
127.1831787127346
 20
175.6599927352942
 30
0.0
 11
127.01017554350371
 21
175.43180442832789
 31
0.0
  0
LINE
  5
3596
  8
0
 10
127.05228068025851
 20
190.65942158125671
 30
0.0
 11
126.9266185690819
 21
205.05887327338061
 31
0.0
  0
LINE
  5
3597
  8
0
 10
127.05228068025851
 20
190.65942158125671
 30
0.0
 11
126.8792775110275
 21
190.43123327429061
 31
0.0
  0
LINE
  5
3598
  8
0
 10
127.05751660155779
 20
190.0594444274181
 30
0.0
 11
126.8805573464699
 21
190.2845786585755
 31
0.0
  0
ARC
  5
3599
  8
0
 10
126.974901687063
 20
190.35873488149761
 30
0.0
 40
0.119999999999891
 50
142.83206335112629
 51
218.1679366489266
  0
ARC
  5
359B
  8
0
 10
126.8440036545869
 20
205.35816372746001
 30
0.0
 40
0.119999999999891
 50
142.83206335112629
 51
218.1679366489266
  0
LINE
  5
359C
  8
0
 10
126.9266185690819
 20
205.05887327338081
 30
0.0
 11
126.749659313994
 21
205.28400750453801
 31
0.0
  0
LINE
  5
359D
  8
0
 10
126.92138264778281
 20
205.65885042721919
 30
0.0
 11
126.7483794785519
 21
205.43066212025309
 31
0.0
  0
LINE
  5
35A1
  8
0
 10
97.290616626039139
 20
50.314244508253182
 30
0.0
 11
127.2906166260391
 21
50.314244508253182
 31
0.0
  0
LINE
  5
36BA
  8
0
 10
127.18841463403371
 20
175.06001558145559
 30
0.0
 11
127.2905154219726
 21
163.3404241143991
 31
0.0
  0
LINE
  5
36BB
  8
0
 10
124.8963687396609
 20
208.51643369171759
 30
0.0
 11
125.2905915758443
 21
163.3229710434023
 31
0.0
  0
LINE
  5
36BC
  8
0
 10
99.684864512417192
 20
208.51643369171759
 30
0.0
 11
99.290641676233875
 21
163.3229710434023
 31
0.0
  0
LINE
  5
36BD
  8
0
 10
97.392818618044416
 20
175.06001558145559
 30
0.0
 11
97.290717830105535
 21
163.3404241143991
 31
0.0
  0
LINE
  5
36BE
  8
0
 10
197.271426071451
 20
217.81207042396741
 30
0.0
 11
247.271426071451
 21
217.81207042396741
 31
0.0
  0
LINE
  5
36C0
  8
0
 10
197.27142607145089
 20
212.02883072654839
 30
0.0
 11
247.27142607145089
 21
212.02883072654839
 31
0.0
  0
LINE
  5
36C1
  8
0
 10
197.271426071451
 20
211.01207042396771
 30
0.0
 11
247.271426071451
 21
211.01207042396771
 31
0.0
  0
LINE
  5
36C3
  8
0
 10
197.271426071451
 20
205.35711654320031
 30
0.0
 11
247.271426071451
 21
205.35711654320019
 31
0.0
  0
LINE
  5
36C4
  8
0
 10
197.27142607145089
 20
190.35768769723771
 30
0.0
 11
247.271426071451
 21
190.35768769723771
 31
0.0
  0
LINE
  5
36C5
  8
0
 10
197.27142607145089
 20
175.358258851275
 30
0.0
 11
247.271426071451
 21
175.358258851275
 31
0.0
  0
LINE
  5
36C6
  8
0
 10
197.271426071451
 20
160.31424450790391
 30
0.0
 11
247.27142607145089
 21
160.31424450790391
 31
0.0
  0
LINE
  5
36C7
  8
0
 10
247.27142607145089
 20
160.31424450790411
 30
0.0
 11
247.27142607145089
 21
217.81207042396741
 31
0.0
  0
LINE
  5
36CD
  8
0
 10
197.27142607145089
 20
215.0594692579449
 30
0.0
 11
247.27142607145089
 21
215.05946925794501
 31
0.0
  0
LINE
  5
36CE
  8
0
 10
247.27142607145089
 20
215.05946925794501
 30
0.0
 11
247.27142607145089
 21
215.05946925794501
 31
0.0
  0
TEXT
  5
378A
  8
0
 62
     3
 10
0.0
 20
0.0
 30
0.0
 40
10.0
  1
L6-UPE3060N
  7
STANDARD1
  0
ENDSEC
  0
EOF
