  0
SECTION
  2
HEADER
  9
$ACADVER
  1
AC1009
  9
$INSBASE
 10
7.37824081052986
 20
15.90864369846679
 30
0.0
  9
$EXTMIN
 10
0.0
 20
-1.4802182810368341
 30
0.0
  9
$EXTMAX
 10
230.92124210137379
 20
190.1308926024048
 30
0.0
  9
$LIMMIN
 10
0.0
 20
0.0
  9
$LIMMAX
 10
385.0
 20
270.0
  9
$ORTHOMODE
 70
     1
  9
$REGENMODE
 70
     1
  9
$FILLMODE
 70
     1
  9
$QTEXTMODE
 70
     0
  9
$MIRRTEXT
 70
     0
  9
$DRAGMODE
 70
     2
  9
$LTSCALE
 40
10.0
  9
$OSMODE
 70
  3071
  9
$ATTMODE
 70
     1
  9
$TEXTSIZE
 40
4.0
  9
$TRACEWID
 40
0.05
  9
$TEXTSTYLE
  7
STANDARD
  9
$CLAYER
  8
0
  9
$CELTYPE
  6
BYLAYER
  9
$CECOLOR
 62
   256
  9
$DIMSCALE
 40
1.0
  9
$DIMASZ
 40
3.0
  9
$DIMEXO
 40
2.0
  9
$DIMDLI
 40
10.0
  9
$DIMRND
 40
0.0
  9
$DIMDLE
 40
0.0
  9
$DIMEXE
 40
2.0
  9
$DIMTP
 40
0.0
  9
$DIMTM
 40
0.0
  9
$DIMTXT
 40
3.0
  9
$DIMCEN
 40
0.09
  9
$DIMTSZ
 40
0.0
  9
$DIMTOL
 70
     0
  9
$DIMLIM
 70
     0
  9
$DIMTIH
 70
     0
  9
$DIMTOH
 70
     0
  9
$DIMSE1
 70
     0
  9
$DIMSE2
 70
     0
  9
$DIMTAD
 70
     1
  9
$DIMZIN
 70
     0
  9
$DIMBLK
  1

  9
$DIMASO
 70
     0
  9
$DIMSHO
 70
     0
  9
$DIMPOST
  1

  9
$DIMAPOST
  1

  9
$DIMALT
 70
     0
  9
$DIMALTD
 70
     2
  9
$DIMALTF
 40
25.399999999999999
  9
$DIMLFAC
 40
1.0
  9
$DIMTOFL
 70
     1
  9
$DIMTVP
 40
1.6000000000000001
  9
$DIMTIX
 70
     1
  9
$DIMSOXD
 70
     0
  9
$DIMSAH
 70
     0
  9
$DIMBLK1
  1

  9
$DIMBLK2
  1

  9
$DIMSTYLE
  2
STANDARD
  9
$DIMCLRD
 70
     0
  9
$DIMCLRE
 70
     0
  9
$DIMCLRT
 70
     0
  9
$DIMTFAC
 40
1.0
  9
$DIMGAP
 40
1.0
  9
$LUNITS
 70
     2
  9
$LUPREC
 70
     2
  9
$SKETCHINC
 40
0.1
  9
$FILLETRAD
 40
2.0
  9
$AUNITS
 70
     0
  9
$AUPREC
 70
     2
  9
$MENU
  1
E:\r13\win\SUPPORT\ACAD
  9
$ELEVATION
 40
0.0
  9
$PELEVATION
 40
0.0
  9
$THICKNESS
 40
0.0
  9
$LIMCHECK
 70
     0
  9
$BLIPMODE
 70
     0
  9
$CHAMFERA
 40
1.0
  9
$CHAMFERB
 40
1.0
  9
$SKPOLY
 70
     0
  9
$TDCREATE
 40
2450252.6853964119
  9
$TDUPDATE
 40
2456597.5628279168
  9
$TDINDWG
 40
0.1460891898
  9
$TDUSRTIMER
 40
0.1460891898
  9
$USRTIMER
 70
     1
  9
$ANGBASE
 50
0.0
  9
$ANGDIR
 70
     0
  9
$PDMODE
 70
     0
  9
$PDSIZE
 40
0.0
  9
$PLINEWID
 40
0.0
  9
$COORDS
 70
     1
  9
$SPLFRAME
 70
     0
  9
$SPLINETYPE
 70
     6
  9
$SPLINESEGS
 70
     8
  9
$ATTDIA
 70
     0
  9
$ATTREQ
 70
     1
  9
$HANDLING
 70
     1
  9
$HANDSEED
  5
2AF8
  9
$SURFTAB1
 70
     6
  9
$SURFTAB2
 70
     6
  9
$SURFTYPE
 70
     6
  9
$SURFU
 70
     6
  9
$SURFV
 70
     6
  9
$UCSNAME
  2

  9
$UCSORG
 10
0.0
 20
0.0
 30
0.0
  9
$UCSXDIR
 10
1.0
 20
0.0
 30
0.0
  9
$UCSYDIR
 10
0.0
 20
1.0
 30
0.0
  9
$PUCSNAME
  2

  9
$PUCSORG
 10
0.0
 20
0.0
 30
0.0
  9
$PUCSXDIR
 10
1.0
 20
0.0
 30
0.0
  9
$PUCSYDIR
 10
0.0
 20
1.0
 30
0.0
  9
$USERI1
 70
     3
  9
$USERI2
 70
     1
  9
$USERI3
 70
     1
  9
$USERI4
 70
     1
  9
$USERI5
 70
     0
  9
$USERR1
 40
1.0
  9
$USERR2
 40
3.0
  9
$USERR3
 40
3.0
  9
$USERR4
 40
3.0
  9
$USERR5
 40
10.0
  9
$WORLDVIEW
 70
     1
  9
$SHADEDGE
 70
     3
  9
$SHADEDIF
 70
    70
  9
$TILEMODE
 70
     1
  9
$MAXACTVP
 70
    16
  9
$PLIMCHECK
 70
     0
  9
$PEXTMIN
 10
1.0000000000000000E+020
 20
1.0000000000000000E+020
 30
1.0000000000000000E+020
  9
$PEXTMAX
 10
-1.0000000000000000E+020
 20
-1.0000000000000000E+020
 30
-1.0000000000000000E+020
  9
$PLIMMIN
 10
0.0
 20
0.0
  9
$PLIMMAX
 10
12.0
 20
9.0
  9
$UNITMODE
 70
     0
  9
$VISRETAIN
 70
     0
  9
$PLINEGEN
 70
     0
  9
$PSLTSCALE
 70
     0
  0
ENDSEC
  0
SECTION
  2
TABLES
  0
TABLE
  2
VPORT
 70
     1
  0
VPORT
  2
*ACTIVE
 70
     0
 10
0.0
 20
0.0
 11
1.0
 21
1.0
 12
192.49412581440311
 22
163.44375437976839
 13
0.0
 23
0.0
 14
5.0
 24
5.0
 15
5.0
 25
5.0
 16
0.0
 26
0.0
 36
1.0
 17
0.0
 27
0.0
 37
0.0
 40
332.99088632058158
 41
1.9089595375722539
 42
50.0
 43
0.0
 44
0.0
 50
0.0
 51
0.0
 71
     0
 72
  1000
 73
     1
 74
     0
 75
     0
 76
     0
 77
     0
 78
     1
  0
ENDTAB
  0
TABLE
  2
LTYPE
 70
     3
  0
LTYPE
  2
CONTINUOUS
 70
     0
  3
Solid Line
 72
    65
 73
     0
 40
0.0
  0
LTYPE
  2
CENTER
 70
     0
  3
____ _ ____ _ ____ _ ____ _ ____ _ ____ _ ____
 72
    65
 73
     4
 40
2.0
 49
1.25
 49
-0.25
 49
0.25
 49
-0.25
  0
LTYPE
  2
PHANTOM2
 70
     0
  3
___ _ _ ___ _ _ ___ _ _ ___ _ _
 72
    65
 73
     6
 40
1.25
 49
0.625
 49
-0.125
 49
0.125
 49
-0.125
 49
0.125
 49
-0.125
  0
ENDTAB
  0
TABLE
  2
LAYER
 70
     3
  0
LAYER
  2
0
 70
     0
 62
     7
  6
CONTINUOUS
  0
LAYER
  2
11
 70
     0
 62
     3
  6
CONTINUOUS
  0
LAYER
  2
1
 70
     0
 62
     1
  6
CENTER
  0
ENDTAB
  0
TABLE
  2
STYLE
 70
     2
  0
STYLE
  2
STANDARD
 70
     0
 40
0.0
 41
1.0
 50
0.0
 71
     0
 42
4.0
  3
simplex
  4
bigfont
  0
STYLE
  2
STANDARD1
 70
     0
 40
0.0
 41
1.0
 50
0.0
 71
     0
 42
3.0
  3
txt
  4

  0
ENDTAB
  0
TABLE
  2
VIEW
 70
     0
  0
ENDTAB
  0
TABLE
  2
UCS
 70
     0
  0
ENDTAB
  0
TABLE
  2
APPID
 70
     9
  0
APPID
  2
ACAD
 70
     0
  0
APPID
  2
GENIUS_GENODEF_13
 70
     0
  0
APPID
  2
GENIUS_GENOENT_13
 70
     0
  0
APPID
  2
GENIUS_GENOBJ_13
 70
     0
  0
APPID
  2
GENIUS_GENOLIS_13
 70
     0
  0
APPID
  2
GENIUS_GENOREF_13
 70
     0
  0
APPID
  2
GENIUS_GENOBJ-N-FIL_13
 70
     0
  0
APPID
  2
ACAD_MLEADERVER
 70
     0
  0
APPID
  2
ACAD_NAV_VCDISPLAY
 70
     0
  0
ENDTAB
  0
TABLE
  2
DIMSTYLE
 70
     1
  0
DIMSTYLE
  2
STANDARD
 70
     0
  3

  4

  5

  6

  7

 40
1.0
 41
0.18
 42
0.0625
 43
0.38
 44
0.18
 45
0.0
 46
0.0
 47
0.0
 48
0.0
140
0.18
141
0.09
142
0.0
143
25.399999999999999
144
1.0
145
0.0
146
1.0
147
0.09
 71
     0
 72
     0
 73
     1
 74
     1
 75
     0
 76
     0
 77
     0
 78
     0
170
     0
171
     2
172
     0
173
     0
174
     0
175
     0
176
     0
177
     0
178
     0
  0
ENDTAB
  0
ENDSEC
  0
SECTION
  2
BLOCKS
  0
BLOCK
  8
0
  2
$MODEL_SPACE
 70
     0
 10
0.0
 20
0.0
 30
0.0
  3
$MODEL_SPACE
  1

  0
ENDBLK
  5
299D
  8
0
  0
BLOCK
 67
     1
  8
0
  2
$PAPER_SPACE
 70
     0
 10
0.0
 20
0.0
 30
0.0
  3
$PAPER_SPACE
  1

  0
ENDBLK
  5
299B
 67
     1
  8
0
  0
ENDSEC
  0
SECTION
  2
ENTITIES
  0
ARC
  5
281A
  8
0
 10
148.50371600077679
 20
135.5145261345892
 30
0.0
 40
7.9992851428535667
 50
304.2261569925376
 51
55.77384300746445
  0
LINE
  5
281B
  8
0
 10
153.0030011436277
 20
127.5145261345893
 30
0.0
 11
153.00300114362739
 21
143.5145261345892
 31
0.0
  0
LINE
  5
281C
  8
0
 10
165.60300114363019
 20
143.3145261345895
 30
0.0
 11
165.60300114363031
 21
127.71452613458951
 31
0.0
  0
CIRCLE
  5
281D
  8
0
 10
217.92124210137379
 20
135.5145261345894
 30
0.0
 40
8.0
  0
LINE
  5
281E
  8
0
 10
157.65611968493681
 20
141.58292187408409
 30
0.0
 11
159.3030011436249
 21
140.92950855007061
 31
0.0
  0
LINE
  5
281F
  8
0
 10
160.94988260231281
 20
141.58292187408421
 30
0.0
 11
159.30300114362481
 21
140.92950855007061
 31
0.0
  0
LINE
  5
2820
  8
0
 10
153.00300114362739
 20
143.5145261345892
 30
0.0
 11
153.89700114362481
 21
143.5145261345892
 31
0.0
  0
LINE
  5
2821
  8
0
 10
154.2030011436249
 20
143.24797034973301
 30
0.0
 11
154.2030011436249
 21
142.95297413400161
 31
0.0
  0
ARC
  5
2822
  8
0
 10
159.3030011436247
 20
149.41157319221739
 30
0.0
 40
7.999999999992486
 50
227.48758087603929
 51
230.3943476060891
  0
LINE
  5
2823
  8
0
 10
154.2030011436249
 20
142.95297413400161
 30
0.0
 11
155.13464574000781
 21
142.5833367267004
 31
0.0
  0
ARC
  5
2824
  8
0
 10
159.3030011436247
 20
149.41157319221739
 30
0.0
 40
7.999999999992486
 50
238.59766440154169
 51
258.12014206732778
  0
ARC
  5
2825
  8
0
 10
165.40300114363021
 20
143.3145261345895
 30
0.0
 40
0.2
 50
0.0000000000006234
 51
90.000000000001037
  0
LINE
  5
2826
  8
0
 10
164.70900114362479
 20
143.5145261345894
 30
0.0
 11
165.40300114363021
 21
143.5145261345894
 31
0.0
  0
LINE
  5
2827
  8
0
 10
164.40300114362469
 20
142.95297413400169
 30
0.0
 11
163.47135654724181
 21
142.58333672670051
 31
0.0
  0
LINE
  5
2828
  8
0
 10
164.40300114362469
 20
143.24797034973321
 30
0.0
 11
164.40300114362469
 21
142.95297413400169
 31
0.0
  0
ARC
  5
2829
  8
0
 10
159.3030011436247
 20
149.41157319221739
 30
0.0
 40
7.999999999992486
 50
281.8798579326741
 51
301.4023355984603
  0
ARC
  5
282A
  8
0
 10
159.3030011436247
 20
149.41157319221739
 30
0.0
 40
7.999999999992486
 50
309.60565239391269
 51
312.5124191239625
  0
LINE
  5
282B
  8
0
 10
154.20300114363329
 20
176.93640622953779
 30
0.0
 11
154.20300114363329
 21
178.0878962276177
 31
0.0
  0
LINE
  5
282C
  8
0
 10
154.3030011436332
 20
176.99414125645669
 30
0.0
 11
154.3030011436332
 21
178.12305301928009
 31
0.0
  0
LINE
  5
282D
  8
0
 10
164.4030011436333
 20
178.08789622761759
 30
0.0
 11
164.4030011436333
 21
176.93640622953779
 31
0.0
  0
LINE
  5
282E
  8
0
 10
164.30300114363331
 20
178.12305301928001
 30
0.0
 11
164.30300114363331
 21
176.99414125645669
 31
0.0
  0
CIRCLE
  5
2830
  8
0
 10
159.30300114363331
 20
179.8808926024048
 30
0.0
 40
2.5
  0
CIRCLE
  5
2831
  8
0
 10
159.30300114363331
 20
179.8808926024048
 30
0.0
 40
5.25
  0
LINE
  5
2832
  8
0
 10
153.0030011436304
 20
175.38089260240491
 30
0.0
 11
153.00300114363051
 21
184.38089260240491
 31
0.0
  0
LINE
  5
2833
  8
0
 10
165.60300114363059
 20
172.08089260240479
 30
0.0
 11
165.60300114363059
 21
187.6808926024047
 31
0.0
  0
LINE
  5
283E
  8
0
 10
221.02124210137379
 20
118.3145261345895
 30
0.0
 11
214.82124210137391
 21
118.3145261345895
 31
0.0
  0
LINE
  5
283F
  8
0
 10
221.0212421013737
 20
123.353919071086
 30
0.0
 11
214.82124210137391
 21
123.353919071086
 31
0.0
  0
LINE
  5
2840
  8
0
 10
221.0212421013737
 20
124.2751331980928
 30
0.0
 11
214.8212421013738
 21
124.2751331980928
 31
0.0
  0
LINE
  5
2841
  8
0
 10
214.8212421013738
 20
128.1395685075924
 30
0.0
 11
214.82124210137391
 21
118.3145261345895
 31
0.0
  0
LINE
  5
284F
  8
0
 10
221.02124210137379
 20
128.1395685075924
 30
0.0
 11
221.02124210137379
 21
118.3145261345895
 31
0.0
  0
LINE
  5
2863
  8
0
 10
165.3030011436332
 20
123.1807989329052
 30
0.0
 11
165.30300114363331
 21
118.3145261345895
 31
0.0
  0
LINE
  5
2864
  8
0
 10
162.50300114363321
 20
123.18079893290511
 30
0.0
 11
162.5030011436333
 21
118.3145261345894
 31
0.0
  0
ARC
  5
2865
  8
0
 10
159.3280011436253
 20
120.03893050609619
 30
0.0
 40
8.1218935600476971
 50
66.98832487131078
 51
113.0116751286924
  0
LINE
  5
2866
  8
0
 10
156.15300114362569
 20
127.5145261345893
 30
0.0
 11
153.0030011436277
 21
127.5145261345893
 31
0.0
  0
LINE
  5
2867
  8
0
 10
165.303001143633
 20
128.13956850759271
 30
0.0
 11
165.3030011436332
 21
124.44825333627379
 31
0.0
  0
LINE
  5
2868
  8
0
 10
162.50300114363301
 20
128.1395685075926
 30
0.0
 11
162.50300114363321
 21
124.44825333627369
 31
0.0
  0
LINE
  5
2869
  8
0
 10
165.40300114363041
 20
127.5145261345896
 30
0.0
 11
165.303001143633
 21
127.5145261345896
 31
0.0
  0
ARC
  5
286A
  8
0
 10
165.40300114363041
 20
127.71452613458951
 30
0.0
 40
0.2
 50
270.00000000000102
 51
0.0000000000006234
  0
LINE
  5
286B
  8
0
 10
165.303001143633
 20
128.13956850759271
 30
0.0
 11
162.50300114363301
 21
128.1395685075926
 31
0.0
  0
ARC
  5
286C
  8
0
 10
165.10300114363309
 20
124.44825333627379
 30
0.0
 40
0.2
 50
300.04863276769362
 51
0.0000000000010432
  0
ARC
  5
286D
  8
0
 10
165.10300114363329
 20
123.1807989329052
 30
0.0
 40
0.2
 50
0.0000000000004198
 51
59.951367232308669
  0
LINE
  5
286E
  8
0
 10
165.20314812439739
 20
124.2751331980928
 30
0.0
 11
164.6813911593328
 21
123.97330589311829
 31
0.0
  0
ARC
  5
286F
  8
0
 10
164.80300114363311
 20
123.8145261345894
 30
0.0
 40
0.2
 50
127.4486327676961
 51
232.55136723230751
  0
LINE
  5
2870
  8
0
 10
165.20314812439759
 20
123.353919071086
 30
0.0
 11
164.68139115933289
 21
123.6557463760607
 31
0.0
  0
ARC
  5
2871
  8
0
 10
162.7030011436332
 20
124.44825333627369
 30
0.0
 40
0.2
 50
180.00000000000099
 51
239.95136723230851
  0
LINE
  5
2872
  8
0
 10
162.60285416286879
 20
123.3539190710859
 30
0.0
 11
163.12461112793349
 21
123.6557463760607
 31
0.0
  0
ARC
  5
2873
  8
0
 10
163.00300114363321
 20
123.8145261345894
 30
0.0
 40
0.2
 50
307.44863276769462
 51
52.551367232306013
  0
LINE
  5
2874
  8
0
 10
162.60285416286891
 20
124.2751331980927
 30
0.0
 11
163.12461112793341
 21
123.97330589311829
 31
0.0
  0
ARC
  5
2875
  8
0
 10
162.70300114363309
 20
123.18079893290511
 30
0.0
 40
0.2
 50
120.04863276769331
 51
180.00000000000159
  0
LINE
  5
287B
  8
0
 10
162.5030011436333
 20
118.3145261345894
 30
0.0
 11
165.30300114363331
 21
118.3145261345895
 31
0.0
  0
LINE
  5
287D
  8
0
 10
159.3030011436332
 20
177.57149152564639
 30
0.0
 11
161.3030011436332
 21
178.72619206402561
 31
0.0
  0
LINE
  5
287E
  8
0
 10
161.30300114363331
 20
181.0355931407841
 30
0.0
 11
159.30300114363331
 21
182.19029367916329
 31
0.0
  0
ARC
  5
287F
  8
0
 10
159.30300114363331
 20
179.8808926024048
 30
0.0
 40
5.2999999999999998
 50
40.630776631695923
 51
79.369223368303679
  0
ARC
  5
2880
  8
0
 10
159.30300114363331
 20
179.8808926024048
 30
0.0
 40
5.4059999999999997
 50
40.630776631695923
 51
79.369223368303679
  0
LINE
  5
2881
  8
0
 10
156.5030011436306
 20
187.8808926024048
 30
0.0
 11
165.4030011436306
 21
187.88089260240471
 31
0.0
  0
LINE
  5
2882
  8
0
 10
154.20300114363329
 20
182.8253789752718
 30
0.0
 11
155.20022073417411
 21
183.40112397431179
 31
0.0
  0
LINE
  5
2883
  8
0
 10
154.3030011436332
 20
182.76764394835291
 30
0.0
 11
155.28066740886939
 21
183.33209982976459
 31
0.0
  0
LINE
  5
2884
  8
0
 10
159.30300114363331
 20
185.76986534813889
 30
0.0
 11
160.3002207341741
 21
185.19412034909911
 31
0.0
  0
LINE
  5
2885
  8
0
 10
158.3057815530924
 20
185.19412034909911
 30
0.0
 11
159.30300114363331
 21
185.76986534813889
 31
0.0
  0
LINE
  5
2886
  8
0
 10
159.30300114363331
 20
185.654395294301
 30
0.0
 11
160.28066740886939
 21
185.08993941288941
 31
0.0
  0
LINE
  5
2887
  8
0
 10
158.32533487839709
 20
185.08993941288941
 30
0.0
 11
159.30300114363331
 21
185.654395294301
 31
0.0
  0
LINE
  5
2888
  8
0
 10
156.5030011436306
 20
187.8808926024048
 30
0.0
 11
153.00300114363051
 21
184.38089260240491
 31
0.0
  0
ARC
  5
2889
  8
0
 10
159.30300114363331
 20
179.8808926024048
 30
0.0
 40
5.2999999999999998
 50
100.6307766316954
 51
139.36922336830389
  0
ARC
  5
288A
  8
0
 10
159.30300114363331
 20
179.8808926024048
 30
0.0
 40
5.4059999999999997
 50
100.6307766316954
 51
139.36922336830389
  0
LINE
  5
288B
  8
0
 10
154.20300114363329
 20
181.67388897719201
 30
0.0
 11
154.20300114363329
 21
182.8253789752718
 31
0.0
  0
LINE
  5
288C
  8
0
 10
154.3030011436332
 20
181.63873218552951
 30
0.0
 11
154.3030011436332
 21
182.76764394835291
 31
0.0
  0
LINE
  5
288D
  8
0
 10
157.30300114363331
 20
178.72619206402561
 30
0.0
 11
159.3030011436332
 21
177.57149152564639
 31
0.0
  0
LINE
  5
288E
  8
0
 10
157.30300114363331
 20
181.0355931407841
 30
0.0
 11
157.30300114363331
 21
178.72619206402561
 31
0.0
  0
LINE
  5
288F
  8
0
 10
159.30300114363331
 20
182.19029367916329
 30
0.0
 11
157.30300114363331
 21
181.0355931407841
 31
0.0
  0
ARC
  5
2890
  8
0
 10
159.30300114363331
 20
179.8808926024048
 30
0.0
 40
5.2999999999999998
 50
160.6299617544596
 51
199.37003824554029
  0
ARC
  5
2891
  8
0
 10
159.30300114363331
 20
179.8808926024048
 30
0.0
 40
5.4059999999999997
 50
160.6299617544596
 51
199.37003824554029
  0
LINE
  5
2892
  8
0
 10
163.4057815530924
 20
183.4011239743119
 30
0.0
 11
164.4030011436333
 21
182.825378975272
 31
0.0
  0
LINE
  5
2893
  8
0
 10
163.32533487839709
 20
183.3320998297647
 30
0.0
 11
164.30300114363331
 21
182.767643948353
 31
0.0
  0
ARC
  5
2894
  8
0
 10
165.4030011436306
 20
187.6808926024047
 30
0.0
 40
0.2
 50
0.0
 51
89.999999999999275
  0
LINE
  5
2895
  8
0
 10
164.4030011436333
 20
182.825378975272
 30
0.0
 11
164.4030011436333
 21
181.67388897719201
 31
0.0
  0
LINE
  5
2896
  8
0
 10
164.30300114363331
 20
182.767643948353
 30
0.0
 11
164.30300114363331
 21
181.63873218552951
 31
0.0
  0
LINE
  5
2897
  8
0
 10
161.3030011436332
 20
178.72619206402561
 30
0.0
 11
161.30300114363331
 21
181.0355931407841
 31
0.0
  0
ARC
  5
2898
  8
0
 10
159.30300114363331
 20
179.8808926024048
 30
0.0
 40
5.2999999999999998
 50
340.6299617544596
 51
19.370038245540371
  0
ARC
  5
2899
  8
0
 10
159.30300114363331
 20
179.8808926024048
 30
0.0
 40
5.4059999999999997
 50
340.6299617544596
 51
19.370038245540371
  0
LINE
  5
289C
  8
0
 10
156.50300114363031
 20
171.88089260240491
 30
0.0
 11
165.4030011436306
 21
171.8808926024048
 31
0.0
  0
ARC
  5
289D
  8
0
 10
159.30300114363331
 20
179.8808926024048
 30
0.0
 40
5.2999999999999998
 50
280.62996175445892
 51
319.37003824554142
  0
ARC
  5
289E
  8
0
 10
159.30300114363331
 20
179.8808926024048
 30
0.0
 40
5.4059999999999997
 50
280.62996175445892
 51
319.37003824554142
  0
LINE
  5
289F
  8
0
 10
153.0030011436304
 20
175.38089260240491
 30
0.0
 11
156.50300114363031
 21
171.88089260240491
 31
0.0
  0
LINE
  5
28A0
  8
0
 10
155.20022073417411
 20
176.36066123049781
 30
0.0
 11
154.20300114363329
 21
176.93640622953779
 31
0.0
  0
LINE
  5
28A1
  8
0
 10
155.28066740886939
 20
176.4296853750449
 30
0.0
 11
154.3030011436332
 21
176.99414125645669
 31
0.0
  0
LINE
  5
28A2
  8
0
 10
159.30300114363331
 20
173.99191985667071
 30
0.0
 11
158.3057815530924
 21
174.5676648557106
 31
0.0
  0
LINE
  5
28A3
  8
0
 10
160.30022073417399
 20
174.5676648557106
 30
0.0
 11
159.30300114363331
 21
173.99191985667071
 31
0.0
  0
LINE
  5
28A4
  8
0
 10
159.30300114363331
 20
174.1073899105086
 30
0.0
 11
158.32533487839709
 21
174.6718457919203
 31
0.0
  0
LINE
  5
28A5
  8
0
 10
160.28066740886931
 20
174.6718457919203
 30
0.0
 11
159.30300114363331
 21
174.1073899105086
 31
0.0
  0
ARC
  5
28A6
  8
0
 10
159.30300114363331
 20
179.8808926024048
 30
0.0
 40
5.2999999999999998
 50
220.6299617544594
 51
259.3700382455396
  0
ARC
  5
28A7
  8
0
 10
159.30300114363331
 20
179.8808926024048
 30
0.0
 40
5.4059999999999997
 50
220.6299617544594
 51
259.3700382455396
  0
ARC
  5
28A8
  8
0
 10
165.4030011436306
 20
172.08089260240479
 30
0.0
 40
0.2
 50
269.99999999999977
 51
0.0
  0
LINE
  5
28A9
  8
0
 10
164.4030011436333
 20
176.93640622953779
 30
0.0
 11
163.4057815530924
 21
176.3606612304979
 31
0.0
  0
LINE
  5
28AA
  8
0
 10
164.30300114363331
 20
176.99414125645669
 30
0.0
 11
163.32533487839709
 21
176.4296853750451
 31
0.0
  0
LINE
  5
28AB
  8
1
 10
230.92124210137379
 20
135.5145261345894
 30
0.0
 11
204.92124210137371
 21
135.5145261345894
 31
0.0
  0
LINE
  5
28AC
  8
1
 10
217.921156032786
 20
148.5145261338487
 30
0.0
 11
217.9217619556442
 21
113.3145261345895
 31
0.0
  0
LINE
  5
28AD
  8
1
 10
170.60300114363019
 20
135.5145261345896
 30
0.0
 11
148.00300114362761
 21
135.5145261345892
 31
0.0
  0
LINE
  5
28AE
  8
1
 10
159.30300114362481
 20
145.92950855007061
 30
0.0
 11
159.3030011436249
 21
113.3145261345895
 31
0.0
  0
LINE
  5
28AF
  8
1
 10
170.60300114363059
 20
179.8808926024048
 30
0.0
 11
148.00300114363051
 21
179.8808926024048
 31
0.0
  0
LINE
  5
28B0
  8
1
 10
159.30300114363331
 20
190.1308926024048
 30
0.0
 11
159.30300114363331
 21
169.6308926024048
 31
0.0
  0
TEXT
  5
2A6A
  8
0
 62
     3
 10
0.0
 20
0.0
 30
0.0
 40
5.0
  1
L6-UJT16-01
  7
STANDARD1
  0
ENDSEC
  0
EOF
