  0
SECTION
  2
HEADER
  9
$ACADVER
  1
AC1009
  9
$INSBASE
 10
0.0
 20
0.0
 30
0.0
  9
$EXTMIN
 10
0.0
 20
-1.4802182810368341
 30
0.0
  9
$EXTMAX
 10
91.101856967888935
 20
67.741460020172042
 30
0.0
  9
$LIMMIN
 10
0.0
 20
0.0
  9
$LIMMAX
 10
187.5
 20
135.0
  9
$ORTHOMODE
 70
     1
  9
$REGENMODE
 70
     1
  9
$FILLMODE
 70
     1
  9
$QTEXTMODE
 70
     0
  9
$MIRRTEXT
 70
     0
  9
$DRAGMODE
 70
     2
  9
$LTSCALE
 40
5.0
  9
$OSMODE
 70
    37
  9
$ATTMODE
 70
     1
  9
$TEXTSIZE
 40
4.0
  9
$TRACEWID
 40
0.05
  9
$TEXTSTYLE
  7
STANDARD
  9
$CLAYER
  8
0
  9
$CELTYPE
  6
BYLAYER
  9
$CECOLOR
 62
   256
  9
$DIMSCALE
 40
0.5
  9
$DIMASZ
 40
3.0
  9
$DIMEXO
 40
2.0
  9
$DIMDLI
 40
0.38
  9
$DIMRND
 40
0.0
  9
$DIMDLE
 40
0.0
  9
$DIMEXE
 40
2.0
  9
$DIMTP
 40
0.0
  9
$DIMTM
 40
0.0
  9
$DIMTXT
 40
3.0
  9
$DIMCEN
 40
0.0
  9
$DIMTSZ
 40
0.0
  9
$DIMTOL
 70
     0
  9
$DIMLIM
 70
     0
  9
$DIMTIH
 70
     0
  9
$DIMTOH
 70
     0
  9
$DIMSE1
 70
     0
  9
$DIMSE2
 70
     0
  9
$DIMTAD
 70
     1
  9
$DIMZIN
 70
     0
  9
$DIMBLK
  1

  9
$DIMASO
 70
     0
  9
$DIMSHO
 70
     0
  9
$DIMPOST
  1

  9
$DIMAPOST
  1

  9
$DIMALT
 70
     0
  9
$DIMALTD
 70
     2
  9
$DIMALTF
 40
25.399999999999999
  9
$DIMLFAC
 40
1.0
  9
$DIMTOFL
 70
     0
  9
$DIMTVP
 40
1.6000000000000001
  9
$DIMTIX
 70
     1
  9
$DIMSOXD
 70
     0
  9
$DIMSAH
 70
     0
  9
$DIMBLK1
  1

  9
$DIMBLK2
  1

  9
$DIMSTYLE
  2
STANDARD
  9
$DIMCLRD
 70
     0
  9
$DIMCLRE
 70
     0
  9
$DIMCLRT
 70
     0
  9
$DIMTFAC
 40
1.0
  9
$DIMGAP
 40
0.09
  9
$LUNITS
 70
     2
  9
$LUPREC
 70
     1
  9
$SKETCHINC
 40
0.1
  9
$FILLETRAD
 40
0.0
  9
$AUNITS
 70
     0
  9
$AUPREC
 70
     0
  9
$MENU
  1
E:\r13\win\SUPPORT\ACAD
  9
$ELEVATION
 40
0.0
  9
$PELEVATION
 40
0.0
  9
$THICKNESS
 40
0.0
  9
$LIMCHECK
 70
     0
  9
$BLIPMODE
 70
     0
  9
$CHAMFERA
 40
0.0
  9
$CHAMFERB
 40
0.0
  9
$SKPOLY
 70
     0
  9
$TDCREATE
 40
2449840.6566435192
  9
$TDUPDATE
 40
2457296.3625464351
  9
$TDINDWG
 40
0.1547022685
  9
$TDUSRTIMER
 40
0.1547022685
  9
$USRTIMER
 70
     1
  9
$ANGBASE
 50
0.0
  9
$ANGDIR
 70
     0
  9
$PDMODE
 70
     0
  9
$PDSIZE
 40
0.0
  9
$PLINEWID
 40
0.0
  9
$COORDS
 70
     1
  9
$SPLFRAME
 70
     0
  9
$SPLINETYPE
 70
     6
  9
$SPLINESEGS
 70
     8
  9
$ATTDIA
 70
     0
  9
$ATTREQ
 70
     1
  9
$HANDLING
 70
     1
  9
$HANDSEED
  5
592
  9
$SURFTAB1
 70
     6
  9
$SURFTAB2
 70
     6
  9
$SURFTYPE
 70
     6
  9
$SURFU
 70
     6
  9
$SURFV
 70
     6
  9
$UCSNAME
  2

  9
$UCSORG
 10
0.0
 20
0.0
 30
0.0
  9
$UCSXDIR
 10
1.0
 20
0.0
 30
0.0
  9
$UCSYDIR
 10
0.0
 20
1.0
 30
0.0
  9
$PUCSNAME
  2

  9
$PUCSORG
 10
0.0
 20
0.0
 30
0.0
  9
$PUCSXDIR
 10
1.0
 20
0.0
 30
0.0
  9
$PUCSYDIR
 10
0.0
 20
1.0
 30
0.0
  9
$USERI1
 70
     0
  9
$USERI2
 70
     1
  9
$USERI3
 70
     1
  9
$USERI4
 70
     0
  9
$USERI5
 70
     0
  9
$USERR1
 40
0.0
  9
$USERR2
 40
0.0
  9
$USERR3
 40
0.0
  9
$USERR4
 40
0.0
  9
$USERR5
 40
0.0
  9
$WORLDVIEW
 70
     1
  9
$SHADEDGE
 70
     3
  9
$SHADEDIF
 70
    70
  9
$TILEMODE
 70
     1
  9
$MAXACTVP
 70
    16
  9
$PLIMCHECK
 70
     0
  9
$PEXTMIN
 10
1.0000000000000000E+020
 20
1.0000000000000000E+020
 30
1.0000000000000000E+020
  9
$PEXTMAX
 10
-1.0000000000000000E+020
 20
-1.0000000000000000E+020
 30
-1.0000000000000000E+020
  9
$PLIMMIN
 10
0.0
 20
0.0
  9
$PLIMMAX
 10
12.0
 20
9.0
  9
$UNITMODE
 70
     0
  9
$VISRETAIN
 70
     0
  9
$PLINEGEN
 70
     0
  9
$PSLTSCALE
 70
     0
  0
ENDSEC
  0
SECTION
  2
TABLES
  0
TABLE
  2
VPORT
 70
     1
  0
VPORT
  2
*ACTIVE
 70
     0
 10
0.0
 20
0.0
 11
1.0
 21
1.0
 12
90.811965811965806
 22
50.0
 13
0.0
 23
0.0
 14
5.0
 24
5.0
 15
5.0
 25
5.0
 16
0.0
 26
0.0
 36
1.0
 17
0.0
 27
0.0
 37
0.0
 40
100.0
 41
1.816239316239316
 42
50.0
 43
0.0
 44
0.0
 50
0.0
 51
0.0
 71
     0
 72
   100
 73
     1
 74
     0
 75
     0
 76
     0
 77
     0
 78
     2
  0
ENDTAB
  0
TABLE
  2
LTYPE
 70
     3
  0
LTYPE
  2
CONTINUOUS
 70
     0
  3
Solid Line
 72
    65
 73
     0
 40
0.0
  0
LTYPE
  2
CENTER
 70
     0
  3
____ _ ____ _ ____ _ ____ _ ____ _ ____ _ ____
 72
    65
 73
     4
 40
2.0
 49
1.25
 49
-0.25
 49
0.25
 49
-0.25
  0
LTYPE
  2
PHANTOM2
 70
     0
  3
___ _ _ ___ _ _ ___ _ _ ___ _ _
 72
    65
 73
     6
 40
1.25
 49
0.625
 49
-0.125
 49
0.125
 49
-0.125
 49
0.125
 49
-0.125
  0
ENDTAB
  0
TABLE
  2
LAYER
 70
     3
  0
LAYER
  2
0
 70
     0
 62
     7
  6
CONTINUOUS
  0
LAYER
  2
1
 70
     0
 62
     1
  6
CENTER
  0
LAYER
  2
3
 70
     0
 62
     3
  6
CONTINUOUS
  0
ENDTAB
  0
TABLE
  2
STYLE
 70
     2
  0
STYLE
  2
STANDARD
 70
     0
 40
0.0
 41
1.0
 50
0.0
 71
     0
 42
4.0
  3
ROMANS
  4
BIGFONT
  0
STYLE
  2
STANDARD1
 70
     0
 40
0.0
 41
1.0
 50
0.0
 71
     0
 42
3.0
  3
txt
  4

  0
ENDTAB
  0
TABLE
  2
VIEW
 70
     1
  0
VIEW
  2
ALL
 70
     0
 40
175.0
 10
142.98110500000001
 20
87.5
 41
285.96221100000002
 11
0.0
 21
0.0
 31
1.0
 12
0.0
 22
0.0
 32
0.0
 42
0.0
 43
0.0
 44
0.0
 50
0.0
 71
     0
  0
ENDTAB
  0
TABLE
  2
UCS
 70
     0
  0
ENDTAB
  0
TABLE
  2
APPID
 70
    13
  0
APPID
  2
ACAD
 70
     0
  0
APPID
  2
GENIUS_GENODEF_13
 70
     0
  0
APPID
  2
GENIUS_GENOBJ-N-FIL_13
 70
     0
  0
APPID
  2
GENIUS_GENOREF_13
 70
     0
  0
APPID
  2
ACAD_MLEADERVER
 70
     0
  0
APPID
  2
ACAD_NAV_VCDISPLAY
 70
     0
  0
APPID
  2
ACAD_EXEMPT_FROM_CAD_STANDARDS
 70
     0
  0
APPID
  2
ACAD_DSTYLE_DIMRADIAL_EXTENSION
 70
     0
  0
APPID
  2
ACAD_DSTYLE_DIMJAG
 70
     0
  0
APPID
  2
ACAD_DSTYLE_DIMTALN
 70
     0
  0
APPID
  2
GENIUS_GENOENT_13
 70
     0
  0
APPID
  2
GENIUS_GENOBJ_13
 70
     0
  0
APPID
  2
GENIUS_GENOLIS_13
 70
     0
  0
ENDTAB
  0
TABLE
  2
DIMSTYLE
 70
     1
  0
DIMSTYLE
  2
STANDARD
 70
     0
  3

  4

  5

  6

  7

 40
1.0
 41
0.18
 42
0.0625
 43
0.38
 44
0.18
 45
0.0
 46
0.0
 47
0.0
 48
0.0
140
0.18
141
0.09
142
0.0
143
25.399999999999999
144
1.0
145
0.0
146
1.0
147
0.09
 71
     0
 72
     0
 73
     1
 74
     1
 75
     0
 76
     0
 77
     0
 78
     0
170
     0
171
     2
172
     0
173
     0
174
     0
175
     0
176
     0
177
     0
178
     0
  0
ENDTAB
  0
ENDSEC
  0
SECTION
  2
BLOCKS
  0
BLOCK
  8
0
  2
$MODEL_SPACE
 70
     0
 10
0.0
 20
0.0
 30
0.0
  3
$MODEL_SPACE
  1

  0
ENDBLK
  5
7A
  8
0
  0
BLOCK
 67
     1
  8
0
  2
$PAPER_SPACE
 70
     0
 10
0.0
 20
0.0
 30
0.0
  3
$PAPER_SPACE
  1

  0
ENDBLK
  5
78
 67
     1
  8
0
  0
ENDSEC
  0
SECTION
  2
ENTITIES
  0
TEXT
  5
27E
  8
0
 62
     3
 10
0.0
 20
0.0
 30
0.0
 40
5.0
  1
L6-TST6-28
  7
STANDARD1
  0
LINE
  5
468
  8
0
 10
80.311013677027603
 20
30.3414600112479
 30
0.0
 11
76.151150201044317
 21
30.341460011249922
 31
0.0
  0
LINE
  5
469
  8
0
 10
73.052106395459646
 20
30.341460011250259
 30
0.0
 11
68.89270025874788
 21
30.341460011252281
 31
0.0
  0
LINE
  5
46A
  8
0
 10
88.601856967888921
 20
36.740917542348853
 30
0.0
 11
60.601856967888978
 21
36.740917542348882
 31
0.0
  0
LINE
  5
46B
  8
0
 10
60.601856967888978
 20
30.341460011252931
 30
0.0
 11
60.601856967888978
 21
37.141460020172083
 31
0.0
  0
ARC
  5
46C
  8
0
 10
83.101856967888921
 20
29.240917542347049
 30
0.0
 40
3.0
 50
21.521324681472318
 51
158.47867531852771
  0
LINE
  5
46D
  8
0
 10
88.601856967888921
 20
30.341460011252931
 30
0.0
 11
88.601856967888921
 21
37.141460020172097
 31
0.0
  0
LINE
  5
46E
  8
1
 10
83.101856967888963
 20
27.832377553599649
 30
0.0
 11
83.101856967888963
 21
39.240917542348882
 31
0.0
  0
LINE
  5
46F
  8
0
 10
88.601856967888921
 20
30.341460011252931
 30
0.0
 11
85.892700258748235
 21
30.341460011252931
 31
0.0
  0
LINE
  5
470
  8
1
 10
83.101856967888949
 20
66.996462965682156
 30
0.0
 11
83.101856967888949
 21
57.886457074661912
 31
0.0
  0
CIRCLE
  5
471
  8
0
 10
83.101856967888949
 20
62.44146002017203
 30
0.0
 40
2.5
  0
ARC
  5
472
  8
0
 10
66.101856967887613
 20
29.240917542348772
 30
0.0
 40
3.0
 50
21.521324681437239
 51
158.47867531856269
  0
LINE
  5
473
  8
1
 10
66.101856967887386
 20
27.83237755360145
 30
0.0
 11
66.101856967889375
 21
39.240917542348882
 31
0.0
  0
LINE
  5
474
  8
0
 10
63.311013677028477
 20
30.341460011255151
 30
0.0
 11
60.601856967888978
 21
30.341460011255151
 31
0.0
  0
CIRCLE
  5
475
  8
0
 10
66.101856967888978
 20
62.44146002017203
 30
0.0
 40
2.5
  0
CIRCLE
  5
476
  8
3
 10
83.101856967888949
 20
62.44146002017203
 30
0.0
 40
3.0
  0
CIRCLE
  5
477
  8
3
 10
66.101856967888978
 20
62.44146002017203
 30
0.0
 40
3.0
  0
ARC
  5
478
  8
0
 10
74.601628298251825
 20
28.975329131582409
 30
0.0
 40
2.0657520924870849
 50
41.400906289231877
 51
138.5990937107681
  0
ARC
  5
479
  8
0
 10
74.602191891161084
 20
31.49945753109418
 30
0.0
 40
1.500000000000004
 50
215.0847230212087
 51
324.8896907253075
  0
LINE
  5
47A
  8
1
 10
74.601628298252052
 20
32.736438198741752
 30
0.0
 11
74.601628298252052
 21
28.517310565407481
 31
0.0
  0
LINE
  5
47B
  8
1
 10
66.101856967888921
 20
66.996462965682156
 30
0.0
 11
66.101856967888921
 21
57.886457074661912
 31
0.0
  0
LINE
  5
47D
  8
1
 10
35.30092848394446
 20
39.241460011252848
 30
0.0
 11
35.30092848394446
 21
27.841460011252849
 31
0.0
  0
ARC
  5
47E
  8
0
 10
35.301492076853663
 20
31.499999894121
 30
0.0
 40
1.500000000000004
 50
202.75697579682071
 51
337.30789825985357
  0
ARC
  5
47F
  8
0
 10
35.301117366069953
 20
32.341460011252941
 30
0.0
 40
2.0
 50
237.7013464325353
 51
302.24583699925569
  0
ARC
  5
480
  8
0
 10
44.477045015103037
 20
42.941082996937489
 30
0.0
 40
16.0
 50
205.6116250432178
 51
230.1867734096478
  0
ARC
  5
481
  8
0
 10
30.5
 20
36.240917876152707
 30
0.0
 40
0.5
 50
89.933793850447003
 51
205.61162504304991
  0
LINE
  5
482
  8
1
 10
58.101856967888949
 20
62.441460020172087
 30
0.0
 11
91.101856967888935
 21
62.44146002017203
 31
0.0
  0
LINE
  5
483
  8
0
 10
60.601856967888921
 20
67.741460020172042
 30
0.0
 11
60.601856967888949
 21
57.141460020172083
 31
0.0
  0
LINE
  5
484
  8
0
 10
88.601856967888935
 20
67.741460020172042
 30
0.0
 11
88.601856967888892
 21
57.141460020172083
 31
0.0
  0
LINE
  5
485
  8
0
 10
60.601856967888949
 20
57.141460020172083
 30
0.0
 11
88.601856967888892
 21
57.141460020172048
 31
0.0
  0
LINE
  5
486
  8
0
 10
60.601856967888949
 20
67.741460020172042
 30
0.0
 11
88.601856967888935
 21
67.741460020172042
 31
0.0
  0
LINE
  5
487
  8
0
 10
77.601856967888978
 20
36.740917542348882
 30
0.0
 11
60.601856967888978
 21
36.740917542348882
 31
0.0
  0
ARC
  5
488
  8
0
 10
26.12481195278594
 20
42.941082996937489
 30
0.0
 40
16.0
 50
309.81322659035209
 51
334.38837495678217
  0
ARC
  5
489
  8
0
 10
40.10185696788897
 20
36.240917876152707
 30
0.0
 40
0.5
 50
334.38837495695009
 51
90.066206149552997
  0
ARC
  5
48A
  8
0
 10
38.255678738812037
 20
36.941460020172059
 30
0.0
 40
0.2000000000000003
 50
90.0
 51
120.3001976646853
  0
ARC
  5
48B
  8
0
 10
38.30102139827364
 20
36.941460020172059
 30
0.0
 40
0.2000000000000003
 50
0.0000000000081422
 51
90.0
  0
LINE
  5
48C
  8
0
 10
38.255678738812037
 20
37.141460020172083
 30
0.0
 11
38.30102139827364
 21
37.141460020172083
 31
0.0
  0
ARC
  5
492
  8
0
 10
35.300928483944674
 20
41.998053182676337
 30
0.0
 40
5.6565931632674893
 50
239.7007434669712
 51
300.29925653302502
  0
LINE
  5
493
  8
0
 10
30.50057775751878
 20
36.740917542348853
 30
0.0
 11
31.900836305322169
 21
36.740917542348853
 31
0.0
  0
ARC
  5
494
  8
0
 10
38.701020662566812
 20
36.940917542347513
 30
0.0
 40
0.2
 50
179.84459136028039
 51
270.00021076446649
  0
LINE
  5
495
  8
0
 10
38.701020662566812
 20
36.740917542348853
 30
0.0
 11
40.10127921037013
 21
36.740917542348853
 31
0.0
  0
ARC
  5
496
  8
0
 10
31.900836305322169
 20
36.940917542347513
 30
0.0
 40
0.2
 50
269.99978923553351
 51
0.1554086397179139
  0
LINE
  5
497
  8
0
 10
60.601856967888978
 20
37.141460020172083
 30
0.0
 11
88.601856967888921
 21
37.141460020172097
 31
0.0
  0
LINE
  5
498
  8
0
 10
60.601856967888949
 20
59.241367105842919
 30
0.0
 11
88.601856967888892
 21
59.24136710584289
 31
0.0
  0
LINE
  5
499
  8
0
 10
60.601856967888949
 20
59.587615885792417
 30
0.0
 11
65.176884721458237
 21
59.587615885792417
 31
0.0
  0
LINE
  5
49A
  8
0
 10
67.026829214319704
 20
59.587615885792417
 30
0.0
 11
82.176884721458279
 21
59.587615885792388
 31
0.0
  0
LINE
  5
49B
  8
0
 10
84.026829214319605
 20
59.587615885792388
 30
0.0
 11
88.601856967888892
 21
59.587615885792388
 31
0.0
  0
LINE
  5
49C
  8
0
 10
60.601856967888949
 20
65.295304154551729
 30
0.0
 11
65.176884721458521
 21
65.295304154551729
 31
0.0
  0
LINE
  5
49D
  8
0
 10
67.026829214319434
 20
65.295304154551729
 30
0.0
 11
82.176884721458549
 21
65.295304154551729
 31
0.0
  0
LINE
  5
49E
  8
0
 10
84.026829214319349
 20
65.295304154551729
 30
0.0
 11
88.601856967888892
 21
65.295304154551729
 31
0.0
  0
LINE
  5
49F
  8
0
 10
60.601856967888949
 20
65.641552934501249
 30
0.0
 11
88.601856967888892
 21
65.641552934501249
 31
0.0
  0
ARC
  5
502
  8
0
 10
32.346178229076891
 20
36.941460020172059
 30
0.0
 40
0.2000000000000003
 50
59.699802335314793
 51
90.0
  0
ARC
  5
503
  8
0
 10
32.300835569615288
 20
36.941460020172059
 30
0.0
 40
0.2000000000000003
 50
90.0
 51
179.99999999999179
  0
LINE
  5
504
  8
0
 10
32.346178229076891
 20
37.141460020172083
 30
0.0
 11
32.300835569615288
 21
37.141460020172083
 31
0.0
  0
ENDSEC
  0
EOF
