  0
SECTION
  2
HEADER
  9
$ACADVER
  1
AC1009
  9
$INSBASE
 10
0.0
 20
0.0
 30
0.0
  9
$EXTMIN
 10
0.0
 20
-1.4802182810368341
 30
0.0
  9
$EXTMAX
 10
104.68732833984841
 20
94.158635705661311
 30
0.0
  9
$LIMMIN
 10
0.0
 20
0.0
  9
$LIMMAX
 10
192.5
 20
135.0
  9
$ORTHOMODE
 70
     0
  9
$REGENMODE
 70
     1
  9
$FILLMODE
 70
     1
  9
$QTEXTMODE
 70
     0
  9
$MIRRTEXT
 70
     0
  9
$DRAGMODE
 70
     2
  9
$LTSCALE
 40
5.0
  9
$OSMODE
 70
  3071
  9
$ATTMODE
 70
     1
  9
$TEXTSIZE
 40
1.5
  9
$TRACEWID
 40
0.05
  9
$TEXTSTYLE
  7
STANDARD
  9
$CLAYER
  8
0
  9
$CELTYPE
  6
BYLAYER
  9
$CECOLOR
 62
   256
  9
$DIMSCALE
 40
0.5
  9
$DIMASZ
 40
3.0
  9
$DIMEXO
 40
2.0
  9
$DIMDLI
 40
10.0
  9
$DIMRND
 40
0.0
  9
$DIMDLE
 40
0.0
  9
$DIMEXE
 40
2.0
  9
$DIMTP
 40
0.0
  9
$DIMTM
 40
0.0
  9
$DIMTXT
 40
3.0
  9
$DIMCEN
 40
0.09
  9
$DIMTSZ
 40
0.0
  9
$DIMTOL
 70
     0
  9
$DIMLIM
 70
     0
  9
$DIMTIH
 70
     0
  9
$DIMTOH
 70
     0
  9
$DIMSE1
 70
     0
  9
$DIMSE2
 70
     0
  9
$DIMTAD
 70
     1
  9
$DIMZIN
 70
     0
  9
$DIMBLK
  1

  9
$DIMASO
 70
     0
  9
$DIMSHO
 70
     0
  9
$DIMPOST
  1

  9
$DIMAPOST
  1

  9
$DIMALT
 70
     0
  9
$DIMALTD
 70
     2
  9
$DIMALTF
 40
25.399999999999999
  9
$DIMLFAC
 40
1.0
  9
$DIMTOFL
 70
     1
  9
$DIMTVP
 40
1.6000000000000001
  9
$DIMTIX
 70
     1
  9
$DIMSOXD
 70
     0
  9
$DIMSAH
 70
     0
  9
$DIMBLK1
  1

  9
$DIMBLK2
  1

  9
$DIMSTYLE
  2
STANDARD
  9
$DIMCLRD
 70
     0
  9
$DIMCLRE
 70
     0
  9
$DIMCLRT
 70
     0
  9
$DIMTFAC
 40
1.0
  9
$DIMGAP
 40
1.0
  9
$LUNITS
 70
     2
  9
$LUPREC
 70
     2
  9
$SKETCHINC
 40
0.1
  9
$FILLETRAD
 40
0.0
  9
$AUNITS
 70
     0
  9
$AUPREC
 70
     2
  9
$MENU
  1
E:\r13\win\SUPPORT\ACAD
  9
$ELEVATION
 40
0.0
  9
$PELEVATION
 40
0.0
  9
$THICKNESS
 40
0.0
  9
$LIMCHECK
 70
     0
  9
$BLIPMODE
 70
     0
  9
$CHAMFERA
 40
1.0
  9
$CHAMFERB
 40
1.0
  9
$SKPOLY
 70
     0
  9
$TDCREATE
 40
2450305.4087759261
  9
$TDUPDATE
 40
2456597.5627678931
  9
$TDINDWG
 40
0.0129697454
  9
$TDUSRTIMER
 40
0.0129697454
  9
$USRTIMER
 70
     1
  9
$ANGBASE
 50
0.0
  9
$ANGDIR
 70
     0
  9
$PDMODE
 70
     0
  9
$PDSIZE
 40
0.0
  9
$PLINEWID
 40
0.0
  9
$COORDS
 70
     1
  9
$SPLFRAME
 70
     0
  9
$SPLINETYPE
 70
     6
  9
$SPLINESEGS
 70
     8
  9
$ATTDIA
 70
     0
  9
$ATTREQ
 70
     1
  9
$HANDLING
 70
     1
  9
$HANDSEED
  5
6F3
  9
$SURFTAB1
 70
     6
  9
$SURFTAB2
 70
     6
  9
$SURFTYPE
 70
     6
  9
$SURFU
 70
     6
  9
$SURFV
 70
     6
  9
$UCSNAME
  2

  9
$UCSORG
 10
0.0
 20
0.0
 30
0.0
  9
$UCSXDIR
 10
1.0
 20
0.0
 30
0.0
  9
$UCSYDIR
 10
0.0
 20
1.0
 30
0.0
  9
$PUCSNAME
  2

  9
$PUCSORG
 10
0.0
 20
0.0
 30
0.0
  9
$PUCSXDIR
 10
1.0
 20
0.0
 30
0.0
  9
$PUCSYDIR
 10
0.0
 20
1.0
 30
0.0
  9
$USERI1
 70
     3
  9
$USERI2
 70
     1
  9
$USERI3
 70
     1
  9
$USERI4
 70
     1
  9
$USERI5
 70
     0
  9
$USERR1
 40
0.5
  9
$USERR2
 40
3.0
  9
$USERR3
 40
3.0
  9
$USERR4
 40
3.0
  9
$USERR5
 40
10.0
  9
$WORLDVIEW
 70
     1
  9
$SHADEDGE
 70
     3
  9
$SHADEDIF
 70
    70
  9
$TILEMODE
 70
     1
  9
$MAXACTVP
 70
    16
  9
$PLIMCHECK
 70
     0
  9
$PEXTMIN
 10
1.0000000000000000E+020
 20
1.0000000000000000E+020
 30
1.0000000000000000E+020
  9
$PEXTMAX
 10
-1.0000000000000000E+020
 20
-1.0000000000000000E+020
 30
-1.0000000000000000E+020
  9
$PLIMMIN
 10
0.0
 20
0.0
  9
$PLIMMAX
 10
12.0
 20
9.0
  9
$UNITMODE
 70
     0
  9
$VISRETAIN
 70
     0
  9
$PLINEGEN
 70
     0
  9
$PSLTSCALE
 70
     0
  0
ENDSEC
  0
SECTION
  2
TABLES
  0
TABLE
  2
VPORT
 70
     1
  0
VPORT
  2
*ACTIVE
 70
     0
 10
0.0
 20
0.0
 11
1.0
 21
1.0
 12
96.247062907201581
 22
81.430819429735848
 13
0.0
 23
0.0
 14
2.5
 24
2.5
 15
10.0
 25
10.0
 16
0.0
 26
0.0
 36
1.0
 17
0.0
 27
0.0
 37
0.0
 40
167.40500581387491
 41
1.9089595375722539
 42
50.0
 43
0.0
 44
0.0
 50
0.0
 51
0.0
 71
     0
 72
  1000
 73
     1
 74
     0
 75
     0
 76
     0
 77
     0
 78
     1
  0
ENDTAB
  0
TABLE
  2
LTYPE
 70
     3
  0
LTYPE
  2
CONTINUOUS
 70
     0
  3
Solid Line
 72
    65
 73
     0
 40
0.0
  0
LTYPE
  2
CENTER
 70
     0
  3
____ _ ____ _ ____ _ ____ _ ____ _ ____ _ ____
 72
    65
 73
     4
 40
2.0
 49
1.25
 49
-0.25
 49
0.25
 49
-0.25
  0
LTYPE
  2
PHANTOM2
 70
     0
  3
___ _ _ ___ _ _ ___ _ _ ___ _ _
 72
    65
 73
     6
 40
1.25
 49
0.625
 49
-0.125
 49
0.125
 49
-0.125
 49
0.125
 49
-0.125
  0
ENDTAB
  0
TABLE
  2
LAYER
 70
     4
  0
LAYER
  2
0
 70
     0
 62
     7
  6
CONTINUOUS
  0
LAYER
  2
1
 70
     0
 62
     1
  6
CENTER
  0
LAYER
  2
3
 70
     0
 62
     3
  6
CONTINUOUS
  0
LAYER
  2
11
 70
     0
 62
     3
  6
CONTINUOUS
  0
ENDTAB
  0
TABLE
  2
STYLE
 70
     2
  0
STYLE
  2
STANDARD
 70
     0
 40
0.0
 41
1.0
 50
0.0
 71
     0
 42
1.5
  3
SIMPLEX
  4
BIGFONT
  0
STYLE
  2
STANDARD1
 70
     0
 40
0.0
 41
1.0
 50
0.0
 71
     0
 42
3.0
  3
txt
  4

  0
ENDTAB
  0
TABLE
  2
VIEW
 70
     0
  0
ENDTAB
  0
TABLE
  2
UCS
 70
     0
  0
ENDTAB
  0
TABLE
  2
APPID
 70
     9
  0
APPID
  2
ACAD
 70
     0
  0
APPID
  2
GENIUS_GENOREF_13
 70
     0
  0
APPID
  2
GENIUS_GENODEF_13
 70
     0
  0
APPID
  2
GENIUS_GENOENT_13
 70
     0
  0
APPID
  2
GENIUS_GENOBJ_13
 70
     0
  0
APPID
  2
GENIUS_GENOLIS_13
 70
     0
  0
APPID
  2
GENIUS_GENOBJ-N-FIL_13
 70
     0
  0
APPID
  2
ACAD_MLEADERVER
 70
     0
  0
APPID
  2
ACAD_NAV_VCDISPLAY
 70
     0
  0
ENDTAB
  0
TABLE
  2
DIMSTYLE
 70
     1
  0
DIMSTYLE
  2
STANDARD
 70
     0
  3

  4

  5

  6

  7

 40
1.0
 41
0.18
 42
0.0625
 43
0.38
 44
0.18
 45
0.0
 46
0.0
 47
0.0
 48
0.0
140
0.18
141
0.09
142
0.0
143
25.399999999999999
144
1.0
145
0.0
146
1.0
147
0.09
 71
     0
 72
     0
 73
     1
 74
     1
 75
     0
 76
     0
 77
     0
 78
     0
170
     0
171
     2
172
     0
173
     0
174
     0
175
     0
176
     0
177
     0
178
     0
  0
ENDTAB
  0
ENDSEC
  0
SECTION
  2
BLOCKS
  0
BLOCK
  8
0
  2
$MODEL_SPACE
 70
     0
 10
0.0
 20
0.0
 30
0.0
  3
$MODEL_SPACE
  1

  0
ENDBLK
  5
576
  8
0
  0
BLOCK
 67
     1
  8
0
  2
$PAPER_SPACE
 70
     0
 10
0.0
 20
0.0
 30
0.0
  3
$PAPER_SPACE
  1

  0
ENDBLK
  5
574
 67
     1
  8
0
  0
ENDSEC
  0
SECTION
  2
ENTITIES
  0
LINE
  5
48B
  8
0
 10
61.72137118004224
 20
61.989668593334038
 30
0.0
 11
57.969521553214243
 21
61.989668593333931
 31
0.0
  0
LINE
  5
48C
  8
1
 10
59.84544636662843
 20
64.368888487414949
 30
0.0
 11
59.84544636662843
 21
53.102030327221541
 31
0.0
  0
ARC
  5
48D
  8
0
 10
59.846009959537639
 20
57.448208476202069
 30
0.0
 40
1.500000000000004
 50
202.7035291187386
 51
337.3612463145156
  0
ARC
  5
48E
  8
0
 10
59.845635248753922
 20
58.289668593334
 30
0.0
 40
2.0
 50
237.8305670071795
 51
302.11742282722059
  0
ARC
  5
48F
  8
0
 10
57.969521553214243
 20
62.289668593333943
 30
0.0
 40
0.3
 50
225.12321856476461
 51
270.00000000000188
1001
GENIUS_GENODEF_13
1002
{
1000
HIER
1070
     0
1002
}
1002
{
1000
MANEDIT
1070
     0
1002
}
1002
{
1000
NOSEL
1070
     0
1002
}
1002
{
1000
BEHIND
1070
     0
1002
}
1002
{
1000
REACTOR
1002
}
1001
GENIUS_GENOBJ-N-FIL_13
1002
{
1000
OWNER
1000
GEN
1002
}
  0
ARC
  5
490
  8
0
 10
69.022491381732181
 20
68.88929157901724
 30
0.0
 40
16.0
 50
205.61162504321811
 51
230.20023089623359
  0
ARC
  5
492
  8
0
 10
57.021605209004122
 20
62.386807370619749
 30
0.0
 40
0.3
 50
45.123218564764713
 51
89.933793850447884
1001
GENIUS_GENODEF_13
1002
{
1000
HIER
1070
     0
1002
}
1002
{
1000
MANEDIT
1070
     0
1002
}
1002
{
1000
NOSEL
1070
     0
1002
}
1002
{
1000
BEHIND
1070
     0
1002
}
1002
{
1000
REACTOR
1002
}
1001
GENIUS_GENOBJ-N-FIL_13
1002
{
1000
OWNER
1000
GEN
1002
}
  0
LINE
  5
493
  8
0
 10
57.021951863515369
 20
62.686807170337431
 30
0.0
 11
55.040046039416502
 21
62.689097293849223
 31
0.0
  0
LINE
  5
494
  8
0
 10
57.757846213772332
 20
62.07708084516355
 30
0.0
 11
57.233280548445968
 21
62.599395118790142
 31
0.0
  0
ARC
  5
495
  8
0
 10
55.04544636662844
 20
62.189126458233773
 30
0.0
 40
0.5
 50
89.933793850447003
 51
205.611625043049
  0
ARC
  5
496
  8
0
 10
93.138576919094419
 20
57.439126124428192
 30
0.0
 40
1.500000000000004
 50
215.08472302120899
 51
324.88969072530728
  0
ARC
  5
497
  8
0
 10
93.138013326185146
 20
54.914997724916418
 30
0.0
 40
2.0657520924870849
 50
41.380850822950507
 51
138.61914917704891
  0
LINE
  5
498
  8
0
 10
103.7123283398404
 20
62.689126124429947
 30
0.0
 11
86.71232833984044
 21
62.689126124429947
 31
0.0
  0
ARC
  5
499
  8
0
 10
61.72137118004224
 20
62.289668593334049
 30
0.0
 40
0.3
 50
270.00000000000199
 51
314.99999999983902
1001
GENIUS_GENODEF_13
1002
{
1000
HIER
1070
     0
1002
}
1002
{
1000
MANEDIT
1070
     0
1002
}
1002
{
1000
NOSEL
1070
     0
1002
}
1002
{
1000
BEHIND
1070
     0
1002
}
1002
{
1000
REACTOR
1002
}
1001
GENIUS_GENOBJ-N-FIL_13
1002
{
1000
OWNER
1000
GEN
1002
}
  0
ARC
  5
49A
  8
0
 10
62.669899317468953
 20
62.389668593333909
 30
0.0
 40
0.3
 50
90.000000000000895
 51
134.99999999983891
1001
GENIUS_GENODEF_13
1002
{
1000
HIER
1070
     0
1002
}
1002
{
1000
MANEDIT
1070
     0
1002
}
1002
{
1000
NOSEL
1070
     0
1002
}
1002
{
1000
BEHIND
1070
     0
1002
}
1002
{
1000
REACTOR
1002
}
1001
GENIUS_GENOBJ-N-FIL_13
1002
{
1000
OWNER
1000
GEN
1002
}
  0
LINE
  5
49B
  8
0
 10
64.677012484772547
 20
62.68966859333392
 30
0.0
 11
62.669899317468953
 21
62.68966859333392
 31
0.0
  0
LINE
  5
49C
  8
0
 10
62.457767283113583
 20
62.601800627690459
 30
0.0
 11
61.933503214397597
 21
62.077536558977499
 31
0.0
  0
LINE
  5
49E
  8
0
 10
91.58801332618674
 20
56.280586135682881
 30
0.0
 11
86.712328339840383
 21
56.280586135682881
 31
0.0
  0
LINE
  5
49F
  8
0
 10
86.71232833984044
 20
56.280586135682881
 30
0.0
 11
86.71232833984044
 21
62.689126124429947
 31
0.0
  0
LINE
  5
4A0
  8
1
 10
99.21232833984044
 20
53.356309113333452
 30
0.0
 11
99.21232833984044
 21
64.356309113333452
 31
0.0
  0
LINE
  5
4A1
  8
0
 10
103.7123283398404
 20
56.280586135682881
 30
0.0
 11
101.3877356604533
 21
56.280586135682881
 31
0.0
  0
LINE
  5
4A3
  8
0
 10
96.889418177734683
 20
56.280586135681062
 30
0.0
 11
94.688013326185185
 21
56.280586135681062
 31
0.0
  0
ARC
  5
4A4
  8
0
 10
99.138576919094405
 20
55.189126124427787
 30
0.0
 40
2.5
 50
25.886129447825471
 51
154.1138705522209
  0
LINE
  5
4A5
  8
0
 10
103.7123283398404
 20
56.280586135682881
 30
0.0
 11
103.7123283398404
 21
62.689126124429947
 31
0.0
  0
LINE
  5
4A6
  8
1
 10
85.755119895715666
 20
87.658635705661297
 30
0.0
 11
104.68732833984841
 21
87.658635705661297
 31
0.0
  0
LINE
  5
4A7
  8
0
 10
86.71232833984044
 20
89.772418290497285
 30
0.0
 11
97.852441384318524
 21
89.772418290497342
 31
0.0
1001
GENIUS_GENOREF_13
1005
0
  0
LINE
  5
4A8
  8
0
 10
86.71232833984044
 20
90.384167216799653
 30
0.0
 11
103.7123283398404
 21
90.384167216799696
 31
0.0
1001
GENIUS_GENOREF_13
1005
0
  0
LINE
  5
4A9
  8
0
 10
86.71232833984044
 20
84.932466560323348
 30
0.0
 11
103.7123283398404
 21
84.932466560323348
 31
0.0
1001
GENIUS_GENOREF_13
1005
0
  0
LINE
  5
4AA
  8
0
 10
86.71232833984044
 20
85.544215486625646
 30
0.0
 11
97.853451607412836
 21
85.544215486625603
 31
0.0
1001
GENIUS_GENOREF_13
1005
0
  0
LINE
  5
4AB
  8
0
 10
86.71232833984044
 20
82.357388404617012
 30
0.0
 11
103.7123283398404
 21
82.357388404617012
 31
0.0
  0
LINE
  5
4AC
  8
0
 10
86.71232833984044
 20
92.95988300670561
 30
0.0
 11
103.7123283398404
 21
92.959883006705667
 31
0.0
  0
LINE
  5
4AD
  8
0
 10
86.71232833984044
 20
92.959883006705596
 30
0.0
 11
86.712328339840454
 21
82.357388404617026
 31
0.0
  0
LINE
  5
4AE
  8
1
 10
99.21232833984044
 20
94.158635705661311
 30
0.0
 11
99.21232833984044
 21
81.158635705661325
 31
0.0
  0
LINE
  5
4AF
  8
0
 10
103.7123283398404
 20
92.959883006705653
 30
0.0
 11
103.7123283398404
 21
82.357388404617026
 31
0.0
  0
CIRCLE
  5
4D2
  8
0
 10
99.21232833984044
 20
87.658635705661297
 30
0.0
 40
2.0669999999999988
  0
CIRCLE
  5
4D3
  8
3
 10
99.21232833984044
 20
87.658635705661297
 30
0.0
 40
2.5
  0
LINE
  5
4D5
  8
0
 10
100.5222152953783
 20
89.772418290497356
 30
0.0
 11
103.7123283398404
 21
89.772418290497399
 31
0.0
1001
GENIUS_GENOREF_13
1005
0
  0
LINE
  5
4D6
  8
0
 10
100.52120507228391
 20
85.544215486625603
 30
0.0
 11
103.7123283398404
 21
85.544215486625603
 31
0.0
1001
GENIUS_GENOREF_13
1005
0
  0
ARC
  5
585
  8
0
 10
64.645446366628434
 20
62.189126458233773
 30
0.0
 40
0.5
 50
334.388374956951
 51
90.066206149552997
  0
ARC
  5
586
  8
0
 10
50.668401351524693
 20
68.88929157901724
 30
0.0
 40
16.0
 50
309.79436510535362
 51
334.38837495678189
  0
LINE
  5
587
  8
1
 10
93.21232833984044
 20
53.939903249568971
 30
0.0
 11
93.21232833984044
 21
58.980070584818023
 31
0.0
  0
TEXT
  5
665
  8
0
 62
     3
 10
0.0
 20
0.0
 30
0.0
 40
5.0
  1
L6-TST5-SUS
  7
STANDARD1
  0
ENDSEC
  0
EOF
