  0
SECTION
  2
HEADER
  9
$ACADVER
  1
AC1009
  9
$INSBASE
 10
0.0
 20
0.0
 30
0.0
  9
$EXTMIN
 10
0.0
 20
-1.4802182810368341
 30
0.0
  9
$EXTMAX
 10
77.606910877681429
 20
68.50018435795954
 30
0.0
  9
$LIMMIN
 10
0.0
 20
0.0
  9
$LIMMAX
 10
192.5
 20
135.0
  9
$ORTHOMODE
 70
     0
  9
$REGENMODE
 70
     1
  9
$FILLMODE
 70
     1
  9
$QTEXTMODE
 70
     0
  9
$MIRRTEXT
 70
     0
  9
$DRAGMODE
 70
     2
  9
$LTSCALE
 40
5.0
  9
$OSMODE
 70
  3071
  9
$ATTMODE
 70
     1
  9
$TEXTSIZE
 40
1.5
  9
$TRACEWID
 40
0.05
  9
$TEXTSTYLE
  7
STANDARD
  9
$CLAYER
  8
0
  9
$CELTYPE
  6
BYLAYER
  9
$CECOLOR
 62
   256
  9
$DIMSCALE
 40
0.5
  9
$DIMASZ
 40
3.0
  9
$DIMEXO
 40
2.0
  9
$DIMDLI
 40
10.0
  9
$DIMRND
 40
0.0
  9
$DIMDLE
 40
0.0
  9
$DIMEXE
 40
2.0
  9
$DIMTP
 40
0.0
  9
$DIMTM
 40
0.0
  9
$DIMTXT
 40
3.0
  9
$DIMCEN
 40
0.09
  9
$DIMTSZ
 40
0.0
  9
$DIMTOL
 70
     0
  9
$DIMLIM
 70
     0
  9
$DIMTIH
 70
     0
  9
$DIMTOH
 70
     0
  9
$DIMSE1
 70
     0
  9
$DIMSE2
 70
     0
  9
$DIMTAD
 70
     1
  9
$DIMZIN
 70
     0
  9
$DIMBLK
  1

  9
$DIMASO
 70
     0
  9
$DIMSHO
 70
     0
  9
$DIMPOST
  1

  9
$DIMAPOST
  1

  9
$DIMALT
 70
     0
  9
$DIMALTD
 70
     2
  9
$DIMALTF
 40
25.399999999999999
  9
$DIMLFAC
 40
1.0
  9
$DIMTOFL
 70
     1
  9
$DIMTVP
 40
1.6000000000000001
  9
$DIMTIX
 70
     1
  9
$DIMSOXD
 70
     0
  9
$DIMSAH
 70
     0
  9
$DIMBLK1
  1

  9
$DIMBLK2
  1

  9
$DIMSTYLE
  2
STANDARD
  9
$DIMCLRD
 70
     0
  9
$DIMCLRE
 70
     0
  9
$DIMCLRT
 70
     0
  9
$DIMTFAC
 40
1.0
  9
$DIMGAP
 40
1.0
  9
$LUNITS
 70
     2
  9
$LUPREC
 70
     2
  9
$SKETCHINC
 40
0.1
  9
$FILLETRAD
 40
0.0
  9
$AUNITS
 70
     0
  9
$AUPREC
 70
     2
  9
$MENU
  1
E:\r13\win\SUPPORT\ACAD
  9
$ELEVATION
 40
0.0
  9
$PELEVATION
 40
0.0
  9
$THICKNESS
 40
0.0
  9
$LIMCHECK
 70
     0
  9
$BLIPMODE
 70
     0
  9
$CHAMFERA
 40
1.0
  9
$CHAMFERB
 40
1.0
  9
$SKPOLY
 70
     0
  9
$TDCREATE
 40
2450305.4087759261
  9
$TDUPDATE
 40
2456597.5627383571
  9
$TDINDWG
 40
0.0062773032
  9
$TDUSRTIMER
 40
0.0062773032
  9
$USRTIMER
 70
     1
  9
$ANGBASE
 50
0.0
  9
$ANGDIR
 70
     0
  9
$PDMODE
 70
     0
  9
$PDSIZE
 40
0.0
  9
$PLINEWID
 40
0.0
  9
$COORDS
 70
     1
  9
$SPLFRAME
 70
     0
  9
$SPLINETYPE
 70
     6
  9
$SPLINESEGS
 70
     8
  9
$ATTDIA
 70
     0
  9
$ATTREQ
 70
     1
  9
$HANDLING
 70
     1
  9
$HANDSEED
  5
5D2
  9
$SURFTAB1
 70
     6
  9
$SURFTAB2
 70
     6
  9
$SURFTYPE
 70
     6
  9
$SURFU
 70
     6
  9
$SURFV
 70
     6
  9
$UCSNAME
  2

  9
$UCSORG
 10
0.0
 20
0.0
 30
0.0
  9
$UCSXDIR
 10
1.0
 20
0.0
 30
0.0
  9
$UCSYDIR
 10
0.0
 20
1.0
 30
0.0
  9
$PUCSNAME
  2

  9
$PUCSORG
 10
0.0
 20
0.0
 30
0.0
  9
$PUCSXDIR
 10
1.0
 20
0.0
 30
0.0
  9
$PUCSYDIR
 10
0.0
 20
1.0
 30
0.0
  9
$USERI1
 70
     3
  9
$USERI2
 70
     1
  9
$USERI3
 70
     0
  9
$USERI4
 70
     1
  9
$USERI5
 70
     0
  9
$USERR1
 40
0.5
  9
$USERR2
 40
3.0
  9
$USERR3
 40
3.0
  9
$USERR4
 40
3.0
  9
$USERR5
 40
10.0
  9
$WORLDVIEW
 70
     1
  9
$SHADEDGE
 70
     3
  9
$SHADEDIF
 70
    70
  9
$TILEMODE
 70
     1
  9
$MAXACTVP
 70
    16
  9
$PLIMCHECK
 70
     0
  9
$PEXTMIN
 10
1.0000000000000000E+020
 20
1.0000000000000000E+020
 30
1.0000000000000000E+020
  9
$PEXTMAX
 10
-1.0000000000000000E+020
 20
-1.0000000000000000E+020
 30
-1.0000000000000000E+020
  9
$PLIMMIN
 10
0.0
 20
0.0
  9
$PLIMMAX
 10
12.0
 20
9.0
  9
$UNITMODE
 70
     0
  9
$VISRETAIN
 70
     0
  9
$PLINEGEN
 70
     0
  9
$PSLTSCALE
 70
     0
  0
ENDSEC
  0
SECTION
  2
TABLES
  0
TABLE
  2
VPORT
 70
     1
  0
VPORT
  2
*ACTIVE
 70
     0
 10
0.0
 20
0.0
 11
1.0
 21
1.0
 12
96.247062907201581
 22
81.430819429735848
 13
0.0
 23
0.0
 14
2.5
 24
2.5
 15
10.0
 25
10.0
 16
0.0
 26
0.0
 36
1.0
 17
0.0
 27
0.0
 37
0.0
 40
167.40500581387491
 41
1.9089595375722539
 42
50.0
 43
0.0
 44
0.0
 50
0.0
 51
0.0
 71
     0
 72
  1000
 73
     1
 74
     0
 75
     0
 76
     0
 77
     0
 78
     1
  0
ENDTAB
  0
TABLE
  2
LTYPE
 70
     3
  0
LTYPE
  2
CONTINUOUS
 70
     0
  3
Solid Line
 72
    65
 73
     0
 40
0.0
  0
LTYPE
  2
CENTER
 70
     0
  3
____ _ ____ _ ____ _ ____ _ ____ _ ____ _ ____
 72
    65
 73
     4
 40
2.0
 49
1.25
 49
-0.25
 49
0.25
 49
-0.25
  0
LTYPE
  2
PHANTOM2
 70
     0
  3
___ _ _ ___ _ _ ___ _ _ ___ _ _
 72
    65
 73
     6
 40
1.25
 49
0.625
 49
-0.125
 49
0.125
 49
-0.125
 49
0.125
 49
-0.125
  0
ENDTAB
  0
TABLE
  2
LAYER
 70
     3
  0
LAYER
  2
0
 70
     0
 62
     7
  6
CONTINUOUS
  0
LAYER
  2
1
 70
     0
 62
     1
  6
CENTER
  0
LAYER
  2
3
 70
     0
 62
     3
  6
CONTINUOUS
  0
ENDTAB
  0
TABLE
  2
STYLE
 70
     2
  0
STYLE
  2
STANDARD
 70
     0
 40
0.0
 41
1.0
 50
0.0
 71
     0
 42
1.5
  3
SIMPLEX
  4
BIGFONT
  0
STYLE
  2
STANDARD1
 70
     0
 40
0.0
 41
1.0
 50
0.0
 71
     0
 42
3.0
  3
txt
  4

  0
ENDTAB
  0
TABLE
  2
VIEW
 70
     0
  0
ENDTAB
  0
TABLE
  2
UCS
 70
     0
  0
ENDTAB
  0
TABLE
  2
APPID
 70
     9
  0
APPID
  2
ACAD
 70
     0
  0
APPID
  2
GENIUS_GENOREF_13
 70
     0
  0
APPID
  2
GENIUS_GENODEF_13
 70
     0
  0
APPID
  2
GENIUS_GENOENT_13
 70
     0
  0
APPID
  2
GENIUS_GENOBJ_13
 70
     0
  0
APPID
  2
GENIUS_GENOLIS_13
 70
     0
  0
APPID
  2
GENIUS_GENOBJ-N-FIL_13
 70
     0
  0
APPID
  2
ACAD_MLEADERVER
 70
     0
  0
APPID
  2
ACAD_NAV_VCDISPLAY
 70
     0
  0
ENDTAB
  0
TABLE
  2
DIMSTYLE
 70
     1
  0
DIMSTYLE
  2
STANDARD
 70
     0
  3

  4

  5

  6

  7

 40
1.0
 41
0.18
 42
0.0625
 43
0.38
 44
0.18
 45
0.0
 46
0.0
 47
0.0
 48
0.0
140
0.18
141
0.09
142
0.0
143
25.399999999999999
144
1.0
145
0.0
146
1.0
147
0.09
 71
     0
 72
     0
 73
     1
 74
     1
 75
     0
 76
     0
 77
     0
 78
     0
170
     0
171
     2
172
     0
173
     0
174
     0
175
     0
176
     0
177
     0
178
     0
  0
ENDTAB
  0
ENDSEC
  0
SECTION
  2
BLOCKS
  0
BLOCK
  8
0
  2
$MODEL_SPACE
 70
     0
 10
0.0
 20
0.0
 30
0.0
  3
$MODEL_SPACE
  1

  0
ENDBLK
  5
41B
  8
0
  0
BLOCK
 67
     1
  8
0
  2
$PAPER_SPACE
 70
     0
 10
0.0
 20
0.0
 30
0.0
  3
$PAPER_SPACE
  1

  0
ENDBLK
  5
419
 67
     1
  8
0
  0
ENDSEC
  0
SECTION
  2
ENTITIES
  0
LINE
  5
465
  8
0
 10
58.106910877681429
 20
63.900277272288719
 30
0.0
 11
75.106910877681401
 21
63.900277272288719
 31
0.0
  0
LINE
  5
466
  8
0
 10
58.106910877681429
 20
63.554028492339199
 30
0.0
 11
75.106910877681401
 21
63.554028492339221
 31
0.0
  0
LINE
  5
467
  8
0
 10
58.106910877681429
 20
57.84634022357988
 30
0.0
 11
75.106910877681401
 21
57.84634022357988
 31
0.0
  0
LINE
  5
468
  8
0
 10
58.106910877681429
 20
57.500091443630403
 30
0.0
 11
75.106910877681401
 21
57.500091443630403
 31
0.0
  0
LINE
  5
469
  8
0
 10
58.106910877681372
 20
35.800184366878689
 30
0.0
 11
75.106910877681372
 21
35.800184366878703
 31
0.0
  0
ARC
  5
46A
  8
0
 10
29.455017795271161
 20
35.599641889054134
 30
0.0
 40
0.2
 50
269.99978923553351
 51
0.1554086397187281
  0
LINE
  5
46B
  8
0
 10
36.255202152515807
 20
35.399641889055481
 30
0.0
 11
37.655460700319139
 21
35.399641889055481
 31
0.0
  0
ARC
  5
46C
  8
0
 10
36.255202152515807
 20
35.599641889054134
 30
0.0
 40
0.2
 50
179.8445913602813
 51
270.00021076446649
  0
LINE
  5
46D
  8
0
 10
28.0547592474678
 20
35.399641889055481
 30
0.0
 11
29.455017795271161
 21
35.399641889055481
 31
0.0
  0
ARC
  5
46E
  8
0
 10
32.855202888222578
 20
40.656434366878017
 30
0.0
 40
5.6562499999994387
 50
239.6998023353166
 51
300.30019766468342
  0
LINE
  5
46F
  8
0
 10
29.655202888222579
 20
35.600184366878693
 30
0.0
 11
29.655202888222519
 21
35.597988912999107
 31
0.0
  0
LINE
  5
470
  8
0
 10
29.855202888222589
 20
35.80018436687871
 30
0.0
 11
29.900545547684111
 21
35.80018436687871
 31
0.0
  0
ARC
  5
471
  8
0
 10
29.855202888222589
 20
35.600184366878693
 30
0.0
 40
0.2000000000000003
 50
90.0
 51
180.0
  0
ARC
  5
472
  8
0
 10
29.900545547684111
 20
35.600184366878693
 30
0.0
 40
0.2000000000000003
 50
59.699802335314843
 51
90.0
  0
LINE
  5
473
  8
0
 10
36.055202888222567
 20
35.600184366878707
 30
0.0
 11
36.055202888222567
 21
35.600184366878551
 31
0.0
  0
LINE
  5
474
  8
0
 10
35.809860228761039
 20
35.80018436687871
 30
0.0
 11
35.855202888222642
 21
35.80018436687871
 31
0.0
  0
ARC
  5
475
  8
0
 10
35.855202888222642
 20
35.600184366878693
 30
0.0
 40
0.2000000000000003
 50
0.0000000000081422
 51
90.0
  0
ARC
  5
476
  8
0
 10
35.809860228761039
 20
35.600184366878693
 30
0.0
 40
0.2000000000000003
 50
90.0
 51
120.3001976646851
  0
ARC
  5
47A
  8
0
 10
37.65603845783798
 20
34.899642222859342
 30
0.0
 40
0.5
 50
334.38837495695122
 51
90.066206149552997
  0
ARC
  5
47B
  8
0
 10
23.678993442734921
 20
41.599807343644123
 30
0.0
 40
16.0
 50
309.81322659035078
 51
334.38837495678177
  0
LINE
  5
47C
  8
0
 10
75.106910877681372
 20
35.400184357959517
 30
0.0
 11
58.106910877681337
 21
35.400184357959517
 31
0.0
  0
LINE
  5
47D
  8
1
 10
64.607139547318468
 20
26.15872436072652
 30
0.0
 11
64.607139547318496
 21
32.20034803395383
 31
0.0
  0
LINE
  5
47E
  8
0
 10
58.106910877681429
 20
66.00018435795954
 30
0.0
 11
75.106910877681429
 21
66.00018435795954
 31
0.0
  0
LINE
  5
47F
  8
0
 10
58.106910877681429
 20
55.400184357959539
 30
0.0
 11
75.106910877681372
 21
55.400184357959517
 31
0.0
  0
LINE
  5
480
  8
0
 10
75.106910877681429
 20
66.00018435795954
 30
0.0
 11
75.106910877681401
 21
55.400184357959539
 31
0.0
  0
LINE
  5
481
  8
1
 10
70.601910877689392
 20
68.50018435795954
 30
0.0
 11
70.601910877689392
 21
52.900184357959517
 31
0.0
  0
LINE
  5
482
  8
0
 10
58.106910877681401
 20
66.000184357959512
 30
0.0
 11
58.106910877681429
 21
55.400184357959539
 31
0.0
  0
LINE
  5
483
  8
1
 10
55.606910877681429
 20
60.70018435795955
 30
0.0
 11
77.606910877681429
 21
60.700184357959529
 31
0.0
  0
LINE
  5
484
  8
0
 10
75.106910877681401
 20
29.000184357959519
 30
0.0
 11
75.106910877681372
 21
35.800184366878682
 31
0.0
  0
LINE
  5
485
  8
0
 10
68.357752136321636
 20
29.0001843579577
 30
0.0
 11
66.156910877681298
 21
29.0001843579577
 31
0.0
  0
LINE
  5
486
  8
0
 10
75.106910877681344
 20
29.000184357959519
 30
0.0
 11
72.856069619040255
 21
29.00018435795953
 31
0.0
  0
LINE
  5
487
  8
1
 10
70.606910877681401
 20
26.50018435795953
 30
0.0
 11
70.606910877681372
 21
37.900184357959517
 31
0.0
  0
LINE
  5
488
  8
0
 10
58.106910877681401
 20
29.000184357959519
 30
0.0
 11
58.106910877681372
 21
35.800184366878682
 31
0.0
  0
LINE
  5
489
  8
0
 10
63.056910877682867
 20
29.000184357959519
 30
0.0
 11
58.106910877681337
 21
29.000184357959519
 31
0.0
  0
ARC
  5
48A
  8
0
 10
64.606910877681344
 20
27.634595947193059
 30
0.0
 40
2.0657520924870849
 50
41.380850822950343
 51
138.6191491770488
  0
ARC
  5
48B
  8
0
 10
64.607474470590603
 20
30.15872434670483
 30
0.0
 40
1.500000000000004
 50
215.0847230212087
 51
324.8896907253075
  0
ARC
  5
48C
  8
0
 10
28.054181489948991
 20
34.899642222859342
 30
0.0
 40
0.5
 50
89.933793850447003
 51
205.6116250430488
  0
ARC
  5
48D
  8
0
 10
42.031226505052039
 20
41.599807343644123
 30
0.0
 40
16.0
 50
205.6116250432178
 51
230.18677340964831
  0
ARC
  5
48E
  8
0
 10
32.855298856018948
 20
31.000184357959569
 30
0.0
 40
2.0
 50
237.70134643253459
 51
302.24583699925569
  0
ARC
  5
48F
  8
0
 10
32.855673566802672
 20
30.158724240827642
 30
0.0
 40
1.500000000000004
 50
202.75697579682031
 51
337.30789825985289
  0
LINE
  5
490
  8
1
 10
32.85510997389347
 20
37.900184357959489
 30
0.0
 11
32.85510997389347
 21
26.50018435795948
 31
0.0
  0
ARC
  5
491
  8
0
 10
70.606910877681386
 20
27.908724346704421
 30
0.0
 40
2.5
 50
25.886129447825471
 51
154.1138705522209
  0
CIRCLE
  5
492
  8
0
 10
70.601910877689392
 20
60.700184357959529
 30
0.0
 40
1.6209999999999991
  0
CIRCLE
  5
493
  8
3
 10
70.601910877689392
 20
60.700184357959529
 30
0.0
 40
2.0
  0
TEXT
  5
544
  8
0
 62
     3
 10
0.0
 20
0.0
 30
0.0
 40
5.0
  1
L6-TST4
  7
STANDARD1
  0
ENDSEC
  0
EOF
