  0
SECTION
  2
HEADER
  9
$ACADVER
  1
AC1009
  9
$INSBASE
 10
0.0
 20
0.0
 30
0.0
  9
$EXTMIN
 10
0.0
 20
-2.960436562073669
 30
0.0
  9
$EXTMAX
 10
298.36068076846152
 20
213.2342153569823
 30
0.0
  9
$LIMMIN
 10
0.0
 20
0.0
  9
$LIMMAX
 10
375.0
 20
278.0
  9
$ORTHOMODE
 70
     1
  9
$REGENMODE
 70
     1
  9
$FILLMODE
 70
     1
  9
$QTEXTMODE
 70
     0
  9
$MIRRTEXT
 70
     0
  9
$DRAGMODE
 70
     2
  9
$LTSCALE
 40
10.0
  9
$OSMODE
 70
  3071
  9
$ATTMODE
 70
     1
  9
$TEXTSIZE
 40
0.2
  9
$TRACEWID
 40
0.05
  9
$TEXTSTYLE
  7
STANDARD
  9
$CLAYER
  8
0
  9
$CELTYPE
  6
BYLAYER
  9
$CECOLOR
 62
   256
  9
$DIMSCALE
 40
1.0
  9
$DIMASZ
 40
3.0
  9
$DIMEXO
 40
1.0
  9
$DIMDLI
 40
6.0
  9
$DIMRND
 40
0.0
  9
$DIMDLE
 40
0.0
  9
$DIMEXE
 40
1.0
  9
$DIMTP
 40
495.0
  9
$DIMTM
 40
0.0
  9
$DIMTXT
 40
3.0
  9
$DIMCEN
 40
0.0
  9
$DIMTSZ
 40
0.0
  9
$DIMTOL
 70
     0
  9
$DIMLIM
 70
     0
  9
$DIMTIH
 70
     0
  9
$DIMTOH
 70
     0
  9
$DIMSE1
 70
     0
  9
$DIMSE2
 70
     0
  9
$DIMTAD
 70
     1
  9
$DIMZIN
 70
     0
  9
$DIMBLK
  1

  9
$DIMASO
 70
     0
  9
$DIMSHO
 70
     0
  9
$DIMPOST
  1

  9
$DIMAPOST
  1

  9
$DIMALT
 70
     0
  9
$DIMALTD
 70
     2
  9
$DIMALTF
 40
25.399999999999999
  9
$DIMLFAC
 40
1.0
  9
$DIMTOFL
 70
     1
  9
$DIMTVP
 40
0.0
  9
$DIMTIX
 70
     1
  9
$DIMSOXD
 70
     0
  9
$DIMSAH
 70
     0
  9
$DIMBLK1
  1

  9
$DIMBLK2
  1

  9
$DIMSTYLE
  2
STANDARD
  9
$DIMCLRD
 70
     0
  9
$DIMCLRE
 70
     0
  9
$DIMCLRT
 70
     4
  9
$DIMTFAC
 40
1.0
  9
$DIMGAP
 40
1.0
  9
$LUNITS
 70
     2
  9
$LUPREC
 70
     4
  9
$SKETCHINC
 40
0.1
  9
$FILLETRAD
 40
0.0
  9
$AUNITS
 70
     0
  9
$AUPREC
 70
     0
  9
$MENU
  1
C:\R13\WIN\SUPPORT\ACAD-I
  9
$ELEVATION
 40
0.0
  9
$PELEVATION
 40
0.0
  9
$THICKNESS
 40
0.0
  9
$LIMCHECK
 70
     0
  9
$BLIPMODE
 70
     0
  9
$CHAMFERA
 40
0.0
  9
$CHAMFERB
 40
0.0
  9
$SKPOLY
 70
     0
  9
$TDCREATE
 40
2450834.4199027782
  9
$TDUPDATE
 40
2456597.5626854398
  9
$TDINDWG
 40
0.0411118634
  9
$TDUSRTIMER
 40
0.0411118634
  9
$USRTIMER
 70
     1
  9
$ANGBASE
 50
0.0
  9
$ANGDIR
 70
     0
  9
$PDMODE
 70
     0
  9
$PDSIZE
 40
0.0
  9
$PLINEWID
 40
0.0
  9
$COORDS
 70
     1
  9
$SPLFRAME
 70
     0
  9
$SPLINETYPE
 70
     6
  9
$SPLINESEGS
 70
     8
  9
$ATTDIA
 70
     0
  9
$ATTREQ
 70
     1
  9
$HANDLING
 70
     1
  9
$HANDSEED
  5
A56
  9
$SURFTAB1
 70
     6
  9
$SURFTAB2
 70
     6
  9
$SURFTYPE
 70
     6
  9
$SURFU
 70
     6
  9
$SURFV
 70
     6
  9
$UCSNAME
  2

  9
$UCSORG
 10
0.0
 20
0.0
 30
0.0
  9
$UCSXDIR
 10
1.0
 20
0.0
 30
0.0
  9
$UCSYDIR
 10
0.0
 20
1.0
 30
0.0
  9
$PUCSNAME
  2

  9
$PUCSORG
 10
0.0
 20
0.0
 30
0.0
  9
$PUCSXDIR
 10
1.0
 20
0.0
 30
0.0
  9
$PUCSYDIR
 10
0.0
 20
1.0
 30
0.0
  9
$USERI1
 70
     4
  9
$USERI2
 70
     1
  9
$USERI3
 70
     0
  9
$USERI4
 70
     0
  9
$USERI5
 70
     0
  9
$USERR1
 40
1.0
  9
$USERR2
 40
3.0
  9
$USERR3
 40
3.0
  9
$USERR4
 40
3.0
  9
$USERR5
 40
10.0
  9
$WORLDVIEW
 70
     1
  9
$SHADEDGE
 70
     3
  9
$SHADEDIF
 70
    70
  9
$TILEMODE
 70
     1
  9
$MAXACTVP
 70
    16
  9
$PLIMCHECK
 70
     0
  9
$PEXTMIN
 10
1.0000000000000000E+020
 20
1.0000000000000000E+020
 30
1.0000000000000000E+020
  9
$PEXTMAX
 10
-1.0000000000000000E+020
 20
-1.0000000000000000E+020
 30
-1.0000000000000000E+020
  9
$PLIMMIN
 10
0.0
 20
0.0
  9
$PLIMMAX
 10
12.0
 20
9.0
  9
$UNITMODE
 70
     0
  9
$VISRETAIN
 70
     0
  9
$PLINEGEN
 70
     0
  9
$PSLTSCALE
 70
     0
  0
ENDSEC
  0
SECTION
  2
TABLES
  0
TABLE
  2
VPORT
 70
     1
  0
VPORT
  2
*ACTIVE
 70
     0
 10
0.0
 20
0.0
 11
1.0
 21
1.0
 12
187.4942783906524
 22
167.7204668657281
 13
0.0
 23
0.0
 14
10.0
 24
10.0
 15
10.0
 25
10.0
 16
0.0
 26
0.0
 36
1.0
 17
0.0
 27
0.0
 37
0.0
 40
344.62625130655709
 41
1.9089595375722539
 42
50.0
 43
0.0
 44
0.0
 50
0.0
 51
0.0
 71
     0
 72
   100
 73
     1
 74
     0
 75
     0
 76
     0
 77
     0
 78
     0
  0
ENDTAB
  0
TABLE
  2
LTYPE
 70
     3
  0
LTYPE
  2
CONTINUOUS
 70
     0
  3
Solid Line
 72
    65
 73
     0
 40
0.0
  0
LTYPE
  2
CENTER
 70
     0
  3
____ _ ____ _ ____ _ ____ _ ____ _ ____ _ ____
 72
    65
 73
     4
 40
2.0
 49
1.25
 49
-0.25
 49
0.25
 49
-0.25
  0
LTYPE
  2
PHANTOM2
 70
     0
  3
___ _ _ ___ _ _ ___ _ _ ___ _ _
 72
    65
 73
     6
 40
1.25
 49
0.625
 49
-0.125
 49
0.125
 49
-0.125
 49
0.125
 49
-0.125
  0
ENDTAB
  0
TABLE
  2
LAYER
 70
     2
  0
LAYER
  2
0
 70
     0
 62
     7
  6
CONTINUOUS
  0
LAYER
  2
1
 70
     0
 62
     1
  6
CENTER
  0
ENDTAB
  0
TABLE
  2
STYLE
 70
     2
  0
STYLE
  2
STANDARD
 70
     0
 40
0.0
 41
1.0
 50
0.0
 71
     0
 42
0.2
  3
SIMPLEX
  4
BIGFONT
  0
STYLE
  2
STANDARD1
 70
     0
 40
0.0
 41
1.0
 50
0.0
 71
     0
 42
3.0
  3
txt
  4

  0
ENDTAB
  0
TABLE
  2
VIEW
 70
     0
  0
ENDTAB
  0
TABLE
  2
UCS
 70
     0
  0
ENDTAB
  0
TABLE
  2
APPID
 70
    26
  0
APPID
  2
ACAD
 70
     0
  0
APPID
  2
GENIUS_GENOBJ_13
 70
     0
  0
APPID
  2
GENIUS_GENODEF_13
 70
     0
  0
APPID
  2
GENIUS_GENOENT_13
 70
     0
  0
APPID
  2
GENIUS_GENOLIS_13
 70
     0
  0
APPID
  2
GENIUS_GENOREF_13
 70
     0
  0
APPID
  2
GENIUS_GENOBJ-N-TIT_13
 70
     0
  0
APPID
  2
GENIUS_GENTITLE_13
 70
     0
  0
APPID
  2
GENIUS_GENZVEED_13
 70
     0
  0
APPID
  2
GENIUS_GENOBJ-N-FIL_13
 70
     0
  0
APPID
  2
GENIUS_GENOBJ-N-CRS_13
 70
     0
  0
APPID
  2
GENIUS_GEFINERT_13
 70
     0
  0
APPID
  2
GENIUS_GENOBJ-F-INER_13
 70
     0
  0
APPID
  2
GENIUS_GENOBJ-N-ZOO_13
 70
     0
  0
APPID
  2
GENIUS_GENZOO_13
 70
     0
  0
APPID
  2
GENIUS_GENOBJ-F-TOL_13
 70
     0
  0
APPID
  2
GENIUS_GENOBJ-N-RSSYM_13
 70
     0
  0
APPID
  2
GENIUS_GENSYMENT_13
 70
     0
  0
APPID
  2
GENIUS_GENBH_13
 70
     0
  0
APPID
  2
GENIUS_GENOBJ-NBEHI-BHF_13
 70
     0
  0
APPID
  2
GENIUS_GENOBJ-NBEHI-BHB_13
 70
     0
  0
APPID
  2
GENIUS_GENOBJ-F-PART_13
 70
     0
  0
APPID
  2
GENIUS_GEFSTDP_13
 70
     0
  0
APPID
  2
GENIUS_GENOBJ-N-LEADER_13
 70
     0
  0
APPID
  2
ACAD_MLEADERVER
 70
     0
  0
APPID
  2
ACAD_NAV_VCDISPLAY
 70
     0
  0
ENDTAB
  0
TABLE
  2
DIMSTYLE
 70
     1
  0
DIMSTYLE
  2
STANDARD
 70
     0
  3

  4

  5

  6

  7

 40
1.0
 41
0.18
 42
0.0625
 43
0.38
 44
0.18
 45
0.0
 46
0.0
 47
0.0
 48
0.0
140
0.18
141
0.09
142
0.0
143
25.399999999999999
144
1.0
145
0.0
146
1.0
147
0.09
 71
     0
 72
     0
 73
     1
 74
     1
 75
     0
 76
     0
 77
     0
 78
     0
170
     0
171
     2
172
     0
173
     0
174
     0
175
     0
176
     0
177
     0
178
     0
  0
ENDTAB
  0
ENDSEC
  0
SECTION
  2
BLOCKS
  0
BLOCK
  8
0
  2
$MODEL_SPACE
 70
     0
 10
0.0
 20
0.0
 30
0.0
  3
$MODEL_SPACE
  1

  0
ENDBLK
  5
917
  8
0
  0
BLOCK
 67
     1
  8
0
  2
$PAPER_SPACE
 70
     0
 10
0.0
 20
0.0
 30
0.0
  3
$PAPER_SPACE
  1

  0
ENDBLK
  5
915
 67
     1
  8
0
  0
BLOCK
  8
0
  2
STDGX5
 70
     0
 10
0.0
 20
0.0
 30
0.0
  3
STDGX5
  1

  0
ENDBLK
  5
4F
  8
0
  0
ENDSEC
  0
SECTION
  2
ENTITIES
  0
INSERT
  5
DE
  8
0
  2
STDGX5
 10
0.0
 20
0.0
 30
0.0
  0
INSERT
  5
DF
  8
0
  2
STDGX5
 10
0.0
 20
0.0
 30
0.0
  0
INSERT
  5
15C
  8
0
  2
STDGX5
 10
275.0
 20
0.0
 30
0.0
  0
INSERT
  5
15D
  8
0
  2
STDGX5
 10
275.0
 20
0.0
 30
0.0
  0
INSERT
  5
314
  8
0
  2
STDGX5
 10
0.0
 20
0.0
 30
0.0
  0
INSERT
  5
315
  8
0
  2
STDGX5
 10
0.0
 20
0.0
 30
0.0
  0
INSERT
  5
316
  8
0
  2
STDGX5
 10
275.0
 20
0.0
 30
0.0
  0
INSERT
  5
317
  8
0
  2
STDGX5
 10
275.0
 20
0.0
 30
0.0
  0
LINE
  5
59E
  8
1
 10
238.36068076846149
 20
178.2342153569823
 30
0.0
 11
298.36068076846152
 21
178.23421535698219
 31
0.0
  0
LINE
  5
59F
  8
1
 10
238.36068076846149
 20
193.23421535698219
 30
0.0
 11
298.36068076846152
 21
193.23421535698219
 31
0.0
  0
LINE
  5
5A0
  8
0
 10
243.36068076846161
 20
208.23421535698219
 30
0.0
 11
293.36068076846158
 21
208.23421535698219
 31
0.0
  0
LINE
  5
5A1
  8
1
 10
238.36068076846149
 20
163.23421535698239
 30
0.0
 11
298.36068076846152
 21
163.23421535698239
 31
0.0
  0
LINE
  5
5A2
  8
0
 10
243.36068076846149
 20
148.23421535698239
 30
0.0
 11
293.36068076846152
 21
148.23421535698239
 31
0.0
  0
LINE
  5
5A3
  8
0
 10
243.36068076846149
 20
148.23421535698239
 30
0.0
 11
243.36068076846161
 21
208.23421535698219
 31
0.0
  0
LINE
  5
5A4
  8
0
 10
293.36068076846152
 20
148.23421535698239
 30
0.0
 11
293.36068076846158
 21
208.23421535698219
 31
0.0
  0
CIRCLE
  5
7CF
  8
0
 10
178.62059474190951
 20
193.23421535698239
 30
0.0
 40
2.5
  0
CIRCLE
  5
7D6
  8
0
 10
178.62059474190951
 20
163.23421535698239
 30
0.0
 40
2.5
  0
ARC
  5
7D8
  8
0
 10
183.7705947419098
 20
204.04106960644759
 30
0.0
 40
2.999999999999913
 50
314.99999999999937
 51
359.99999999999949
  0
ARC
  5
7DA
  8
0
 10
165.82059474190299
 20
189.3342153569543
 30
0.0
 40
0.799999999999976
 50
0.0000000000015267
 51
90.000000000001521
  0
LINE
  5
7DB
  8
0
 10
165.82059474190299
 20
190.13421535695429
 30
0.0
 11
164.7209756099206
 21
190.13421535695429
 31
0.0
  0
ARC
  5
7DC
  8
0
 10
164.7209756099206
 20
190.23421535695431
 30
0.0
 40
0.1000000000000156
 50
180.0000000000081
 51
270.00000000000608
  0
LINE
  5
7DD
  8
0
 10
164.62097560992061
 20
190.23421535695431
 30
0.0
 11
164.62097560992061
 21
196.23421535695519
 31
0.0
  0
ARC
  5
7DE
  8
0
 10
164.7209756099206
 20
196.23421535695519
 30
0.0
 40
0.1000000000000085
 50
90.000000000008129
 51
180.0000000000081
  0
LINE
  5
7DF
  8
0
 10
164.7209756099206
 20
196.33421535695521
 30
0.0
 11
165.82059474190379
 21
196.33421535695521
 31
0.0
  0
ARC
  5
7E0
  8
0
 10
165.82059474190379
 20
197.1342153569552
 30
0.0
 40
0.8000000000000042
 50
269.99999999999949
 51
359.99999999999949
  0
LINE
  5
7E1
  8
0
 10
166.6205947419038
 20
197.1342153569552
 30
0.0
 11
166.6205947419038
 21
198.534215356955
 31
0.0
  0
ARC
  5
7E2
  8
0
 10
166.3205947419037
 20
198.53421535695509
 30
0.0
 40
0.300000000000125
 50
359.99999999998909
 51
89.999999999989157
  0
LINE
  5
7E3
  8
0
 10
166.3205947419037
 20
198.83421535695521
 30
0.0
 11
165.4205947419039
 21
198.83421535695521
 31
0.0
  0
ARC
  5
7E4
  8
0
 10
165.4205947419039
 20
199.1342153569552
 30
0.0
 40
0.2999999999999545
 50
180.0
 51
270.0
  0
LINE
  5
7E5
  8
0
 10
165.12059474190389
 20
199.1342153569552
 30
0.0
 11
165.12059474190389
 21
200.38421535698271
 31
0.0
  0
ARC
  5
7E6
  8
0
 10
166.12059474190389
 20
200.38421535698271
 30
0.0
 40
1.0
 50
90.0
 51
180.0000000000004
  0
LINE
  5
7E7
  8
0
 10
166.12059474190389
 20
201.38421535698271
 30
0.0
 11
167.813740492417
 21
201.38421535698271
 31
0.0
  0
ARC
  5
7E8
  8
0
 10
167.8137404924168
 20
198.38421535698271
 30
0.0
 40
3.0000000000000142
 50
44.999999999997293
 51
89.999999999996334
  0
LINE
  5
7E9
  8
0
 10
169.93506083597649
 20
200.50553570054231
 30
0.0
 11
172.49191508546349
 21
197.94868145105539
 31
0.0
  0
ARC
  5
7EA
  8
0
 10
170.37059474190369
 20
195.8273611074957
 30
0.0
 40
3.0000000000001319
 50
359.99999999999892
 51
44.999999999998487
  0
LINE
  5
7EB
  8
0
 10
173.3705947419038
 20
195.8273611074957
 30
0.0
 11
173.3705947419038
 21
190.6410696064421
 31
0.0
  0
ARC
  5
7EC
  8
0
 10
170.37059474190229
 20
190.64106960644239
 30
0.0
 40
3.0000000000015521
 50
314.99999999999199
 51
359.9999999999925
  0
LINE
  5
7ED
  8
0
 10
172.49191508546269
 20
188.51974926288139
 30
0.0
 11
169.9350608359758
 21
185.96289501339481
 31
0.0
  0
ARC
  5
7EE
  8
0
 10
167.81374049241609
 20
188.0842153569543
 30
0.0
 40
3.0000000000000639
 50
270.00000000000227
 51
315.0000000000029
  0
LINE
  5
7EF
  8
0
 10
167.8137404924162
 20
185.0842153569543
 30
0.0
 11
166.12059474190301
 21
185.0842153569543
 31
0.0
  0
ARC
  5
7F0
  8
0
 10
166.12059474190301
 20
186.0842153569543
 30
0.0
 40
1.0
 50
180.0
 51
270.0
  0
LINE
  5
7F1
  8
0
 10
165.12059474190301
 20
186.0842153569543
 30
0.0
 11
165.12059474190301
 21
187.3342153569543
 31
0.0
  0
ARC
  5
7F2
  8
0
 10
165.42059474190299
 20
187.3342153569543
 30
0.0
 40
0.2999999999999829
 50
90.000000000005429
 51
180.0000000000054
  0
LINE
  5
7F3
  8
0
 10
165.42059474190299
 20
187.63421535695429
 30
0.0
 11
166.32059474190311
 21
187.63421535695429
 31
0.0
  0
ARC
  5
7F4
  8
0
 10
166.32059474190311
 20
187.93421535695421
 30
0.0
 40
0.2999999999999545
 50
270.0
 51
0.0
  0
LINE
  5
7F5
  8
0
 10
166.62059474190301
 20
187.93421535695421
 30
0.0
 11
166.62059474190301
 21
189.3342153569543
 31
0.0
  0
ARC
  5
7F6
  8
0
 10
191.42059474191601
 20
189.3342153569543
 30
0.0
 40
0.799999999999976
 50
89.999999999998494
 51
179.99999999999841
  0
LINE
  5
7F7
  8
0
 10
191.42059474191601
 20
190.13421535695429
 30
0.0
 11
192.52021387389831
 21
190.13421535695429
 31
0.0
  0
ARC
  5
7F8
  8
0
 10
192.52021387389831
 20
190.23421535695431
 30
0.0
 40
0.1000000000000156
 50
269.99999999999392
 51
359.99999999999193
  0
LINE
  5
7F9
  8
0
 10
192.62021387389839
 20
190.23421535695431
 30
0.0
 11
192.62021387389839
 21
196.23421535695519
 31
0.0
  0
ARC
  5
7FA
  8
0
 10
192.52021387389831
 20
196.23421535695519
 30
0.0
 40
0.1000000000000085
 50
359.99999999999193
 51
89.999999999991857
  0
LINE
  5
7FB
  8
0
 10
192.52021387389831
 20
196.33421535695521
 30
0.0
 11
191.42059474191521
 21
196.33421535695521
 31
0.0
  0
ARC
  5
7FC
  8
0
 10
191.42059474191521
 20
197.1342153569552
 30
0.0
 40
0.8000000000000042
 50
180.00000000000051
 51
270.00000000000051
  0
LINE
  5
7FD
  8
0
 10
190.6205947419152
 20
197.1342153569552
 30
0.0
 11
190.6205947419152
 21
198.534215356955
 31
0.0
  0
ARC
  5
7FE
  8
0
 10
190.92059474191529
 20
198.53421535695509
 30
0.0
 40
0.300000000000125
 50
90.000000000010829
 51
180.0000000000108
  0
LINE
  5
7FF
  8
0
 10
190.92059474191521
 20
198.83421535695521
 30
0.0
 11
191.8205947419151
 21
198.83421535695521
 31
0.0
  0
ARC
  5
800
  8
0
 10
191.8205947419151
 20
199.1342153569552
 30
0.0
 40
0.2999999999999545
 50
270.0
 51
0.0
  0
LINE
  5
801
  8
0
 10
192.12059474191511
 20
199.1342153569552
 30
0.0
 11
192.12059474191511
 21
200.38421535698271
 31
0.0
  0
ARC
  5
802
  8
0
 10
191.12059474191511
 20
200.38421535698271
 30
0.0
 40
0.9999999999999978
 50
359.9999999999996
 51
90.000000000000114
  0
LINE
  5
803
  8
0
 10
191.12059474191511
 20
201.38421535698271
 30
0.0
 11
189.427448991402
 21
201.38421535698271
 31
0.0
  0
ARC
  5
804
  8
0
 10
189.4274489914022
 20
198.38421535698271
 30
0.0
 40
3.0000000000000142
 50
90.000000000003652
 51
135.0000000000027
  0
LINE
  5
805
  8
0
 10
187.30612864784251
 20
200.50553570054231
 30
0.0
 11
184.74927439835551
 21
197.94868145105539
 31
0.0
  0
ARC
  5
806
  8
0
 10
186.87059474191531
 20
195.8273611074957
 30
0.0
 40
3.000000000000131
 50
135.00000000000139
 51
180.00000000000111
  0
LINE
  5
807
  8
0
 10
183.8705947419152
 20
195.8273611074957
 30
0.0
 11
183.8705947419152
 21
190.6410696064421
 31
0.0
  0
ARC
  5
808
  8
0
 10
186.8705947419167
 20
190.64106960644239
 30
0.0
 40
3.000000000001553
 50
180.00000000000759
 51
225.00000000000799
  0
LINE
  5
809
  8
0
 10
184.74927439835631
 20
188.51974926288139
 30
0.0
 11
187.30612864784311
 21
185.96289501339481
 31
0.0
  0
ARC
  5
80A
  8
0
 10
189.42744899140291
 20
188.0842153569543
 30
0.0
 40
3.0000000000000639
 50
224.9999999999971
 51
269.99999999999773
  0
LINE
  5
80B
  8
0
 10
189.4274489914028
 20
185.0842153569543
 30
0.0
 11
191.12059474191599
 21
185.0842153569543
 31
0.0
  0
ARC
  5
80C
  8
0
 10
191.12059474191599
 20
186.0842153569543
 30
0.0
 40
1.0
 50
270.0
 51
0.0
  0
LINE
  5
80D
  8
0
 10
192.12059474191599
 20
186.0842153569543
 30
0.0
 11
192.12059474191599
 21
187.3342153569543
 31
0.0
  0
ARC
  5
80E
  8
0
 10
191.82059474191601
 20
187.3342153569543
 30
0.0
 40
0.2999999999999829
 50
359.99999999999449
 51
89.999999999994557
  0
LINE
  5
80F
  8
0
 10
191.82059474191601
 20
187.63421535695429
 30
0.0
 11
190.92059474191589
 21
187.63421535695429
 31
0.0
  0
ARC
  5
810
  8
0
 10
190.92059474191589
 20
187.93421535695421
 30
0.0
 40
0.2999999999999545
 50
180.0
 51
270.00000000000028
  0
LINE
  5
811
  8
0
 10
190.62059474191599
 20
187.93421535695421
 30
0.0
 11
190.62059474191599
 21
189.3342153569543
 31
0.0
  0
LINE
  5
812
  8
0
 10
186.77059474190969
 20
204.04106960644759
 30
0.0
 11
186.7705947419096
 21
205.7342153569881
 31
0.0
  0
ARC
  5
813
  8
0
 10
185.7705947419096
 20
205.7342153569881
 30
0.0
 40
1.0
 50
0.0
 51
90.0
  0
LINE
  5
814
  8
0
 10
185.7705947419096
 20
206.7342153569881
 30
0.0
 11
184.5205947419368
 21
206.7342153569881
 31
0.0
  0
ARC
  5
815
  8
0
 10
184.5205947419368
 20
206.43421535698809
 30
0.0
 40
0.2999999999999545
 50
90.0
 51
180.0
  0
LINE
  5
816
  8
0
 10
184.22059474193679
 20
206.43421535698809
 30
0.0
 11
184.22059474193671
 21
205.534215356988
 31
0.0
  0
ARC
  5
817
  8
0
 10
183.9205947419367
 20
205.534215356988
 30
0.0
 40
0.2999999999999545
 50
270.0
 51
0.0
  0
LINE
  5
818
  8
0
 10
183.9205947419367
 20
205.2342153569881
 30
0.0
 11
182.52059474193669
 21
205.23421535698799
 31
0.0
  0
ARC
  5
819
  8
0
 10
182.52059474193669
 20
206.034215356988
 30
0.0
 40
0.8000000000000113
 50
180.00000000000099
 51
270.00000000000023
  0
LINE
  5
81A
  8
0
 10
181.72059474193671
 20
206.034215356988
 30
0.0
 11
181.72059474193671
 21
207.2342153569823
 31
0.0
  0
ARC
  5
81B
  8
0
 10
182.72059474193671
 20
207.2342153569823
 30
0.0
 40
1.0
 50
90.0
 51
180.0
  0
LINE
  5
81C
  8
0
 10
182.72059474193671
 20
208.2342153569823
 30
0.0
 11
190.62059474190951
 21
208.23421535698239
 31
0.0
  0
ARC
  5
81D
  8
0
 10
190.62059474190951
 20
205.23421535698239
 30
0.0
 40
3.0
 50
0.0
 51
90.000000000000256
  0
LINE
  5
81E
  8
0
 10
193.62059474190951
 20
205.23421535698239
 30
0.0
 11
193.62059474190951
 21
151.23421535698239
 31
0.0
  0
ARC
  5
81F
  8
0
 10
190.62059474190951
 20
151.23421535698239
 30
0.0
 40
2.999999999999992
 50
270.00000000000023
 51
0.0
  0
LINE
  5
820
  8
0
 10
190.62059474190951
 20
148.23421535698239
 30
0.0
 11
182.72059474190951
 21
148.23421535698239
 31
0.0
  0
ARC
  5
821
  8
0
 10
182.72059474190951
 20
149.23421535698239
 30
0.0
 40
1.0
 50
179.9999999999992
 51
270.0
  0
LINE
  5
822
  8
0
 10
181.72059474190951
 20
149.23421535698239
 30
0.0
 11
181.72059474190951
 21
150.43421535694969
 31
0.0
  0
ARC
  5
823
  8
0
 10
182.52059474190949
 20
150.43421535694961
 30
0.0
 40
0.7999999999999689
 50
89.999999999997968
 51
179.99999999999841
  0
LINE
  5
824
  8
0
 10
182.52059474190949
 20
151.23421535694959
 30
0.0
 11
183.92059474190941
 21
151.2342153569497
 31
0.0
  0
ARC
  5
825
  8
0
 10
183.9205947419093
 20
150.93421535694961
 30
0.0
 40
0.300000000000125
 50
359.99999999996749
 51
89.999999999967429
  0
LINE
  5
826
  8
0
 10
184.22059474190939
 20
150.93421535694941
 30
0.0
 11
184.22059474190951
 21
150.0342153569496
 31
0.0
  0
ARC
  5
827
  8
0
 10
184.52059474190949
 20
150.0342153569496
 30
0.0
 40
0.2999999999999829
 50
179.99999999999449
 51
269.99999999999449
  0
LINE
  5
828
  8
0
 10
184.52059474190949
 20
149.73421535694959
 30
0.0
 11
185.7705947419368
 21
149.73421535694939
 31
0.0
  0
ARC
  5
829
  8
0
 10
185.7705947419368
 20
150.73421535694939
 30
0.0
 40
1.0000000000000711
 50
269.99999999999682
 51
359.99999999999841
  0
LINE
  5
82A
  8
0
 10
186.77059474193689
 20
150.73421535694939
 30
0.0
 11
186.77059474193689
 21
152.42736110746279
 31
0.0
  0
ARC
  5
82B
  8
0
 10
183.770594741937
 20
152.4273611074625
 30
0.0
 40
2.9999999999998721
 50
0.0000000000061576
 51
45.000000000007446
  0
LINE
  5
82C
  8
0
 10
185.89191508549629
 20
154.5486814510223
 30
0.0
 11
183.3350608360096
 21
157.10553570050931
 31
0.0
  0
ARC
  5
82D
  8
0
 10
181.21374049244989
 20
154.98421535694959
 30
0.0
 40
3.0000000000000422
 50
44.999999999999943
 51
89.999999999999744
  0
LINE
  5
82E
  8
0
 10
181.21374049244989
 20
157.98421535694959
 30
0.0
 11
176.0274489913962
 21
157.9842153569497
 31
0.0
  0
ARC
  5
82F
  8
0
 10
176.0274489913964
 20
154.98421535694959
 30
0.0
 40
3.0000000000000808
 50
90.0000000000027
 51
135.0000000000031
  0
LINE
  5
830
  8
0
 10
173.9061286478366
 20
157.10553570050919
 30
0.0
 11
171.34927439834959
 21
154.54868145102219
 31
0.0
  0
ARC
  5
831
  8
0
 10
173.47059474190931
 20
152.42736110746259
 30
0.0
 40
3.000000000000028
 50
135.00000000000071
 51
180.00000000000011
  0
LINE
  5
832
  8
0
 10
170.47059474190931
 20
152.42736110746259
 30
0.0
 11
170.47059474190931
 21
150.73421535694959
 31
0.0
  0
ARC
  5
833
  8
0
 10
171.47059474190931
 20
150.73421535694959
 30
0.0
 40
1.0
 50
180.0
 51
270.0
  0
LINE
  5
834
  8
0
 10
171.47059474190931
 20
149.73421535694959
 30
0.0
 11
172.72059474190951
 21
149.73421535694959
 31
0.0
  0
ARC
  5
835
  8
0
 10
172.72059474190951
 20
150.0342153569496
 30
0.0
 40
0.2999999999999829
 50
270.00000000000551
 51
0.0000000000054197
  0
LINE
  5
836
  8
0
 10
173.02059474190949
 20
150.0342153569496
 30
0.0
 11
173.02059474190949
 21
150.93421535694949
 31
0.0
  0
ARC
  5
837
  8
0
 10
173.3205947419095
 20
150.93421535694961
 30
0.0
 40
0.3000000000000114
 50
90.000000000010829
 51
180.0000000000108
  0
LINE
  5
838
  8
0
 10
173.32059474190939
 20
151.23421535694959
 30
0.0
 11
174.72059474190951
 21
151.23421535694959
 31
0.0
  0
ARC
  5
839
  8
0
 10
174.72059474190951
 20
150.43421535694961
 30
0.0
 40
0.8000000000000082
 50
0.0000000000006107
 51
90.000000000000256
  0
LINE
  5
83A
  8
0
 10
175.52059474190949
 20
150.43421535694969
 30
0.0
 11
175.52059474190949
 21
149.23421535698239
 31
0.0
  0
ARC
  5
83B
  8
0
 10
174.52059474190949
 20
149.23421535698239
 30
0.0
 40
1.0
 50
270.0
 51
359.9999999999992
  0
LINE
  5
83C
  8
0
 10
174.52059474190949
 20
148.23421535698239
 30
0.0
 11
166.62059474190951
 21
148.23421535698239
 31
0.0
  0
ARC
  5
83D
  8
0
 10
166.62059474190951
 20
151.23421535698239
 30
0.0
 40
2.9999999999999978
 50
180.0
 51
270.0
  0
LINE
  5
83E
  8
0
 10
163.62059474190951
 20
151.23421535698239
 30
0.0
 11
163.62059474190951
 21
205.23421535698239
 31
0.0
  0
ARC
  5
83F
  8
0
 10
166.62059474190951
 20
205.23421535698239
 30
0.0
 40
3.0
 50
90.0
 51
180.0
  0
LINE
  5
840
  8
0
 10
166.62059474190951
 20
208.23421535698239
 30
0.0
 11
174.52059474193669
 21
208.23421535698239
 31
0.0
  0
ARC
  5
841
  8
0
 10
174.52059474193669
 20
207.23421535698239
 30
0.0
 40
1.0
 50
0.0000000000008142
 51
90.0
  0
LINE
  5
842
  8
0
 10
175.52059474193669
 20
207.23421535698239
 30
0.0
 11
175.52059474193669
 21
206.034215356988
 31
0.0
  0
ARC
  5
843
  8
0
 10
174.72059474193679
 20
206.03421535698811
 30
0.0
 40
0.799999999999976
 50
269.99999999999739
 51
359.99999999999801
  0
LINE
  5
844
  8
0
 10
174.72059474193671
 20
205.2342153569881
 30
0.0
 11
173.3205947419367
 21
205.2342153569881
 31
0.0
  0
ARC
  5
845
  8
0
 10
173.3205947419367
 20
205.534215356988
 30
0.0
 40
0.2999999999999545
 50
180.0
 51
270.0
  0
LINE
  5
846
  8
0
 10
173.0205947419368
 20
205.534215356988
 30
0.0
 11
173.0205947419368
 21
206.43421535698809
 31
0.0
  0
ARC
  5
847
  8
0
 10
172.72059474193679
 20
206.43421535698809
 30
0.0
 40
0.2999999999999545
 50
0.0
 51
90.0
  0
LINE
  5
848
  8
0
 10
172.72059474193679
 20
206.7342153569881
 30
0.0
 11
171.47059474188219
 21
206.7342153569881
 31
0.0
  0
ARC
  5
849
  8
0
 10
171.47059474188219
 20
205.7342153569881
 30
0.0
 40
0.9999999999999857
 50
89.999999999998366
 51
180.0
  0
LINE
  5
84A
  8
0
 10
170.47059474188219
 20
205.7342153569881
 30
0.0
 11
170.47059474188219
 21
204.0410696065023
 31
0.0
  0
ARC
  5
84B
  8
0
 10
173.47059474188219
 20
204.04106960650211
 30
0.0
 40
2.9999999999999432
 50
179.99999999999659
 51
224.9999999999965
  0
LINE
  5
84C
  8
0
 10
171.34927439832239
 20
201.91974926294259
 30
0.0
 11
173.9061286478366
 21
199.3628950134285
 31
0.0
  0
ARC
  5
84D
  8
0
 10
176.02744899139631
 20
201.48421535698819
 30
0.0
 40
3.000000000000091
 50
224.99999999999761
 51
269.99999999999733
  0
LINE
  5
84E
  8
0
 10
176.0274489913962
 20
198.48421535698799
 30
0.0
 11
181.21374049244989
 21
198.4842153569881
 31
0.0
  0
ARC
  5
84F
  8
0
 10
181.2137404924502
 20
201.4842153569881
 30
0.0
 40
2.9999999999999001
 50
269.999999999995
 51
314.99999999999528
  0
LINE
  5
850
  8
0
 10
183.3350608360096
 20
199.3628950134283
 30
0.0
 11
185.89191508546941
 21
201.91974926288799
 31
0.0
  0
ARC
  5
851
  8
0
 10
189.62059474191039
 20
181.0842153569813
 30
0.0
 40
2.0
 50
0.0
 51
90.0
  0
LINE
  5
852
  8
0
 10
189.62059474191039
 20
183.08421535698139
 30
0.0
 11
189.42744899143179
 21
183.08421535698139
 31
0.0
  0
ARC
  5
853
  8
0
 10
189.42744899143199
 20
188.08421535698139
 30
0.0
 40
5.0000000000000071
 50
224.99999999999869
 51
269.99999999999801
  0
LINE
  5
854
  8
0
 10
185.89191508549911
 20
184.54868145104871
 30
0.0
 11
183.3350608360096
 21
187.1055357005383
 31
0.0
  0
ARC
  5
855
  8
0
 10
181.21374049245011
 20
184.9842153569785
 30
0.0
 40
2.9999999999999281
 50
45.00000000000297
 51
90.000000000003425
  0
LINE
  5
856
  8
0
 10
181.21374049244989
 20
187.9842153569785
 30
0.0
 11
176.0274489913962
 21
187.9842153569785
 31
0.0
  0
ARC
  5
857
  8
0
 10
176.02744899139631
 20
184.98421535697841
 30
0.0
 40
3.0000000000000848
 50
90.000000000002174
 51
135.0000000000019
  0
LINE
  5
858
  8
0
 10
173.9061286478366
 20
187.10553570053801
 30
0.0
 11
171.34927439832009
 21
184.54868145102159
 31
0.0
  0
ARC
  5
859
  8
0
 10
167.81374049238721
 20
188.0842153569543
 30
0.0
 40
4.999999999999984
 50
269.99999999999932
 51
315.00000000000148
  0
LINE
  5
85A
  8
0
 10
167.81374049238721
 20
183.0842153569543
 30
0.0
 11
167.62059474191031
 21
183.0842153569543
 31
0.0
  0
ARC
  5
85B
  8
0
 10
167.62059474191031
 20
181.0842153569543
 30
0.0
 40
1.9999999999999849
 50
89.999999999999588
 51
180.0000000000004
  0
LINE
  5
85C
  8
0
 10
165.62059474191031
 20
181.0842153569543
 30
0.0
 11
165.62059474191031
 21
175.38421535698271
 31
0.0
  0
ARC
  5
85D
  8
0
 10
167.62059474191031
 20
175.38421535698271
 30
0.0
 40
1.9999999999999849
 50
179.9999999999996
 51
270.0000000000004
  0
LINE
  5
85E
  8
0
 10
167.62059474191031
 20
173.38421535698271
 30
0.0
 11
167.8137404924457
 21
173.38421535698271
 31
0.0
  0
ARC
  5
85F
  8
0
 10
167.8137404924457
 20
168.38421535698259
 30
0.0
 40
5.0000000000000417
 50
44.99999999999882
 51
89.999999999999119
  0
LINE
  5
860
  8
0
 10
171.3492743983785
 20
171.9197492629153
 30
0.0
 11
173.9061286478366
 21
169.3628950134574
 31
0.0
  0
ARC
  5
861
  8
0
 10
176.02744899139631
 20
171.48421535701689
 30
0.0
 40
2.999999999999909
 50
224.9999999999967
 51
269.99999999999699
  0
LINE
  5
862
  8
0
 10
176.02744899139611
 20
168.48421535701689
 30
0.0
 11
181.21374049244989
 21
168.48421535701689
 31
0.0
  0
ARC
  5
863
  8
0
 10
181.2137404924498
 20
171.48421535701701
 30
0.0
 40
3.0000000000000879
 50
270.00000000000222
 51
315.00000000000188
  0
LINE
  5
864
  8
0
 10
183.3350608360096
 20
169.3628950134574
 30
0.0
 11
185.89191508549479
 21
171.91974926294259
 31
0.0
  0
ARC
  5
865
  8
0
 10
189.42744899142741
 20
168.38421535700979
 30
0.0
 40
4.9999999999999432
 50
89.999999999997769
 51
134.9999999999979
  0
LINE
  5
866
  8
0
 10
189.42744899142761
 20
173.38421535700971
 30
0.0
 11
189.62059474191031
 21
173.38421535700971
 31
0.0
  0
ARC
  5
867
  8
0
 10
189.62059474191039
 20
175.38421535700979
 30
0.0
 40
2.0000000000000311
 50
269.99999999999773
 51
359.99999999999909
  0
LINE
  5
868
  8
0
 10
191.62059474191039
 20
175.38421535700971
 30
0.0
 11
191.62059474191039
 21
181.0842153569813
 31
0.0
  0
ARC
  5
869
  8
0
 10
191.42059474191601
 20
159.3342153569543
 30
0.0
 40
0.799999999999976
 50
89.999999999998494
 51
179.99999999999841
  0
LINE
  5
86A
  8
0
 10
191.42059474191601
 20
160.13421535695429
 30
0.0
 11
192.52021387389831
 21
160.13421535695429
 31
0.0
  0
ARC
  5
86B
  8
0
 10
192.52021387389831
 20
160.23421535695431
 30
0.0
 40
0.1000000000000103
 50
269.99999999999341
 51
359.99999999999392
  0
LINE
  5
86C
  8
0
 10
192.62021387389839
 20
160.23421535695431
 30
0.0
 11
192.62021387389839
 21
166.23421535695519
 31
0.0
  0
ARC
  5
86D
  8
0
 10
192.52021387389831
 20
166.23421535695519
 30
0.0
 40
0.0999999999999943
 50
0.0
 51
90.0
  0
LINE
  5
86E
  8
0
 10
192.52021387389831
 20
166.33421535695521
 30
0.0
 11
191.42059474191521
 21
166.33421535695521
 31
0.0
  0
ARC
  5
86F
  8
0
 10
191.42059474191521
 20
167.1342153569552
 30
0.0
 40
0.8000000000000078
 50
180.00000000000051
 51
270.0000000000004
  0
LINE
  5
870
  8
0
 10
190.6205947419152
 20
167.1342153569552
 30
0.0
 11
190.6205947419152
 21
168.534215356955
 31
0.0
  0
ARC
  5
871
  8
0
 10
190.92059474191529
 20
168.53421535695509
 30
0.0
 40
0.300000000000125
 50
90.000000000010829
 51
180.0000000000108
  0
LINE
  5
872
  8
0
 10
190.92059474191521
 20
168.83421535695521
 30
0.0
 11
191.8205947419151
 21
168.83421535695521
 31
0.0
  0
ARC
  5
873
  8
0
 10
191.8205947419151
 20
169.1342153569552
 30
0.0
 40
0.2999999999999545
 50
270.0
 51
0.0
  0
LINE
  5
874
  8
0
 10
192.12059474191511
 20
169.1342153569552
 30
0.0
 11
192.12059474191511
 21
170.38421535698271
 31
0.0
  0
ARC
  5
875
  8
0
 10
191.12059474191511
 20
170.38421535698271
 30
0.0
 40
0.999999999999996
 50
0.0
 51
90.000000000000213
  0
LINE
  5
876
  8
0
 10
191.12059474191511
 20
171.38421535698271
 30
0.0
 11
189.427448991402
 21
171.38421535698271
 31
0.0
  0
ARC
  5
877
  8
0
 10
189.4274489914022
 20
168.38421535698271
 30
0.0
 40
3.0000000000000142
 50
90.000000000003737
 51
135.00000000000281
  0
LINE
  5
878
  8
0
 10
187.30612864784251
 20
170.5055357005422
 30
0.0
 11
184.74927439835551
 21
167.94868145105539
 31
0.0
  0
ARC
  5
879
  8
0
 10
186.87059474191531
 20
165.8273611074957
 30
0.0
 40
3.000000000000135
 50
135.00000000000151
 51
180.00000000000119
  0
LINE
  5
87A
  8
0
 10
183.8705947419152
 20
165.8273611074957
 30
0.0
 11
183.8705947419152
 21
160.64106960644199
 31
0.0
  0
ARC
  5
87B
  8
0
 10
186.8705947419167
 20
160.64106960644239
 30
0.0
 40
3.0000000000015561
 50
180.0000000000075
 51
225.0000000000079
  0
LINE
  5
87C
  8
0
 10
184.74927439835631
 20
158.51974926288139
 30
0.0
 11
187.30612864784311
 21
155.96289501339481
 31
0.0
  0
ARC
  5
87D
  8
0
 10
189.42744899140291
 20
158.0842153569543
 30
0.0
 40
3.0000000000000648
 50
224.9999999999971
 51
269.99999999999773
  0
LINE
  5
87E
  8
0
 10
189.4274489914028
 20
155.0842153569543
 30
0.0
 11
191.12059474191599
 21
155.0842153569543
 31
0.0
  0
ARC
  5
87F
  8
0
 10
191.12059474191599
 20
156.0842153569543
 30
0.0
 40
1.0
 50
270.0
 51
0.0
  0
LINE
  5
880
  8
0
 10
192.12059474191599
 20
156.0842153569543
 30
0.0
 11
192.12059474191599
 21
157.3342153569543
 31
0.0
  0
ARC
  5
881
  8
0
 10
191.82059474191601
 20
157.3342153569543
 30
0.0
 40
0.2999999999999829
 50
359.99999999999449
 51
89.999999999994557
  0
LINE
  5
882
  8
0
 10
191.82059474191601
 20
157.63421535695429
 30
0.0
 11
190.92059474191589
 21
157.63421535695429
 31
0.0
  0
ARC
  5
883
  8
0
 10
190.92059474191589
 20
157.93421535695421
 30
0.0
 40
0.2999999999999527
 50
179.9999999999996
 51
270.00000000000028
  0
LINE
  5
884
  8
0
 10
190.62059474191599
 20
157.93421535695421
 30
0.0
 11
190.62059474191599
 21
159.3342153569543
 31
0.0
  0
LINE
  5
885
  8
0
 10
192.1205947419368
 20
153.28421535698499
 30
0.0
 11
192.1205947419368
 21
151.2342153569823
 31
0.0
  0
ARC
  5
886
  8
0
 10
190.6205947419368
 20
151.23421535698239
 30
0.0
 40
1.5000000000000151
 50
270.00000000000063
 51
359.99999999999937
  0
LINE
  5
887
  8
0
 10
190.6205947419368
 20
149.73421535698239
 30
0.0
 11
188.57059474193679
 21
149.73421535698259
 31
0.0
  0
ARC
  5
888
  8
0
 10
188.57059474193679
 20
150.0342153569826
 30
0.0
 40
0.2999999999999545
 50
180.0
 51
270.0
  0
LINE
  5
889
  8
0
 10
188.27059474193689
 20
150.0342153569826
 30
0.0
 11
188.27059474193689
 21
153.2842153569778
 31
0.0
  0
ARC
  5
88A
  8
0
 10
188.5705947419369
 20
153.28421535697791
 30
0.0
 40
0.3000000000000629
 50
90.000000000150976
 51
180.00000000002271
  0
LINE
  5
88B
  8
0
 10
188.57059474193611
 20
153.58421535697789
 30
0.0
 11
191.82059474193611
 21
153.584215356985
 31
0.0
  0
ARC
  5
88C
  8
0
 10
191.82059474193679
 20
153.28421535698499
 30
0.0
 40
0.299999999999959
 50
0.0000000000008397
 51
90.000000000129376
  0
ARC
  5
88D
  8
0
 10
165.82059474190299
 20
159.3342153569543
 30
0.0
 40
0.799999999999976
 50
0.0000000000015267
 51
90.000000000001521
  0
LINE
  5
88E
  8
0
 10
165.82059474190299
 20
160.13421535695429
 30
0.0
 11
164.7209756099206
 21
160.13421535695429
 31
0.0
  0
ARC
  5
88F
  8
0
 10
164.7209756099206
 20
160.23421535695431
 30
0.0
 40
0.1000000000000103
 50
180.00000000000611
 51
270.00000000000807
  0
LINE
  5
890
  8
0
 10
164.62097560992061
 20
160.23421535695431
 30
0.0
 11
164.62097560992061
 21
166.23421535695519
 31
0.0
  0
ARC
  5
891
  8
0
 10
164.7209756099206
 20
166.23421535695519
 30
0.0
 40
0.0999999999999943
 50
90.0
 51
180.0
  0
LINE
  5
892
  8
0
 10
164.7209756099206
 20
166.33421535695521
 30
0.0
 11
165.82059474190379
 21
166.33421535695521
 31
0.0
  0
ARC
  5
893
  8
0
 10
165.82059474190379
 20
167.1342153569552
 30
0.0
 40
0.8000000000000078
 50
269.99999999999949
 51
359.99999999999949
  0
LINE
  5
894
  8
0
 10
166.6205947419038
 20
167.1342153569552
 30
0.0
 11
166.6205947419038
 21
168.534215356955
 31
0.0
  0
ARC
  5
895
  8
0
 10
166.3205947419037
 20
168.53421535695509
 30
0.0
 40
0.300000000000125
 50
359.99999999998909
 51
89.999999999989157
  0
LINE
  5
896
  8
0
 10
166.3205947419037
 20
168.83421535695521
 30
0.0
 11
165.4205947419039
 21
168.83421535695521
 31
0.0
  0
ARC
  5
897
  8
0
 10
165.4205947419039
 20
169.1342153569552
 30
0.0
 40
0.2999999999999545
 50
180.0
 51
270.0
  0
LINE
  5
898
  8
0
 10
165.12059474190389
 20
169.1342153569552
 30
0.0
 11
165.12059474190389
 21
170.38421535698271
 31
0.0
  0
ARC
  5
899
  8
0
 10
166.12059474190389
 20
170.38421535698271
 30
0.0
 40
0.9999999999999965
 50
89.999999999999801
 51
180.0
  0
LINE
  5
89A
  8
0
 10
166.12059474190389
 20
171.38421535698271
 30
0.0
 11
167.813740492417
 21
171.38421535698271
 31
0.0
  0
ARC
  5
89B
  8
0
 10
167.81374049241671
 20
168.38421535698271
 30
0.0
 40
3.0000000000000142
 50
44.999999999997122
 51
89.999999999996206
  0
LINE
  5
89C
  8
0
 10
169.93506083597649
 20
170.5055357005422
 30
0.0
 11
172.49191508546349
 21
167.94868145105539
 31
0.0
  0
ARC
  5
89D
  8
0
 10
170.37059474190369
 20
165.8273611074957
 30
0.0
 40
3.000000000000135
 50
359.99999999999881
 51
44.999999999998458
  0
LINE
  5
89E
  8
0
 10
173.3705947419038
 20
165.8273611074957
 30
0.0
 11
173.3705947419038
 21
160.64106960644199
 31
0.0
  0
ARC
  5
89F
  8
0
 10
170.37059474190229
 20
160.64106960644239
 30
0.0
 40
3.0000000000015561
 50
314.99999999999199
 51
359.9999999999925
  0
LINE
  5
8A0
  8
0
 10
172.49191508546269
 20
158.51974926288139
 30
0.0
 11
169.9350608359758
 21
155.96289501339481
 31
0.0
  0
ARC
  5
8A1
  8
0
 10
167.81374049241609
 20
158.0842153569543
 30
0.0
 40
3.0000000000000639
 50
270.00000000000227
 51
315.0000000000029
  0
LINE
  5
8A2
  8
0
 10
167.8137404924162
 20
155.0842153569543
 30
0.0
 11
166.12059474190301
 21
155.0842153569543
 31
0.0
  0
ARC
  5
8A3
  8
0
 10
166.12059474190301
 20
156.0842153569543
 30
0.0
 40
1.0
 50
180.0
 51
270.0
  0
LINE
  5
8A4
  8
0
 10
165.12059474190301
 20
156.0842153569543
 30
0.0
 11
165.12059474190301
 21
157.3342153569543
 31
0.0
  0
ARC
  5
8A5
  8
0
 10
165.42059474190299
 20
157.3342153569543
 30
0.0
 40
0.2999999999999829
 50
90.000000000005429
 51
180.0000000000054
  0
LINE
  5
8A6
  8
0
 10
165.42059474190299
 20
157.63421535695429
 30
0.0
 11
166.32059474190311
 21
157.63421535695429
 31
0.0
  0
ARC
  5
8A7
  8
0
 10
166.32059474190311
 20
157.93421535695421
 30
0.0
 40
0.2999999999999527
 50
270.0
 51
0.0000000000003308
  0
LINE
  5
8A8
  8
0
 10
166.62059474190301
 20
157.93421535695421
 30
0.0
 11
166.62059474190301
 21
159.3342153569543
 31
0.0
  0
ARC
  5
8A9
  8
0
 10
166.62059474190951
 20
151.2342153569551
 30
0.0
 40
1.5000000000000151
 50
180.0000000000006
 51
269.99999999999937
  0
LINE
  5
8AA
  8
0
 10
165.12059474190951
 20
151.2342153569551
 30
0.0
 11
165.12059474190951
 21
153.284215356955
 31
0.0
  0
ARC
  5
8AB
  8
0
 10
165.42059474190961
 20
153.2842153569552
 30
0.0
 40
0.3000000000000682
 50
90.000000000021714
 51
180.00000000002171
  0
LINE
  5
8AC
  8
0
 10
165.42059474190941
 20
153.58421535695521
 30
0.0
 11
168.67059474190489
 21
153.58421535695521
 31
0.0
  0
ARC
  5
8AD
  8
0
 10
168.67059474190489
 20
153.28421535695529
 30
0.0
 40
0.2999999999999465
 50
0.0000000001287489
 51
90.000000000001378
  0
LINE
  5
8AE
  8
0
 10
168.9705947419049
 20
153.284215356956
 30
0.0
 11
168.97059474191209
 21
150.03421535695571
 31
0.0
  0
ARC
  5
8AF
  8
0
 10
168.67059474191211
 20
150.03421535695509
 30
0.0
 40
0.3000000000000114
 50
269.99999999998909
 51
0.0000000001195125
  0
LINE
  5
8B0
  8
0
 10
168.67059474191211
 20
149.7342153569551
 30
0.0
 11
166.62059474190951
 21
149.7342153569551
 31
0.0
  0
ARC
  5
8B1
  8
0
 10
190.62059474190951
 20
205.2342153570097
 30
0.0
 40
1.500000000000014
 50
0.0000000000005343
 51
89.999999999999403
  0
LINE
  5
8B2
  8
0
 10
192.12059474190951
 20
205.2342153570097
 30
0.0
 11
192.12059474190951
 21
203.18421535700969
 31
0.0
  0
ARC
  5
8B3
  8
0
 10
191.8205947419095
 20
203.18421535700969
 30
0.0
 40
0.299999999999955
 50
270.00000000000011
 51
0.0
  0
LINE
  5
8B4
  8
0
 10
191.8205947419095
 20
202.88421535700979
 30
0.0
 11
188.57059474191411
 21
202.88421535700979
 31
0.0
  0
ARC
  5
8B5
  8
0
 10
188.57059474191411
 20
203.18421535700969
 30
0.0
 40
0.2999999999999545
 50
180.0000000001302
 51
270.00000000000068
  0
LINE
  5
8B6
  8
0
 10
188.2705947419141
 20
203.18421535700909
 30
0.0
 11
188.2705947419069
 21
206.43421535700901
 31
0.0
  0
ARC
  5
8B7
  8
0
 10
188.57059474190689
 20
206.4342153570098
 30
0.0
 40
0.3000000000000726
 50
90.000000000022538
 51
180.000000000152
  0
LINE
  5
8B8
  8
0
 10
188.5705947419068
 20
206.7342153570099
 30
0.0
 11
190.62059474190951
 21
206.7342153570097
 31
0.0
  0
ARC
  5
8B9
  8
0
 10
166.6205947418822
 20
205.23421535698239
 30
0.0
 40
1.500000000000014
 50
90.000000000000554
 51
179.9999999999994
  0
LINE
  5
8BA
  8
0
 10
166.6205947418822
 20
206.73421535698239
 30
0.0
 11
168.67059474188221
 21
206.73421535698259
 31
0.0
  0
ARC
  5
8BB
  8
0
 10
168.6705947418821
 20
206.43421535698249
 30
0.0
 40
0.300000000000125
 50
359.99999999998909
 51
89.999999999990465
  0
LINE
  5
8BC
  8
0
 10
168.97059474188219
 20
206.43421535698241
 30
0.0
 11
168.97059474188219
 21
203.18421535698701
 31
0.0
  0
ARC
  5
8BD
  8
0
 10
168.67059474188221
 20
203.18421535698701
 30
0.0
 40
0.3000000000000043
 50
270.00000000011812
 51
359.99999999998909
  0
LINE
  5
8BE
  8
0
 10
168.67059474188281
 20
202.884215356987
 30
0.0
 11
165.42059474188281
 21
202.88421535697969
 31
0.0
  0
ARC
  5
8BF
  8
0
 10
165.4205947418821
 20
203.18421535697971
 30
0.0
 40
0.2999999999999545
 50
180.0
 51
270.00000000012892
  0
LINE
  5
8C0
  8
0
 10
165.1205947418822
 20
203.18421535697971
 30
0.0
 11
165.1205947418822
 21
205.23421535698239
 31
0.0
  0
LINE
  5
8C1
  8
0
 10
193.6205947419094
 20
63.041833261166488
 30
0.0
 11
163.62059474190951
 21
63.041833261166488
 31
0.0
  0
LINE
  5
8C2
  8
0
 10
193.6205947419094
 20
113.0418332611665
 30
0.0
 11
163.62059474190951
 21
113.0418332611665
 31
0.0
  0
LINE
  5
8C3
  8
0
 10
181.72059474193659
 20
113.0418332611665
 30
0.0
 11
181.72059474193659
 21
63.041833261166488
 31
0.0
  0
LINE
  5
8C4
  8
0
 10
175.52059474188229
 20
113.0418332611665
 30
0.0
 11
175.52059474188229
 21
63.041833261166488
 31
0.0
  0
LINE
  5
8C5
  8
0
 10
163.62059474190951
 20
113.0418332611665
 30
0.0
 11
163.62059474190951
 21
63.041833261166488
 31
0.0
  0
LINE
  5
8C6
  8
1
 10
178.62059474190951
 20
118.0418332611665
 30
0.0
 11
178.62059474190951
 21
58.041833261166488
 31
0.0
  0
LINE
  5
8C7
  8
0
 10
193.62059474190951
 20
113.0418332611665
 30
0.0
 11
193.6205947419094
 21
63.041833261166488
 31
0.0
  0
LINE
  5
8CA
  8
1
 10
178.62059474190951
 20
143.23421535698239
 30
0.0
 11
178.62059474190929
 21
213.2342153569823
 31
0.0
  0
LINE
  5
8CB
  8
1
 10
198.62059474190951
 20
163.23421535698239
 30
0.0
 11
158.62059474190951
 21
163.23421535698239
 31
0.0
  0
LINE
  5
8CC
  8
1
 10
198.62059474190951
 20
178.23421535698239
 30
0.0
 11
158.62059474190951
 21
178.23421535698239
 31
0.0
  0
LINE
  5
8CD
  8
1
 10
198.62059474190951
 20
193.23421535698239
 30
0.0
 11
158.62059474190951
 21
193.23421535698239
 31
0.0
  0
TEXT
  5
9C8
  8
0
 62
     3
 10
0.0
 20
0.0
 30
0.0
 40
10.0
  1
L6-SPL6030N4-3M
  7
STANDARD1
  0
ENDSEC
  0
EOF
