  0
SECTION
  2
HEADER
  9
$ACADVER
  1
AC1009
  9
$INSBASE
 10
0.0
 20
0.0
 30
0.0
  9
$EXTMIN
 10
0.0
 20
-2.960436562073669
 30
0.0
  9
$EXTMAX
 10
298.36068076846152
 20
212.13217446162651
 30
0.0
  9
$LIMMIN
 10
0.0
 20
0.0
  9
$LIMMAX
 10
375.0
 20
278.0
  9
$ORTHOMODE
 70
     1
  9
$REGENMODE
 70
     1
  9
$FILLMODE
 70
     1
  9
$QTEXTMODE
 70
     0
  9
$MIRRTEXT
 70
     0
  9
$DRAGMODE
 70
     2
  9
$LTSCALE
 40
10.0
  9
$OSMODE
 70
  3071
  9
$ATTMODE
 70
     1
  9
$TEXTSIZE
 40
0.2
  9
$TRACEWID
 40
0.05
  9
$TEXTSTYLE
  7
STANDARD
  9
$CLAYER
  8
0
  9
$CELTYPE
  6
BYLAYER
  9
$CECOLOR
 62
   256
  9
$DIMSCALE
 40
1.0
  9
$DIMASZ
 40
3.0
  9
$DIMEXO
 40
1.0
  9
$DIMDLI
 40
6.0
  9
$DIMRND
 40
0.0
  9
$DIMDLE
 40
0.0
  9
$DIMEXE
 40
1.0
  9
$DIMTP
 40
495.0
  9
$DIMTM
 40
0.0
  9
$DIMTXT
 40
3.0
  9
$DIMCEN
 40
0.0
  9
$DIMTSZ
 40
0.0
  9
$DIMTOL
 70
     0
  9
$DIMLIM
 70
     0
  9
$DIMTIH
 70
     0
  9
$DIMTOH
 70
     0
  9
$DIMSE1
 70
     0
  9
$DIMSE2
 70
     0
  9
$DIMTAD
 70
     1
  9
$DIMZIN
 70
     0
  9
$DIMBLK
  1

  9
$DIMASO
 70
     0
  9
$DIMSHO
 70
     0
  9
$DIMPOST
  1

  9
$DIMAPOST
  1

  9
$DIMALT
 70
     0
  9
$DIMALTD
 70
     2
  9
$DIMALTF
 40
25.399999999999999
  9
$DIMLFAC
 40
1.0
  9
$DIMTOFL
 70
     1
  9
$DIMTVP
 40
0.0
  9
$DIMTIX
 70
     1
  9
$DIMSOXD
 70
     0
  9
$DIMSAH
 70
     0
  9
$DIMBLK1
  1

  9
$DIMBLK2
  1

  9
$DIMSTYLE
  2
STANDARD
  9
$DIMCLRD
 70
     0
  9
$DIMCLRE
 70
     0
  9
$DIMCLRT
 70
     4
  9
$DIMTFAC
 40
1.0
  9
$DIMGAP
 40
1.0
  9
$LUNITS
 70
     2
  9
$LUPREC
 70
     4
  9
$SKETCHINC
 40
0.1
  9
$FILLETRAD
 40
0.0
  9
$AUNITS
 70
     0
  9
$AUPREC
 70
     0
  9
$MENU
  1
C:\R13\WIN\SUPPORT\ACAD-I
  9
$ELEVATION
 40
0.0
  9
$PELEVATION
 40
0.0
  9
$THICKNESS
 40
0.0
  9
$LIMCHECK
 70
     0
  9
$BLIPMODE
 70
     0
  9
$CHAMFERA
 40
0.0
  9
$CHAMFERB
 40
0.0
  9
$SKPOLY
 70
     0
  9
$TDCREATE
 40
2450834.4199027782
  9
$TDUPDATE
 40
2456597.562654248
  9
$TDINDWG
 40
0.0372482176
  9
$TDUSRTIMER
 40
0.0372482176
  9
$USRTIMER
 70
     1
  9
$ANGBASE
 50
0.0
  9
$ANGDIR
 70
     0
  9
$PDMODE
 70
     0
  9
$PDSIZE
 40
0.0
  9
$PLINEWID
 40
0.0
  9
$COORDS
 70
     1
  9
$SPLFRAME
 70
     0
  9
$SPLINETYPE
 70
     6
  9
$SPLINESEGS
 70
     8
  9
$ATTDIA
 70
     0
  9
$ATTREQ
 70
     1
  9
$HANDLING
 70
     1
  9
$HANDSEED
  5
832
  9
$SURFTAB1
 70
     6
  9
$SURFTAB2
 70
     6
  9
$SURFTYPE
 70
     6
  9
$SURFU
 70
     6
  9
$SURFV
 70
     6
  9
$UCSNAME
  2

  9
$UCSORG
 10
0.0
 20
0.0
 30
0.0
  9
$UCSXDIR
 10
1.0
 20
0.0
 30
0.0
  9
$UCSYDIR
 10
0.0
 20
1.0
 30
0.0
  9
$PUCSNAME
  2

  9
$PUCSORG
 10
0.0
 20
0.0
 30
0.0
  9
$PUCSXDIR
 10
1.0
 20
0.0
 30
0.0
  9
$PUCSYDIR
 10
0.0
 20
1.0
 30
0.0
  9
$USERI1
 70
     4
  9
$USERI2
 70
     1
  9
$USERI3
 70
     0
  9
$USERI4
 70
     0
  9
$USERI5
 70
     0
  9
$USERR1
 40
1.0
  9
$USERR2
 40
3.0
  9
$USERR3
 40
3.0
  9
$USERR4
 40
3.0
  9
$USERR5
 40
10.0
  9
$WORLDVIEW
 70
     1
  9
$SHADEDGE
 70
     3
  9
$SHADEDIF
 70
    70
  9
$TILEMODE
 70
     1
  9
$MAXACTVP
 70
    16
  9
$PLIMCHECK
 70
     0
  9
$PEXTMIN
 10
1.0000000000000000E+020
 20
1.0000000000000000E+020
 30
1.0000000000000000E+020
  9
$PEXTMAX
 10
-1.0000000000000000E+020
 20
-1.0000000000000000E+020
 30
-1.0000000000000000E+020
  9
$PLIMMIN
 10
0.0
 20
0.0
  9
$PLIMMAX
 10
12.0
 20
9.0
  9
$UNITMODE
 70
     0
  9
$VISRETAIN
 70
     0
  9
$PLINEGEN
 70
     0
  9
$PSLTSCALE
 70
     0
  0
ENDSEC
  0
SECTION
  2
TABLES
  0
TABLE
  2
VPORT
 70
     1
  0
VPORT
  2
*ACTIVE
 70
     0
 10
0.0
 20
0.0
 11
1.0
 21
1.0
 12
187.4942783906524
 22
167.7204668657281
 13
0.0
 23
0.0
 14
10.0
 24
10.0
 15
10.0
 25
10.0
 16
0.0
 26
0.0
 36
1.0
 17
0.0
 27
0.0
 37
0.0
 40
344.62625130655709
 41
1.9089595375722539
 42
50.0
 43
0.0
 44
0.0
 50
0.0
 51
0.0
 71
     0
 72
   100
 73
     1
 74
     0
 75
     0
 76
     0
 77
     0
 78
     0
  0
ENDTAB
  0
TABLE
  2
LTYPE
 70
     3
  0
LTYPE
  2
CONTINUOUS
 70
     0
  3
Solid Line
 72
    65
 73
     0
 40
0.0
  0
LTYPE
  2
CENTER
 70
     0
  3
____ _ ____ _ ____ _ ____ _ ____ _ ____ _ ____
 72
    65
 73
     4
 40
2.0
 49
1.25
 49
-0.25
 49
0.25
 49
-0.25
  0
LTYPE
  2
PHANTOM2
 70
     0
  3
___ _ _ ___ _ _ ___ _ _ ___ _ _
 72
    65
 73
     6
 40
1.25
 49
0.625
 49
-0.125
 49
0.125
 49
-0.125
 49
0.125
 49
-0.125
  0
ENDTAB
  0
TABLE
  2
LAYER
 70
     2
  0
LAYER
  2
0
 70
     0
 62
     7
  6
CONTINUOUS
  0
LAYER
  2
1
 70
     0
 62
     1
  6
CENTER
  0
ENDTAB
  0
TABLE
  2
STYLE
 70
     2
  0
STYLE
  2
STANDARD
 70
     0
 40
0.0
 41
1.0
 50
0.0
 71
     0
 42
0.2
  3
SIMPLEX
  4
BIGFONT
  0
STYLE
  2
STANDARD1
 70
     0
 40
0.0
 41
1.0
 50
0.0
 71
     0
 42
3.0
  3
txt
  4

  0
ENDTAB
  0
TABLE
  2
VIEW
 70
     0
  0
ENDTAB
  0
TABLE
  2
UCS
 70
     0
  0
ENDTAB
  0
TABLE
  2
APPID
 70
    26
  0
APPID
  2
ACAD
 70
     0
  0
APPID
  2
GENIUS_GENOBJ_13
 70
     0
  0
APPID
  2
GENIUS_GENODEF_13
 70
     0
  0
APPID
  2
GENIUS_GENOENT_13
 70
     0
  0
APPID
  2
GENIUS_GENOLIS_13
 70
     0
  0
APPID
  2
GENIUS_GENOREF_13
 70
     0
  0
APPID
  2
GENIUS_GENOBJ-N-TIT_13
 70
     0
  0
APPID
  2
GENIUS_GENTITLE_13
 70
     0
  0
APPID
  2
GENIUS_GENZVEED_13
 70
     0
  0
APPID
  2
GENIUS_GENOBJ-N-FIL_13
 70
     0
  0
APPID
  2
GENIUS_GENOBJ-N-CRS_13
 70
     0
  0
APPID
  2
GENIUS_GEFINERT_13
 70
     0
  0
APPID
  2
GENIUS_GENOBJ-F-INER_13
 70
     0
  0
APPID
  2
GENIUS_GENOBJ-N-ZOO_13
 70
     0
  0
APPID
  2
GENIUS_GENZOO_13
 70
     0
  0
APPID
  2
GENIUS_GENOBJ-F-TOL_13
 70
     0
  0
APPID
  2
GENIUS_GENOBJ-N-RSSYM_13
 70
     0
  0
APPID
  2
GENIUS_GENSYMENT_13
 70
     0
  0
APPID
  2
GENIUS_GENBH_13
 70
     0
  0
APPID
  2
GENIUS_GENOBJ-NBEHI-BHF_13
 70
     0
  0
APPID
  2
GENIUS_GENOBJ-NBEHI-BHB_13
 70
     0
  0
APPID
  2
GENIUS_GENOBJ-F-PART_13
 70
     0
  0
APPID
  2
GENIUS_GEFSTDP_13
 70
     0
  0
APPID
  2
GENIUS_GENOBJ-N-LEADER_13
 70
     0
  0
APPID
  2
ACAD_MLEADERVER
 70
     0
  0
APPID
  2
ACAD_NAV_VCDISPLAY
 70
     0
  0
ENDTAB
  0
TABLE
  2
DIMSTYLE
 70
     1
  0
DIMSTYLE
  2
STANDARD
 70
     0
  3

  4

  5

  6

  7

 40
1.0
 41
0.18
 42
0.0625
 43
0.38
 44
0.18
 45
0.0
 46
0.0
 47
0.0
 48
0.0
140
0.18
141
0.09
142
0.0
143
25.399999999999999
144
1.0
145
0.0
146
1.0
147
0.09
 71
     0
 72
     0
 73
     1
 74
     1
 75
     0
 76
     0
 77
     0
 78
     0
170
     0
171
     2
172
     0
173
     0
174
     0
175
     0
176
     0
177
     0
178
     0
  0
ENDTAB
  0
ENDSEC
  0
SECTION
  2
BLOCKS
  0
BLOCK
  8
0
  2
$MODEL_SPACE
 70
     0
 10
0.0
 20
0.0
 30
0.0
  3
$MODEL_SPACE
  1

  0
ENDBLK
  5
6F3
  8
0
  0
BLOCK
 67
     1
  8
0
  2
$PAPER_SPACE
 70
     0
 10
0.0
 20
0.0
 30
0.0
  3
$PAPER_SPACE
  1

  0
ENDBLK
  5
6F1
 67
     1
  8
0
  0
BLOCK
  8
0
  2
STDGX5
 70
     0
 10
0.0
 20
0.0
 30
0.0
  3
STDGX5
  1

  0
ENDBLK
  5
4F
  8
0
  0
ENDSEC
  0
SECTION
  2
ENTITIES
  0
INSERT
  5
DE
  8
0
  2
STDGX5
 10
0.0
 20
0.0
 30
0.0
  0
INSERT
  5
DF
  8
0
  2
STDGX5
 10
0.0
 20
0.0
 30
0.0
  0
INSERT
  5
15C
  8
0
  2
STDGX5
 10
275.0
 20
0.0
 30
0.0
  0
INSERT
  5
15D
  8
0
  2
STDGX5
 10
275.0
 20
0.0
 30
0.0
  0
LINE
  5
27F
  8
0
 10
193.6205947419094
 20
64.143874156522628
 30
0.0
 11
163.62059474190951
 21
64.143874156522628
 31
0.0
  0
LINE
  5
280
  8
0
 10
193.6205947419094
 20
114.1438741565226
 30
0.0
 11
163.62059474190951
 21
114.1438741565226
 31
0.0
  0
LINE
  5
290
  8
0
 10
193.62059474190951
 20
114.1438741565226
 30
0.0
 11
193.6205947419094
 21
64.143874156522628
 31
0.0
  0
LINE
  5
296
  8
0
 10
163.62059474190951
 20
114.1438741565226
 30
0.0
 11
163.62059474190951
 21
64.143874156522628
 31
0.0
  0
INSERT
  5
314
  8
0
  2
STDGX5
 10
0.0
 20
0.0
 30
0.0
  0
INSERT
  5
315
  8
0
  2
STDGX5
 10
0.0
 20
0.0
 30
0.0
  0
INSERT
  5
316
  8
0
  2
STDGX5
 10
275.0
 20
0.0
 30
0.0
  0
INSERT
  5
317
  8
0
  2
STDGX5
 10
275.0
 20
0.0
 30
0.0
  0
LINE
  5
32B
  8
1
 10
178.62059474190951
 20
119.1438741565226
 30
0.0
 11
178.62059474190951
 21
59.143874156522628
 31
0.0
  0
LINE
  5
59E
  8
1
 10
238.36068076846149
 20
177.13217446162639
 30
0.0
 11
298.36068076846152
 21
177.13217446162631
 31
0.0
  0
LINE
  5
59F
  8
1
 10
238.36068076846149
 20
192.13217446162631
 30
0.0
 11
298.36068076846152
 21
192.13217446162631
 31
0.0
  0
LINE
  5
5A0
  8
0
 10
243.36068076846161
 20
207.13217446162631
 30
0.0
 11
293.36068076846158
 21
207.13217446162631
 31
0.0
  0
LINE
  5
5A1
  8
1
 10
238.36068076846149
 20
162.13217446162651
 30
0.0
 11
298.36068076846152
 21
162.13217446162651
 31
0.0
  0
LINE
  5
5A2
  8
0
 10
243.36068076846149
 20
147.13217446162651
 30
0.0
 11
293.36068076846152
 21
147.13217446162651
 31
0.0
  0
LINE
  5
5A3
  8
0
 10
243.36068076846149
 20
147.13217446162651
 30
0.0
 11
243.36068076846161
 21
207.13217446162631
 31
0.0
  0
LINE
  5
5A4
  8
0
 10
293.36068076846152
 20
147.13217446162651
 30
0.0
 11
293.36068076846158
 21
207.13217446162631
 31
0.0
  0
LINE
  5
5A5
  8
0
 10
243.36068076846161
 20
195.2321744616265
 30
0.0
 11
293.36068076846152
 21
195.23217446162641
 31
0.0
  0
LINE
  5
5A6
  8
0
 10
243.36068076846149
 20
189.0321744616256
 30
0.0
 11
293.36068076846152
 21
189.03217446162549
 31
0.0
  0
LINE
  5
5A7
  8
0
 10
243.36068076846149
 20
165.23217446162721
 30
0.0
 11
293.36068076846152
 21
165.2321744616273
 31
0.0
  0
LINE
  5
5A8
  8
0
 10
243.36068076846161
 20
159.0321744616262
 30
0.0
 11
293.36068076846152
 21
159.0321744616264
 31
0.0
  0
CIRCLE
  5
5AF
  8
0
 10
178.6205947419094
 20
192.13217446162651
 30
0.0
 40
2.5
  0
CIRCLE
  5
5B6
  8
0
 10
178.6205947419094
 20
162.13217446162651
 30
0.0
 40
2.5
  0
ARC
  5
5BD
  8
0
 10
191.4205947419151
 20
166.03217446159931
 30
0.0
 40
0.8000000000000078
 50
180.00000000000071
 51
270.00000000000023
  0
LINE
  5
5BE
  8
0
 10
191.4205947419151
 20
165.2321744615993
 30
0.0
 11
192.62059474190951
 21
165.2321744615993
 31
0.0
  0
ARC
  5
5BF
  8
0
 10
192.6205947419094
 20
166.2321744615993
 30
0.0
 40
1.0
 50
270.0000000000025
 51
0.0
  0
LINE
  5
5C0
  8
0
 10
193.6205947419094
 20
166.2321744615993
 30
0.0
 11
193.6205947419094
 21
188.0321744615984
 31
0.0
  0
ARC
  5
5C1
  8
0
 10
192.6205947419094
 20
188.0321744615984
 30
0.0
 40
1.0
 50
359.9999999999996
 51
90.00000000000081
  0
LINE
  5
5C2
  8
0
 10
192.6205947419094
 20
189.0321744615984
 30
0.0
 11
191.42059474191589
 21
189.0321744615984
 31
0.0
  0
ARC
  5
5C3
  8
0
 10
191.42059474191589
 20
188.23217446159839
 30
0.0
 40
0.799999999999983
 50
90.0
 51
179.99999999999901
  0
LINE
  5
5C4
  8
0
 10
190.62059474191591
 20
188.23217446159839
 30
0.0
 11
190.62059474191591
 21
186.8321744615983
 31
0.0
  0
ARC
  5
5C5
  8
0
 10
190.92059474191589
 20
186.8321744615983
 30
0.0
 40
0.2999999999999545
 50
180.0
 51
270.0
  0
LINE
  5
5C6
  8
0
 10
190.92059474191589
 20
186.5321744615984
 30
0.0
 11
191.82059474191601
 21
186.5321744615984
 31
0.0
  0
ARC
  5
5C7
  8
0
 10
191.8205947419159
 20
186.23217446159839
 30
0.0
 40
0.2999999999999829
 50
359.99999999999449
 51
89.999999999994586
  0
LINE
  5
5C8
  8
0
 10
192.12059474191591
 20
186.23217446159839
 30
0.0
 11
192.12059474191591
 21
184.98217446159839
 31
0.0
  0
ARC
  5
5C9
  8
0
 10
191.12059474191591
 20
184.98217446159839
 30
0.0
 40
1.0
 50
270.0
 51
0.0
  0
LINE
  5
5CA
  8
0
 10
191.12059474191591
 20
183.98217446159839
 30
0.0
 11
189.42744899140271
 21
183.98217446159839
 31
0.0
  0
ARC
  5
5CB
  8
0
 10
189.42744899140291
 20
186.9821744615985
 30
0.0
 40
3.0000000000000782
 50
224.99999999999679
 51
269.99999999999733
  0
LINE
  5
5CC
  8
0
 10
187.30612864784311
 20
184.8608541180389
 30
0.0
 11
184.74927439835619
 21
187.41770836752551
 31
0.0
  0
ARC
  5
5CD
  8
0
 10
186.8705947419167
 20
189.53902871108659
 30
0.0
 40
3.0000000000015512
 50
180.00000000000759
 51
225.0000000000081
  0
LINE
  5
5CE
  8
0
 10
183.87059474191511
 20
189.53902871108619
 30
0.0
 11
183.87059474191511
 21
194.72532021213979
 31
0.0
  0
ARC
  5
5CF
  8
0
 10
186.87059474191531
 20
194.72532021213979
 30
0.0
 40
3.000000000000131
 50
135.00000000000151
 51
180.00000000000111
  0
LINE
  5
5D0
  8
0
 10
184.74927439835551
 20
196.84664055569951
 30
0.0
 11
187.3061286478424
 21
199.40349480518631
 31
0.0
  0
ARC
  5
5D1
  8
0
 10
189.42744899140209
 20
197.28217446162679
 30
0.0
 40
2.9999999999999991
 50
90.000000000003794
 51
135.00000000000281
  0
LINE
  5
5D2
  8
0
 10
189.42744899140189
 20
200.28217446162679
 30
0.0
 11
191.120594741915
 21
200.28217446162679
 31
0.0
  0
ARC
  5
5D3
  8
0
 10
191.120594741915
 20
199.28217446162679
 30
0.0
 40
1.0
 50
359.9999999999996
 51
90.0
  0
LINE
  5
5D4
  8
0
 10
192.120594741915
 20
199.28217446162679
 30
0.0
 11
192.120594741915
 21
198.03217446159931
 31
0.0
  0
ARC
  5
5D5
  8
0
 10
191.8205947419151
 20
198.03217446159931
 30
0.0
 40
0.2999999999999545
 50
270.0
 51
0.0
  0
LINE
  5
5D6
  8
0
 10
191.8205947419151
 20
197.7321744615993
 30
0.0
 11
190.92059474191521
 21
197.7321744615993
 31
0.0
  0
ARC
  5
5D7
  8
0
 10
190.92059474191521
 20
197.4321744615992
 30
0.0
 40
0.300000000000125
 50
90.000000000010857
 51
180.0000000000108
  0
LINE
  5
5D8
  8
0
 10
190.62059474191511
 20
197.43217446159909
 30
0.0
 11
190.62059474191511
 21
196.03217446159931
 31
0.0
  0
ARC
  5
5D9
  8
0
 10
191.4205947419151
 20
196.03217446159931
 30
0.0
 40
0.8000000000000078
 50
180.00000000000099
 51
270.00000000000023
  0
LINE
  5
5DA
  8
0
 10
191.4205947419151
 20
195.2321744615993
 30
0.0
 11
192.62059474190951
 21
195.2321744615993
 31
0.0
  0
ARC
  5
5DB
  8
0
 10
192.62059474190951
 20
196.2321744615993
 30
0.0
 40
0.9999999999999928
 50
270.0000000000025
 51
0.0000000000004071
  0
LINE
  5
5DC
  8
0
 10
193.62059474190951
 20
196.2321744615993
 30
0.0
 11
193.6205947419094
 21
204.13217446162651
 31
0.0
  0
ARC
  5
5DD
  8
0
 10
190.6205947419094
 20
204.13217446162651
 30
0.0
 40
3.0
 50
0.0
 51
90.0
  0
LINE
  5
5DE
  8
0
 10
190.6205947419094
 20
207.13217446162651
 30
0.0
 11
166.6205947419094
 21
207.13217446162659
 31
0.0
  0
ARC
  5
5DF
  8
0
 10
166.62059474190951
 20
204.13217446162651
 30
0.0
 40
3.0000000000000422
 50
90.000000000000554
 51
180.0000000000008
  0
LINE
  5
5E0
  8
0
 10
163.6205947419094
 20
204.13217446162651
 30
0.0
 11
163.6205947419094
 21
196.23217446162661
 31
0.0
  0
ARC
  5
5E1
  8
0
 10
164.6205947419094
 20
196.23217446162661
 30
0.0
 40
1.0
 50
180.0
 51
270.0
  0
LINE
  5
5E2
  8
0
 10
164.6205947419094
 20
195.23217446162661
 30
0.0
 11
165.82059474187659
 21
195.23217446162661
 31
0.0
  0
ARC
  5
5E3
  8
0
 10
165.82059474187659
 20
196.0321744616266
 30
0.0
 40
0.8000000000000042
 50
269.99999999999898
 51
359.99999999999949
  0
LINE
  5
5E4
  8
0
 10
166.6205947418766
 20
196.0321744616266
 30
0.0
 11
166.6205947418766
 21
197.4321744616264
 31
0.0
  0
ARC
  5
5E5
  8
0
 10
166.3205947418765
 20
197.43217446162649
 30
0.0
 40
0.300000000000125
 50
359.99999999998909
 51
89.999999999989143
  0
LINE
  5
5E6
  8
0
 10
166.3205947418765
 20
197.73217446162661
 30
0.0
 11
165.4205947418765
 21
197.73217446162661
 31
0.0
  0
ARC
  5
5E7
  8
0
 10
165.4205947418765
 20
198.0321744616266
 30
0.0
 40
0.2999999999999545
 50
180.0
 51
270.0
  0
LINE
  5
5E8
  8
0
 10
165.1205947418766
 20
198.0321744616266
 30
0.0
 11
165.12059474187669
 21
199.28217446165391
 31
0.0
  0
ARC
  5
5E9
  8
0
 10
166.12059474187669
 20
199.28217446165391
 30
0.0
 40
1.0
 50
89.999999999999204
 51
179.99999999999881
  0
LINE
  5
5EA
  8
0
 10
166.12059474187669
 20
200.28217446165391
 30
0.0
 11
167.81374049236251
 21
200.2821744616538
 31
0.0
  0
ARC
  5
5EB
  8
0
 10
167.81374049236271
 20
197.28217446165391
 30
0.0
 40
2.9999999999999138
 50
45.000000000004
 51
90.000000000004036
  0
LINE
  5
5EC
  8
0
 10
169.93506083592209
 20
199.4034948052136
 30
0.0
 11
172.4919150854362
 21
196.84664055569951
 31
0.0
  0
ARC
  5
5ED
  8
0
 10
170.3705947418764
 20
194.72532021213979
 30
0.0
 40
3.000000000000139
 50
359.99999999999761
 51
44.999999999997968
  0
LINE
  5
5EE
  8
0
 10
173.3705947418766
 20
194.72532021213971
 30
0.0
 11
173.3705947418766
 21
189.5390287110859
 31
0.0
  0
ARC
  5
5EF
  8
0
 10
170.370594741876
 20
189.5390287110846
 30
0.0
 40
3.0000000000006248
 50
315.00000000002609
 51
0.0000000000257837
  0
LINE
  5
5F0
  8
0
 10
172.491915085437
 20
187.41770836752551
 30
0.0
 11
169.9350608359774
 21
184.86085411806599
 31
0.0
  0
ARC
  5
5F1
  8
0
 10
167.81374049241759
 20
186.9821744616255
 30
0.0
 40
2.9999999999999849
 50
270.00000000000438
 51
315.00000000000381
  0
LINE
  5
5F2
  8
0
 10
167.81374049241779
 20
183.9821744616255
 30
0.0
 11
166.1205947418774
 21
183.9821744616255
 31
0.0
  0
ARC
  5
5F3
  8
0
 10
166.12059474187731
 20
184.9821744616255
 30
0.0
 40
0.9999999999999715
 50
179.9999999999996
 51
270.0000000000025
  0
LINE
  5
5F4
  8
0
 10
165.1205947418774
 20
184.9821744616255
 30
0.0
 11
165.1205947418774
 21
186.2321744616257
 31
0.0
  0
ARC
  5
5F5
  8
0
 10
165.42059474187749
 20
186.23217446162579
 30
0.0
 40
0.3000000000000966
 50
90.000000000027143
 51
180.00000000002709
  0
LINE
  5
5F6
  8
0
 10
165.4205947418773
 20
186.53217446162591
 30
0.0
 11
166.32059474187739
 21
186.53217446162569
 31
0.0
  0
ARC
  5
5F7
  8
0
 10
166.32059474187739
 20
186.83217446162561
 30
0.0
 40
0.2999999999999545
 50
270.0
 51
0.0
  0
LINE
  5
5F8
  8
0
 10
166.6205947418774
 20
186.83217446162561
 30
0.0
 11
166.6205947418774
 21
188.2321744616257
 31
0.0
  0
ARC
  5
5F9
  8
0
 10
165.82059474187739
 20
188.2321744616257
 30
0.0
 40
0.799999999999983
 50
0.0000000000015267
 51
90.000000000001023
  0
LINE
  5
5FA
  8
0
 10
165.82059474187739
 20
189.0321744616256
 30
0.0
 11
164.6205947419094
 21
189.0321744616256
 31
0.0
  0
ARC
  5
5FB
  8
0
 10
164.6205947419094
 20
188.03217446162569
 30
0.0
 40
1.0
 50
90.0
 51
180.0
  0
LINE
  5
5FC
  8
0
 10
163.6205947419094
 20
188.03217446162569
 30
0.0
 11
163.6205947419094
 21
166.23217446162661
 31
0.0
  0
ARC
  5
5FD
  8
0
 10
164.6205947419094
 20
166.23217446162661
 30
0.0
 40
1.0
 50
180.0
 51
270.0
  0
LINE
  5
5FE
  8
0
 10
164.6205947419094
 20
165.23217446162661
 30
0.0
 11
165.82059474187659
 21
165.23217446162661
 31
0.0
  0
ARC
  5
5FF
  8
0
 10
165.82059474187659
 20
166.0321744616266
 30
0.0
 40
0.8000000000000078
 50
269.99999999999881
 51
359.9999999999992
  0
LINE
  5
600
  8
0
 10
166.6205947418766
 20
166.0321744616266
 30
0.0
 11
166.6205947418766
 21
167.4321744616264
 31
0.0
  0
ARC
  5
601
  8
0
 10
166.3205947418765
 20
167.43217446162649
 30
0.0
 40
0.300000000000125
 50
359.99999999998909
 51
89.999999999989143
  0
LINE
  5
602
  8
0
 10
166.3205947418765
 20
167.73217446162661
 30
0.0
 11
165.4205947418765
 21
167.73217446162661
 31
0.0
  0
ARC
  5
603
  8
0
 10
165.4205947418765
 20
168.0321744616266
 30
0.0
 40
0.2999999999999545
 50
180.0
 51
270.0
  0
LINE
  5
604
  8
0
 10
165.1205947418766
 20
168.0321744616266
 30
0.0
 11
165.12059474187669
 21
169.28217446165391
 31
0.0
  0
ARC
  5
605
  8
0
 10
166.12059474187669
 20
169.28217446165391
 30
0.0
 40
1.0000000000000011
 50
90.000000000000099
 51
180.0
  0
LINE
  5
606
  8
0
 10
166.12059474187669
 20
170.28217446165391
 30
0.0
 11
167.81374049236251
 21
170.2821744616538
 31
0.0
  0
ARC
  5
607
  8
0
 10
167.81374049236271
 20
167.28217446165391
 30
0.0
 40
2.9999999999999138
 50
45.000000000004
 51
90.000000000004036
  0
LINE
  5
608
  8
0
 10
169.93506083592209
 20
169.4034948052136
 30
0.0
 11
172.4919150854362
 21
166.84664055569951
 31
0.0
  0
ARC
  5
609
  8
0
 10
170.3705947418764
 20
164.72532021213979
 30
0.0
 40
3.0000000000001399
 50
359.99999999999778
 51
44.999999999998053
  0
LINE
  5
60A
  8
0
 10
173.3705947418766
 20
164.72532021213971
 30
0.0
 11
173.3705947418766
 21
159.5390287110859
 31
0.0
  0
ARC
  5
60B
  8
0
 10
170.370594741876
 20
159.5390287110846
 30
0.0
 40
3.0000000000006279
 50
315.00000000002609
 51
0.0000000000258176
  0
LINE
  5
60C
  8
0
 10
172.491915085437
 20
157.41770836752551
 30
0.0
 11
169.9350608359774
 21
154.86085411806599
 31
0.0
  0
ARC
  5
60D
  8
0
 10
167.81374049241759
 20
156.9821744616255
 30
0.0
 40
2.9999999999999778
 50
270.00000000000432
 51
315.00000000000392
  0
LINE
  5
60E
  8
0
 10
167.81374049241779
 20
153.9821744616255
 30
0.0
 11
166.1205947418774
 21
153.9821744616255
 31
0.0
  0
ARC
  5
60F
  8
0
 10
166.12059474187731
 20
154.9821744616255
 30
0.0
 40
0.9999999999999715
 50
179.9999999999996
 51
270.0000000000025
  0
LINE
  5
610
  8
0
 10
165.1205947418774
 20
154.9821744616255
 30
0.0
 11
165.1205947418774
 21
156.23217446162559
 31
0.0
  0
ARC
  5
611
  8
0
 10
165.42059474187749
 20
156.23217446162579
 30
0.0
 40
0.3000000000000966
 50
90.000000000027143
 51
180.00000000002709
  0
LINE
  5
612
  8
0
 10
165.4205947418773
 20
156.53217446162591
 30
0.0
 11
166.32059474187739
 21
156.53217446162569
 31
0.0
  0
ARC
  5
613
  8
0
 10
166.32059474187739
 20
156.83217446162561
 30
0.0
 40
0.2999999999999545
 50
270.0
 51
0.0
  0
LINE
  5
614
  8
0
 10
166.6205947418774
 20
156.83217446162561
 30
0.0
 11
166.6205947418774
 21
158.2321744616257
 31
0.0
  0
ARC
  5
615
  8
0
 10
165.82059474187739
 20
158.2321744616257
 30
0.0
 40
0.799999999999983
 50
0.0000000000015267
 51
90.000000000001023
  0
LINE
  5
616
  8
0
 10
165.82059474187739
 20
159.03217446162569
 30
0.0
 11
164.6205947419094
 21
159.03217446162569
 31
0.0
  0
ARC
  5
617
  8
0
 10
164.6205947419094
 20
158.03217446162569
 30
0.0
 40
1.0
 50
90.0
 51
180.0
  0
LINE
  5
618
  8
0
 10
163.6205947419094
 20
158.03217446162569
 30
0.0
 11
163.6205947419094
 21
150.13217446162651
 31
0.0
  0
ARC
  5
619
  8
0
 10
166.6205947419094
 20
150.13217446162651
 30
0.0
 40
3.0
 50
180.00000000000011
 51
270.0
  0
LINE
  5
61A
  8
0
 10
166.6205947419094
 20
147.13217446162651
 30
0.0
 11
190.6205947419094
 21
147.13217446162651
 31
0.0
  0
ARC
  5
61B
  8
0
 10
190.62059474190951
 20
150.13217446162651
 30
0.0
 40
3.0000000000000129
 50
269.99999999999949
 51
359.99999999999972
  0
LINE
  5
61C
  8
0
 10
193.62059474190951
 20
150.13217446162651
 30
0.0
 11
193.62059474190951
 21
158.0321744615984
 31
0.0
  0
ARC
  5
61D
  8
0
 10
192.62059474190951
 20
158.0321744615984
 30
0.0
 40
1.0000000000000031
 50
0.0000000000002036
 51
89.999999999999801
  0
LINE
  5
61E
  8
0
 10
192.62059474190951
 20
159.0321744615984
 30
0.0
 11
191.42059474191589
 21
159.0321744615984
 31
0.0
  0
ARC
  5
61F
  8
0
 10
191.42059474191589
 20
158.23217446159839
 30
0.0
 40
0.7999999999999689
 50
89.999999999998977
 51
179.99999999999901
  0
LINE
  5
620
  8
0
 10
190.62059474191591
 20
158.23217446159839
 30
0.0
 11
190.62059474191591
 21
156.8321744615983
 31
0.0
  0
ARC
  5
621
  8
0
 10
190.92059474191589
 20
156.8321744615983
 30
0.0
 40
0.2999999999999545
 50
180.0
 51
270.0
  0
LINE
  5
622
  8
0
 10
190.92059474191589
 20
156.5321744615984
 30
0.0
 11
191.82059474191601
 21
156.5321744615984
 31
0.0
  0
ARC
  5
623
  8
0
 10
191.8205947419159
 20
156.23217446159839
 30
0.0
 40
0.2999999999999829
 50
359.99999999999449
 51
89.999999999994586
  0
LINE
  5
624
  8
0
 10
192.12059474191591
 20
156.23217446159839
 30
0.0
 11
192.12059474191591
 21
154.98217446159839
 31
0.0
  0
ARC
  5
625
  8
0
 10
191.12059474191591
 20
154.98217446159839
 30
0.0
 40
1.0
 50
270.0
 51
0.0
  0
LINE
  5
626
  8
0
 10
191.12059474191591
 20
153.98217446159839
 30
0.0
 11
189.42744899140271
 21
153.98217446159839
 31
0.0
  0
ARC
  5
627
  8
0
 10
189.42744899140291
 20
156.9821744615985
 30
0.0
 40
3.0000000000000648
 50
224.99999999999719
 51
269.99999999999773
  0
LINE
  5
628
  8
0
 10
187.30612864784311
 20
154.8608541180389
 30
0.0
 11
184.74927439835619
 21
157.41770836752551
 31
0.0
  0
ARC
  5
629
  8
0
 10
186.8705947419167
 20
159.53902871108659
 30
0.0
 40
3.0000000000015481
 50
180.0000000000075
 51
225.00000000000799
  0
LINE
  5
62A
  8
0
 10
183.87059474191511
 20
159.53902871108619
 30
0.0
 11
183.87059474191511
 21
164.72532021213979
 31
0.0
  0
ARC
  5
62B
  8
0
 10
186.87059474191531
 20
164.72532021213979
 30
0.0
 40
3.000000000000127
 50
135.00000000000179
 51
180.00000000000151
  0
LINE
  5
62C
  8
0
 10
184.74927439835551
 20
166.84664055569951
 30
0.0
 11
187.3061286478424
 21
169.40349480518631
 31
0.0
  0
ARC
  5
62D
  8
0
 10
189.42744899140209
 20
167.28217446162679
 30
0.0
 40
2.9999999999999911
 50
90.000000000003894
 51
135.00000000000301
  0
LINE
  5
62E
  8
0
 10
189.42744899140189
 20
170.28217446162679
 30
0.0
 11
191.120594741915
 21
170.28217446162679
 31
0.0
  0
ARC
  5
62F
  8
0
 10
191.120594741915
 20
169.28217446162679
 30
0.0
 40
1.0
 50
0.0
 51
90.0
  0
LINE
  5
630
  8
0
 10
192.120594741915
 20
169.28217446162679
 30
0.0
 11
192.120594741915
 21
168.03217446159931
 31
0.0
  0
ARC
  5
631
  8
0
 10
191.8205947419151
 20
168.03217446159931
 30
0.0
 40
0.2999999999999545
 50
270.0
 51
0.0
  0
LINE
  5
632
  8
0
 10
191.8205947419151
 20
167.7321744615993
 30
0.0
 11
190.92059474191521
 21
167.7321744615993
 31
0.0
  0
ARC
  5
633
  8
0
 10
190.92059474191521
 20
167.4321744615992
 30
0.0
 40
0.300000000000125
 50
90.000000000010857
 51
180.0000000000108
  0
LINE
  5
634
  8
0
 10
190.62059474191511
 20
167.43217446159909
 30
0.0
 11
190.62059474191511
 21
166.03217446159931
 31
0.0
  0
LINE
  5
635
  8
0
 10
186.7705947419368
 20
151.32532021210619
 30
0.0
 11
186.7705947419368
 21
149.6321744615928
 31
0.0
  0
ARC
  5
636
  8
0
 10
185.77059474195039
 20
149.6321744616065
 30
0.0
 40
0.9999999999863433
 50
269.99999999921511
 51
359.99999999921658
  0
LINE
  5
637
  8
0
 10
185.7705947419368
 20
148.63217446162011
 30
0.0
 11
184.5205947419368
 21
148.63217446162
 31
0.0
  0
ARC
  5
638
  8
0
 10
184.5205947419368
 20
148.93217446162009
 30
0.0
 40
0.3000000000000931
 50
179.9999999999884
 51
269.9999999999871
  0
LINE
  5
639
  8
0
 10
184.22059474193671
 20
148.93217446162021
 30
0.0
 11
184.22059474193679
 21
149.83217446162021
 31
0.0
  0
ARC
  5
63A
  8
0
 10
183.92059474193681
 20
149.83217446162021
 30
0.0
 40
0.2999999999999687
 50
0.0000000000030533
 51
90.000000000005429
  0
LINE
  5
63B
  8
0
 10
183.92059474193681
 20
150.13217446162011
 30
0.0
 11
182.5205947419368
 21
150.1321744616202
 31
0.0
  0
ARC
  5
63C
  8
0
 10
182.5205947419368
 20
149.33217446162021
 30
0.0
 40
0.7999999999999737
 50
90.000000000003567
 51
180.00000000000159
  0
LINE
  5
63D
  8
0
 10
181.72059474193691
 20
149.33217446162021
 30
0.0
 11
181.72059474193679
 21
148.23255532963691
 31
0.0
  0
ARC
  5
63E
  8
0
 10
181.6205947419368
 20
148.23255532963691
 30
0.0
 40
0.1000000000000085
 50
270.00000000000807
 51
0.0000000000081422
  0
LINE
  5
63F
  8
0
 10
181.6205947419368
 20
148.13255532963689
 30
0.0
 11
175.6205947419368
 21
148.132555329637
 31
0.0
  0
ARC
  5
640
  8
0
 10
175.6205947419368
 20
148.23255532963691
 30
0.0
 40
0.1000000000000121
 50
180.00000000000611
 51
270.00000000000608
  0
LINE
  5
641
  8
0
 10
175.5205947419368
 20
148.23255532963691
 30
0.0
 11
175.52059474193689
 21
149.33217446162001
 31
0.0
  0
ARC
  5
642
  8
0
 10
174.72059474193679
 20
149.3321744616201
 30
0.0
 40
0.800000000000054
 50
359.99999999999642
 51
89.999999999995936
  0
LINE
  5
643
  8
0
 10
174.72059474193691
 20
150.13217446162011
 30
0.0
 11
173.3205947419367
 21
150.1321744616202
 31
0.0
  0
ARC
  5
644
  8
0
 10
173.3205947419369
 20
149.83217446162021
 30
0.0
 40
0.3000000000000362
 50
90.000000000021004
 51
180.000000000021
  0
LINE
  5
645
  8
0
 10
173.0205947419368
 20
149.83217446162001
 30
0.0
 11
173.0205947419368
 21
148.93217446162009
 31
0.0
  0
ARC
  5
646
  8
0
 10
172.72059474193691
 20
148.93217446162009
 30
0.0
 40
0.2999999999999758
 50
270.00000000000409
 51
0.0000000000040711
  0
LINE
  5
647
  8
0
 10
172.72059474193691
 20
148.63217446162011
 30
0.0
 11
171.47059474190931
 21
148.63217446162011
 31
0.0
  0
ARC
  5
648
  8
0
 10
171.4705947418957
 20
149.63217446160661
 30
0.0
 40
0.9999999999864996
 50
180.00000000077671
 51
270.00000000077682
  0
LINE
  5
649
  8
0
 10
170.4705947419092
 20
149.63217446159311
 30
0.0
 11
170.4705947419092
 21
151.32532021210599
 31
0.0
  0
ARC
  5
64A
  8
0
 10
173.47059474190931
 20
151.32532021210599
 30
0.0
 40
3.0000000000000351
 50
135.00000000000071
 51
180.00000000000011
  0
LINE
  5
64B
  8
0
 10
171.34927439834959
 20
153.4466405556656
 30
0.0
 11
173.90612864783651
 21
156.0034948051526
 31
0.0
  0
ARC
  5
64C
  8
0
 10
176.02744899139631
 20
153.88217446159311
 30
0.0
 40
3.0000000000000151
 50
90.000000000003254
 51
135.00000000000361
  0
LINE
  5
64D
  8
0
 10
176.02744899139611
 20
156.88217446159311
 30
0.0
 11
181.21374049244989
 21
156.88217446159311
 31
0.0
  0
ARC
  5
64E
  8
0
 10
181.21374049244989
 20
153.882174461593
 30
0.0
 40
3.0000000000000422
 50
45.00000000000005
 51
89.999999999999801
  0
LINE
  5
64F
  8
0
 10
183.33506083600949
 20
156.00349480515271
 30
0.0
 11
185.89191508549621
 21
153.44664055566579
 31
0.0
  0
ARC
  5
650
  8
0
 10
183.77059474193689
 20
151.32532021210591
 30
0.0
 40
2.9999999999999112
 50
0.0000000000051567
 51
45.000000000006381
  0
ARC
  5
651
  8
0
 10
167.62059474190849
 20
179.9821744616255
 30
0.0
 40
2.0
 50
90.0
 51
180.0
  0
LINE
  5
652
  8
0
 10
167.62059474190849
 20
181.9821744616255
 30
0.0
 11
167.8137404923871
 21
181.9821744616255
 31
0.0
  0
ARC
  5
653
  8
0
 10
167.81374049238701
 20
186.9821744616255
 30
0.0
 40
5.0000000000000071
 50
270.00000000000199
 51
315.00000000000142
  0
LINE
  5
654
  8
0
 10
171.34927439831981
 20
183.4466405556928
 30
0.0
 11
173.90612864780931
 21
186.00349480518241
 31
0.0
  0
ARC
  5
655
  8
0
 10
176.0274489913688
 20
183.8821744616227
 30
0.0
 40
2.9999999999999281
 50
89.999999999996604
 51
134.99999999999699
  0
LINE
  5
656
  8
0
 10
176.027448991369
 20
186.88217446162261
 30
0.0
 11
181.21374049242269
 21
186.88217446162261
 31
0.0
  0
ARC
  5
657
  8
0
 10
181.2137404924226
 20
183.8821744616225
 30
0.0
 40
3.0000000000000848
 50
44.999999999998082
 51
89.999999999997826
  0
LINE
  5
658
  8
0
 10
183.3350608359824
 20
186.00349480518221
 30
0.0
 11
185.89191508549891
 21
183.44664055566579
 31
0.0
  0
ARC
  5
659
  8
0
 10
189.4274489914317
 20
186.98217446159839
 30
0.0
 40
4.9999999999999689
 50
224.99999999999849
 51
270.00000000000068
  0
LINE
  5
65A
  8
0
 10
189.4274489914317
 20
181.98217446159839
 30
0.0
 11
189.6205947419086
 21
181.98217446159839
 31
0.0
  0
ARC
  5
65B
  8
0
 10
189.6205947419086
 20
179.98217446159839
 30
0.0
 40
1.9999999999999849
 50
359.9999999999996
 51
90.000000000000398
  0
LINE
  5
65C
  8
0
 10
191.6205947419086
 20
179.98217446159839
 30
0.0
 11
191.6205947419086
 21
174.28217446162679
 31
0.0
  0
ARC
  5
65D
  8
0
 10
189.6205947419086
 20
174.28217446162679
 30
0.0
 40
1.9999999999999849
 50
269.9999999999996
 51
0.0000000000004071
  0
LINE
  5
65E
  8
0
 10
189.6205947419086
 20
172.28217446162679
 30
0.0
 11
189.42744899137321
 21
172.28217446162679
 31
0.0
  0
ARC
  5
65F
  8
0
 10
189.42744899137321
 20
167.28217446162679
 30
0.0
 40
5.000000000000024
 50
90.000000000000938
 51
135.00000000000119
  0
LINE
  5
660
  8
0
 10
185.89191508544039
 20
170.81770836755939
 30
0.0
 11
183.3350608359824
 21
168.26085411810149
 31
0.0
  0
ARC
  5
661
  8
0
 10
181.21374049242269
 20
170.3821744616609
 30
0.0
 40
2.999999999999909
 50
270.00000000000301
 51
315.00000000000341
  0
LINE
  5
662
  8
0
 10
181.2137404924228
 20
167.38217446166101
 30
0.0
 11
176.027448991369
 21
167.38217446166101
 31
0.0
  0
ARC
  5
663
  8
0
 10
176.02744899136911
 20
170.38217446166109
 30
0.0
 40
3.0000000000000879
 50
224.9999999999981
 51
269.99999999999778
  0
LINE
  5
664
  8
0
 10
173.90612864780931
 20
168.26085411810149
 30
0.0
 11
171.3492743983241
 21
170.8177083675867
 31
0.0
  0
ARC
  5
665
  8
0
 10
167.8137404923915
 20
167.28217446165391
 30
0.0
 40
4.9999999999999432
 50
45.000000000002032
 51
90.000000000002217
  0
LINE
  5
666
  8
0
 10
167.8137404923913
 20
172.2821744616538
 30
0.0
 11
167.6205947419086
 21
172.2821744616538
 31
0.0
  0
ARC
  5
667
  8
0
 10
167.62059474190849
 20
174.28217446165391
 30
0.0
 40
2.0000000000000311
 50
180.00000000000091
 51
270.00000000000227
  0
LINE
  5
668
  8
0
 10
165.62059474190849
 20
174.28217446165391
 30
0.0
 11
165.62059474190849
 21
179.9821744616255
 31
0.0
  0
LINE
  5
669
  8
0
 10
165.12059474188209
 20
152.18217446162919
 30
0.0
 11
165.12059474188209
 21
150.13217446162651
 31
0.0
  0
ARC
  5
66A
  8
0
 10
166.6205947418822
 20
150.13217446162651
 30
0.0
 40
1.5000000000000151
 50
180.0000000000006
 51
269.99999999999937
  0
LINE
  5
66B
  8
0
 10
166.6205947418822
 20
148.63217446162651
 30
0.0
 11
168.6705947418821
 21
148.6321744616267
 31
0.0
  0
ARC
  5
66C
  8
0
 10
168.6705947418821
 20
148.93217446162669
 30
0.0
 40
0.2999999999999545
 50
270.0
 51
0.0
  0
LINE
  5
66D
  8
0
 10
168.970594741882
 20
148.93217446162669
 30
0.0
 11
168.970594741882
 21
152.18217446162191
 31
0.0
  0
ARC
  5
66E
  8
0
 10
168.67059474188201
 20
152.182174461622
 30
0.0
 40
0.3000000000000629
 50
359.99999999997732
 51
89.999999999849024
  0
LINE
  5
66F
  8
0
 10
168.67059474188281
 20
152.48217446162209
 30
0.0
 11
165.42059474188281
 21
152.48217446162911
 31
0.0
  0
ARC
  5
670
  8
0
 10
165.4205947418821
 20
152.18217446162919
 30
0.0
 40
0.299999999999959
 50
89.99999999987061
 51
179.99999999999909
  0
ARC
  5
671
  8
0
 10
190.6205947419094
 20
150.13217446159919
 30
0.0
 40
1.5000000000000151
 50
270.00000000000063
 51
359.99999999999937
  0
LINE
  5
672
  8
0
 10
192.1205947419094
 20
150.13217446159919
 30
0.0
 11
192.1205947419094
 21
152.1821744615992
 31
0.0
  0
ARC
  5
673
  8
0
 10
191.82059474190939
 20
152.18217446159929
 30
0.0
 40
0.3000000000000682
 50
359.99999999997829
 51
89.999999999978286
  0
LINE
  5
674
  8
0
 10
191.8205947419095
 20
152.4821744615993
 30
0.0
 11
188.57059474191399
 21
152.4821744615993
 31
0.0
  0
ARC
  5
675
  8
0
 10
188.57059474191399
 20
152.1821744615994
 30
0.0
 40
0.2999999999999465
 50
89.999999999998636
 51
179.99999999987119
  0
LINE
  5
676
  8
0
 10
188.2705947419141
 20
152.18217446160011
 30
0.0
 11
188.27059474190679
 21
148.9321744615998
 31
0.0
  0
ARC
  5
677
  8
0
 10
188.5705947419068
 20
148.9321744615992
 30
0.0
 40
0.3000000000000114
 50
179.99999999988049
 51
270.0000000000108
  0
LINE
  5
678
  8
0
 10
188.57059474190689
 20
148.63217446159919
 30
0.0
 11
190.6205947419094
 21
148.63217446159919
 31
0.0
  0
LINE
  5
679
  8
0
 10
186.7705947419368
 20
202.93902871114611
 30
0.0
 11
186.7705947419368
 21
204.6321744616595
 31
0.0
  0
ARC
  5
67A
  8
0
 10
185.77059474195039
 20
204.6321744616458
 30
0.0
 40
0.9999999999863433
 50
0.0000000007832816
 51
90.000000000784908
  0
LINE
  5
67B
  8
0
 10
185.7705947419368
 20
205.63217446163219
 30
0.0
 11
184.5205947419368
 21
205.6321744616323
 31
0.0
  0
ARC
  5
67C
  8
0
 10
184.5205947419368
 20
205.33217446163221
 30
0.0
 40
0.3000000000000966
 50
90.000000000012889
 51
180.0000000000108
  0
LINE
  5
67D
  8
0
 10
184.22059474193671
 20
205.33217446163209
 30
0.0
 11
184.22059474193679
 21
204.43217446163209
 31
0.0
  0
ARC
  5
67E
  8
0
 10
183.92059474193681
 20
204.43217446163209
 30
0.0
 40
0.2999999999999687
 50
269.99999999999449
 51
359.99999999999733
  0
LINE
  5
67F
  8
0
 10
183.92059474193681
 20
204.13217446163219
 30
0.0
 11
182.5205947419368
 21
204.1321744616321
 31
0.0
  0
ARC
  5
680
  8
0
 10
182.5205947419368
 20
204.93217446163209
 30
0.0
 40
0.7999999999999689
 50
179.9999999999979
 51
269.99999999999642
  0
LINE
  5
681
  8
0
 10
181.72059474193691
 20
204.93217446163209
 30
0.0
 11
181.72059474193679
 21
206.03179359361539
 31
0.0
  0
ARC
  5
682
  8
0
 10
181.6205947419368
 20
206.03179359361539
 30
0.0
 40
0.1000000000000085
 50
359.99999999999193
 51
89.999999999991857
  0
LINE
  5
683
  8
0
 10
181.6205947419368
 20
206.13179359361541
 30
0.0
 11
175.6205947419368
 21
206.13179359361541
 31
0.0
  0
ARC
  5
684
  8
0
 10
175.6205947419368
 20
206.03179359361539
 30
0.0
 40
0.1000000000000156
 50
89.999999999993875
 51
179.99999999999179
  0
LINE
  5
685
  8
0
 10
175.5205947419368
 20
206.03179359361539
 30
0.0
 11
175.52059474193689
 21
204.93217446163229
 31
0.0
  0
ARC
  5
686
  8
0
 10
174.72059474193679
 20
204.93217446163229
 30
0.0
 40
0.800000000000054
 50
270.00000000000409
 51
0.0000000000035622
  0
LINE
  5
687
  8
0
 10
174.72059474193691
 20
204.13217446163219
 30
0.0
 11
173.3205947419367
 21
204.1321744616321
 31
0.0
  0
ARC
  5
688
  8
0
 10
173.3205947419369
 20
204.43217446163209
 30
0.0
 40
0.3000000000000327
 50
179.99999999997829
 51
269.99999999997902
  0
LINE
  5
689
  8
0
 10
173.0205947419368
 20
204.4321744616322
 30
0.0
 11
173.0205947419368
 21
205.33217446163221
 31
0.0
  0
ARC
  5
68A
  8
0
 10
172.72059474193691
 20
205.33217446163221
 30
0.0
 40
0.2999999999999758
 50
359.99999999999591
 51
89.999999999995936
  0
LINE
  5
68B
  8
0
 10
172.72059474193691
 20
205.63217446163219
 30
0.0
 11
171.47059474190931
 21
205.63217446163219
 31
0.0
  0
ARC
  5
68C
  8
0
 10
171.4705947418957
 20
204.63217446164569
 30
0.0
 40
0.9999999999864996
 50
89.999999999223235
 51
179.99999999922321
  0
LINE
  5
68D
  8
0
 10
170.4705947419092
 20
204.6321744616593
 30
0.0
 11
170.4705947419092
 21
202.93902871114631
 31
0.0
  0
ARC
  5
68E
  8
0
 10
173.47059474190931
 20
202.93902871114631
 30
0.0
 40
3.0000000000000351
 50
179.9999999999998
 51
224.9999999999992
  0
LINE
  5
68F
  8
0
 10
171.34927439834959
 20
200.8177083675867
 30
0.0
 11
173.90612864783651
 21
198.2608541180997
 31
0.0
  0
ARC
  5
690
  8
0
 10
176.02744899139631
 20
200.38217446165919
 30
0.0
 40
3.0000000000000142
 50
224.99999999999631
 51
269.99999999999682
  0
LINE
  5
691
  8
0
 10
176.02744899139611
 20
197.38217446165919
 30
0.0
 11
181.21374049244989
 21
197.38217446165919
 31
0.0
  0
ARC
  5
692
  8
0
 10
181.21374049244989
 20
200.3821744616593
 30
0.0
 40
3.0000000000000422
 50
270.00000000000023
 51
314.99999999999989
  0
LINE
  5
693
  8
0
 10
183.33506083600949
 20
198.26085411809959
 30
0.0
 11
185.89191508549621
 21
200.8177083675865
 31
0.0
  0
ARC
  5
694
  8
0
 10
183.77059474193689
 20
202.93902871114639
 30
0.0
 40
2.9999999999999112
 50
314.99999999999358
 51
359.99999999999488
  0
ARC
  5
695
  8
0
 10
166.62059474190951
 20
204.13217446165379
 30
0.0
 40
1.500000000000014
 50
90.000000000000583
 51
179.9999999999994
  0
LINE
  5
696
  8
0
 10
165.1205947419094
 20
204.13217446165379
 30
0.0
 11
165.1205947419094
 21
202.08217446165381
 31
0.0
  0
ARC
  5
697
  8
0
 10
165.42059474190941
 20
202.08217446165381
 30
0.0
 40
0.299999999999955
 50
180.0
 51
269.99999999999989
  0
LINE
  5
698
  8
0
 10
165.42059474190941
 20
201.78217446165391
 30
0.0
 11
168.67059474190481
 21
201.78217446165391
 31
0.0
  0
ARC
  5
699
  8
0
 10
168.67059474190481
 20
202.08217446165381
 30
0.0
 40
0.2999999999999545
 50
269.99999999999932
 51
359.99999999986971
  0
LINE
  5
69A
  8
0
 10
168.97059474190479
 20
202.08217446165321
 30
0.0
 11
168.97059474191209
 21
205.3321744616531
 31
0.0
  0
ARC
  5
69B
  8
0
 10
168.670594741912
 20
205.33217446165389
 30
0.0
 40
0.3000000000000726
 50
359.999999999848
 51
89.999999999977447
  0
LINE
  5
69C
  8
0
 10
168.67059474191211
 20
205.63217446165399
 30
0.0
 11
166.6205947419094
 21
205.63217446165379
 31
0.0
  0
ARC
  5
69D
  8
0
 10
190.62059474193671
 20
204.13217446162651
 30
0.0
 40
1.500000000000014
 50
0.0000000000005428
 51
89.999999999999446
  0
LINE
  5
69E
  8
0
 10
190.62059474193671
 20
205.63217446162651
 30
0.0
 11
188.5705947419367
 21
205.6321744616267
 31
0.0
  0
ARC
  5
69F
  8
0
 10
188.57059474193679
 20
205.33217446162661
 30
0.0
 40
0.300000000000125
 50
90.000000000009521
 51
180.0000000000108
  0
LINE
  5
6A0
  8
0
 10
188.27059474193669
 20
205.33217446162649
 30
0.0
 11
188.27059474193669
 21
202.0821744616311
 31
0.0
  0
ARC
  5
6A1
  8
0
 10
188.5705947419367
 20
202.0821744616311
 30
0.0
 40
0.3000000000000043
 50
180.0000000000108
 51
269.99999999988188
  0
LINE
  5
6A2
  8
0
 10
188.57059474193611
 20
201.78217446163109
 30
0.0
 11
191.82059474193611
 21
201.78217446162381
 31
0.0
  0
ARC
  5
6A3
  8
0
 10
191.8205947419367
 20
202.08217446162379
 30
0.0
 40
0.2999999999999545
 50
269.99999999987108
 51
0.0
  0
LINE
  5
6A4
  8
0
 10
192.12059474193671
 20
202.08217446162379
 30
0.0
 11
192.12059474193671
 21
204.13217446162651
 31
0.0
  0
LINE
  5
6A5
  8
1
 10
178.6205947419094
 20
212.13217446162651
 30
0.0
 11
178.6205947419094
 21
142.13217446162651
 31
0.0
  0
LINE
  5
6A7
  8
1
 10
198.62059474190951
 20
162.13217446159891
 30
0.0
 11
158.6205947419094
 21
162.13217446159879
 31
0.0
  0
LINE
  5
6A8
  8
1
 10
198.62059474190951
 20
177.13217446159879
 30
0.0
 11
158.6205947419094
 21
177.13217446159879
 31
0.0
  0
LINE
  5
6A9
  8
1
 10
198.62059474190951
 20
192.13217446159891
 30
0.0
 11
158.6205947419094
 21
192.13217446159879
 31
0.0
  0
TEXT
  5
7A4
  8
0
 62
     3
 10
0.0
 20
0.0
 30
0.0
 40
10.0
  1
L6-SPL6030N2-3M
  7
STANDARD1
  0
ENDSEC
  0
EOF
