  0
SECTION
  2
HEADER
  9
$ACADVER
  1
AC1009
  9
$INSBASE
 10
7.37824081052986
 20
15.90864369846679
 30
0.0
  9
$EXTMIN
 10
0.0
 20
-2.960436562073669
 30
0.0
  9
$EXTMAX
 10
341.19477120285637
 20
258.52188859750862
 30
0.0
  9
$LIMMIN
 10
0.0
 20
0.0
  9
$LIMMAX
 10
385.0
 20
270.0
  9
$ORTHOMODE
 70
     0
  9
$REGENMODE
 70
     1
  9
$FILLMODE
 70
     1
  9
$QTEXTMODE
 70
     0
  9
$MIRRTEXT
 70
     0
  9
$DRAGMODE
 70
     2
  9
$LTSCALE
 40
10.0
  9
$OSMODE
 70
  3071
  9
$ATTMODE
 70
     1
  9
$TEXTSIZE
 40
4.0
  9
$TRACEWID
 40
0.05
  9
$TEXTSTYLE
  7
STANDARD
  9
$CLAYER
  8
0
  9
$CELTYPE
  6
BYLAYER
  9
$CECOLOR
 62
   256
  9
$DIMSCALE
 40
1.0
  9
$DIMASZ
 40
3.0
  9
$DIMEXO
 40
2.0
  9
$DIMDLI
 40
10.0
  9
$DIMRND
 40
0.0
  9
$DIMDLE
 40
0.0
  9
$DIMEXE
 40
2.0
  9
$DIMTP
 40
0.0
  9
$DIMTM
 40
0.0
  9
$DIMTXT
 40
3.0
  9
$DIMCEN
 40
0.09
  9
$DIMTSZ
 40
0.0
  9
$DIMTOL
 70
     0
  9
$DIMLIM
 70
     0
  9
$DIMTIH
 70
     0
  9
$DIMTOH
 70
     0
  9
$DIMSE1
 70
     0
  9
$DIMSE2
 70
     0
  9
$DIMTAD
 70
     1
  9
$DIMZIN
 70
     0
  9
$DIMBLK
  1

  9
$DIMASO
 70
     0
  9
$DIMSHO
 70
     0
  9
$DIMPOST
  1

  9
$DIMAPOST
  1

  9
$DIMALT
 70
     0
  9
$DIMALTD
 70
     2
  9
$DIMALTF
 40
25.399999999999999
  9
$DIMLFAC
 40
1.0
  9
$DIMTOFL
 70
     1
  9
$DIMTVP
 40
1.6000000000000001
  9
$DIMTIX
 70
     1
  9
$DIMSOXD
 70
     0
  9
$DIMSAH
 70
     0
  9
$DIMBLK1
  1

  9
$DIMBLK2
  1

  9
$DIMSTYLE
  2
STANDARD
  9
$DIMCLRD
 70
     0
  9
$DIMCLRE
 70
     0
  9
$DIMCLRT
 70
     0
  9
$DIMTFAC
 40
1.0
  9
$DIMGAP
 40
1.0
  9
$LUNITS
 70
     2
  9
$LUPREC
 70
     2
  9
$SKETCHINC
 40
0.1
  9
$FILLETRAD
 40
0.0
  9
$AUNITS
 70
     0
  9
$AUPREC
 70
     2
  9
$MENU
  1
E:\r13\win\SUPPORT\ACAD
  9
$ELEVATION
 40
0.0
  9
$PELEVATION
 40
0.0
  9
$THICKNESS
 40
0.0
  9
$LIMCHECK
 70
     0
  9
$BLIPMODE
 70
     0
  9
$CHAMFERA
 40
1.0
  9
$CHAMFERB
 40
1.0
  9
$SKPOLY
 70
     0
  9
$TDCREATE
 40
2450252.6853964119
  9
$TDUPDATE
 40
2456597.5624354281
  9
$TDINDWG
 40
0.1011273495
  9
$TDUSRTIMER
 40
0.1011273495
  9
$USRTIMER
 70
     1
  9
$ANGBASE
 50
0.0
  9
$ANGDIR
 70
     0
  9
$PDMODE
 70
     0
  9
$PDSIZE
 40
0.0
  9
$PLINEWID
 40
0.0
  9
$COORDS
 70
     1
  9
$SPLFRAME
 70
     0
  9
$SPLINETYPE
 70
     6
  9
$SPLINESEGS
 70
     8
  9
$ATTDIA
 70
     0
  9
$ATTREQ
 70
     1
  9
$HANDLING
 70
     1
  9
$HANDSEED
  5
1671
  9
$SURFTAB1
 70
     6
  9
$SURFTAB2
 70
     6
  9
$SURFTYPE
 70
     6
  9
$SURFU
 70
     6
  9
$SURFV
 70
     6
  9
$UCSNAME
  2

  9
$UCSORG
 10
0.0
 20
0.0
 30
0.0
  9
$UCSXDIR
 10
1.0
 20
0.0
 30
0.0
  9
$UCSYDIR
 10
0.0
 20
1.0
 30
0.0
  9
$PUCSNAME
  2

  9
$PUCSORG
 10
0.0
 20
0.0
 30
0.0
  9
$PUCSXDIR
 10
1.0
 20
0.0
 30
0.0
  9
$PUCSYDIR
 10
0.0
 20
1.0
 30
0.0
  9
$USERI1
 70
     3
  9
$USERI2
 70
     1
  9
$USERI3
 70
     0
  9
$USERI4
 70
     1
  9
$USERI5
 70
     0
  9
$USERR1
 40
1.0
  9
$USERR2
 40
3.0
  9
$USERR3
 40
3.0
  9
$USERR4
 40
3.0
  9
$USERR5
 40
10.0
  9
$WORLDVIEW
 70
     1
  9
$SHADEDGE
 70
     3
  9
$SHADEDIF
 70
    70
  9
$TILEMODE
 70
     1
  9
$MAXACTVP
 70
    16
  9
$PLIMCHECK
 70
     0
  9
$PEXTMIN
 10
1.0000000000000000E+020
 20
1.0000000000000000E+020
 30
1.0000000000000000E+020
  9
$PEXTMAX
 10
-1.0000000000000000E+020
 20
-1.0000000000000000E+020
 30
-1.0000000000000000E+020
  9
$PLIMMIN
 10
0.0
 20
0.0
  9
$PLIMMAX
 10
12.0
 20
9.0
  9
$UNITMODE
 70
     0
  9
$VISRETAIN
 70
     0
  9
$PLINEGEN
 70
     0
  9
$PSLTSCALE
 70
     0
  0
ENDSEC
  0
SECTION
  2
TABLES
  0
TABLE
  2
VPORT
 70
     1
  0
VPORT
  2
*ACTIVE
 70
     0
 10
0.0
 20
0.0
 11
1.0
 21
1.0
 12
192.49412581440311
 22
162.8616388594717
 13
0.0
 23
0.0
 14
5.0
 24
5.0
 15
5.0
 25
5.0
 16
0.0
 26
0.0
 36
1.0
 17
0.0
 27
0.0
 37
0.0
 40
334.81001162774987
 41
1.9089595375722539
 42
50.0
 43
0.0
 44
0.0
 50
0.0
 51
0.0
 71
     0
 72
  1000
 73
     1
 74
     0
 75
     0
 76
     0
 77
     0
 78
     1
  0
ENDTAB
  0
TABLE
  2
LTYPE
 70
     3
  0
LTYPE
  2
CONTINUOUS
 70
     0
  3
Solid Line
 72
    65
 73
     0
 40
0.0
  0
LTYPE
  2
CENTER
 70
     0
  3
____ _ ____ _ ____ _ ____ _ ____ _ ____ _ ____
 72
    65
 73
     4
 40
2.0
 49
1.25
 49
-0.25
 49
0.25
 49
-0.25
  0
LTYPE
  2
PHANTOM2
 70
     0
  3
___ _ _ ___ _ _ ___ _ _ ___ _ _
 72
    65
 73
     6
 40
1.25
 49
0.625
 49
-0.125
 49
0.125
 49
-0.125
 49
0.125
 49
-0.125
  0
ENDTAB
  0
TABLE
  2
LAYER
 70
     2
  0
LAYER
  2
0
 70
     0
 62
     7
  6
CONTINUOUS
  0
LAYER
  2
1
 70
     0
 62
     1
  6
CENTER
  0
ENDTAB
  0
TABLE
  2
STYLE
 70
     2
  0
STYLE
  2
STANDARD
 70
     0
 40
0.0
 41
1.0
 50
0.0
 71
     0
 42
4.0
  3
simplex
  4
bigfont
  0
STYLE
  2
STANDARD1
 70
     0
 40
0.0
 41
1.0
 50
0.0
 71
     0
 42
3.0
  3
txt
  4

  0
ENDTAB
  0
TABLE
  2
VIEW
 70
     0
  0
ENDTAB
  0
TABLE
  2
UCS
 70
     0
  0
ENDTAB
  0
TABLE
  2
APPID
 70
     3
  0
APPID
  2
ACAD
 70
     0
  0
APPID
  2
ACAD_MLEADERVER
 70
     0
  0
APPID
  2
ACAD_NAV_VCDISPLAY
 70
     0
  0
ENDTAB
  0
TABLE
  2
DIMSTYLE
 70
     1
  0
DIMSTYLE
  2
STANDARD
 70
     0
  3

  4

  5

  6

  7

 40
1.0
 41
0.18
 42
0.0625
 43
0.38
 44
0.18
 45
0.0
 46
0.0
 47
0.0
 48
0.0
140
0.18
141
0.09
142
0.0
143
25.399999999999999
144
1.0
145
0.0
146
1.0
147
0.09
 71
     0
 72
     0
 73
     1
 74
     1
 75
     0
 76
     0
 77
     0
 78
     0
170
     0
171
     2
172
     0
173
     0
174
     0
175
     0
176
     0
177
     0
178
     0
  0
ENDTAB
  0
ENDSEC
  0
SECTION
  2
BLOCKS
  0
BLOCK
  8
0
  2
$MODEL_SPACE
 70
     0
 10
0.0
 20
0.0
 30
0.0
  3
$MODEL_SPACE
  1

  0
ENDBLK
  5
1532
  8
0
  0
BLOCK
 67
     1
  8
0
  2
$PAPER_SPACE
 70
     0
 10
0.0
 20
0.0
 30
0.0
  3
$PAPER_SPACE
  1

  0
ENDBLK
  5
1530
 67
     1
  8
0
  0
ENDSEC
  0
SECTION
  2
ENTITIES
  0
LINE
  5
12D2
  8
1
 10
221.19477120285629
 20
86.631454164189222
 30
0.0
 11
341.19477120285637
 21
86.631454164189222
 31
0.0
  0
ARC
  5
12D3
  8
0
 10
116.6573676690501
 20
97.438308413652919
 30
0.0
 40
5.0
 50
180.0
 51
225.00000000000031
  0
ARC
  5
12D4
  8
0
 10
109.6573676690501
 20
97.631454164188355
 30
0.0
 40
2.0
 50
359.9999999999992
 51
90.0
  0
LINE
  5
12D7
  8
0
 10
117.7073676690775
 20
101.63145416418919
 30
0.0
 11
95.907367669078425
 21
101.63145416418919
 31
0.0
  0
LINE
  5
12D9
  8
1
 10
66.807367669050336
 20
86.631454164189222
 30
0.0
 11
206.80736766905031
 21
86.631454164189222
 31
0.0
  0
ARC
  5
12DA
  8
0
 10
109.6573676690229
 20
75.631454164188369
 30
0.0
 40
2.0
 50
270.0
 51
0.0000000000014885
  0
LINE
  5
12DB
  8
0
 10
95.907367669051155
 20
71.631454164189222
 30
0.0
 11
117.7073676690504
 21
71.631454164189222
 31
0.0
  0
LINE
  5
12DC
  8
0
 10
97.057367669054202
 20
84.038308413648792
 30
0.0
 11
97.057367669054315
 21
89.22459991470248
 31
0.0
  0
CIRCLE
  5
12DD
  8
0
 10
91.807367669050336
 20
86.631454164189222
 30
0.0
 40
2.5
  0
LINE
  5
12DE
  8
0
 10
86.557367669044666
 20
89.22459991470248
 30
0.0
 11
86.557367669044666
 21
84.038308413648906
 31
0.0
  0
LINE
  5
12E1
  8
1
 10
91.807367669050336
 20
111.63145416418919
 30
0.0
 11
91.807367669050336
 21
61.631454164189222
 31
0.0
  0
LINE
  5
12E4
  8
0
 10
89.214221918537064
 20
81.38145416415648
 30
0.0
 11
94.400513419590894
 21
81.38145416415648
 31
0.0
  0
ARC
  5
12E5
  8
0
 10
86.657367669022975
 20
75.824599914642249
 30
0.0
 40
3.0000000000000742
 50
134.9999999999979
 51
179.99999999999781
  0
LINE
  5
12E6
  8
0
 10
76.807367669050336
 20
82.531454164162014
 30
0.0
 11
76.807367669050336
 21
74.631454164189222
 31
0.0
  0
ARC
  5
12E7
  8
0
 10
84.65736766902296
 20
74.13145416415648
 30
0.0
 40
1.0
 50
180.0
 51
269.99999999999977
  0
LINE
  5
12E8
  8
0
 10
79.807367669050336
 20
71.631454164189222
 30
0.0
 11
87.707367669050427
 21
71.631454164189222
 31
0.0
  0
ARC
  5
12E9
  8
0
 10
81.857367669023006
 20
76.681454164184515
 30
0.0
 40
0.299999999999951
 50
0.0
 51
89.999999999870397
  0
LINE
  5
12EA
  8
0
 10
83.65736766902296
 20
74.13145416415648
 30
0.0
 11
83.65736766902296
 21
75.824599914642363
 31
0.0
  0
ARC
  5
12EB
  8
0
 10
81.857367669023006
 20
73.431454164189176
 30
0.0
 40
0.2999999999999545
 50
270.0
 51
0.0
  0
LINE
  5
12EC
  8
0
 10
82.15736766902296
 20
73.431454164189176
 30
0.0
 11
82.15736766902296
 21
76.681454164184515
 31
0.0
  0
ARC
  5
12ED
  8
0
 10
78.607367669023006
 20
76.681454164191905
 30
0.0
 40
0.2999999999999545
 50
89.999999999871079
 51
180.0
  0
LINE
  5
12EE
  8
0
 10
78.307367669023051
 20
76.681454164191905
 30
0.0
 11
78.307367669023051
 21
74.631454164189222
 31
0.0
  0
ARC
  5
12EF
  8
0
 10
79.807367669050336
 20
74.631454164189222
 30
0.0
 40
3.0
 50
180.0
 51
270.0
  0
ARC
  5
12F0
  8
0
 10
79.807367669023051
 20
74.631454164189222
 30
0.0
 40
1.500000000000014
 50
180.00000000000051
 51
269.99999999999949
  0
LINE
  5
12F1
  8
0
 10
79.807367669023051
 20
73.131454164189222
 30
0.0
 11
81.857367669023006
 21
73.131454164189222
 31
0.0
  0
LINE
  5
12F2
  8
0
 10
81.857367669023688
 20
76.98145416418447
 30
0.0
 11
78.607367669023688
 21
76.981454164191859
 31
0.0
  0
LINE
  5
12F3
  8
0
 10
88.707367669050427
 20
72.631454164189222
 30
0.0
 11
88.707367669050427
 21
73.63145416415648
 31
0.0
  0
LINE
  5
12F4
  8
0
 10
87.707367669050427
 20
74.631454164156452
 30
0.0
 11
86.507367669050396
 21
74.63145416415648
 31
0.0
  0
ARC
  5
12F5
  8
0
 10
86.507367669050396
 20
74.331454164156469
 30
0.0
 40
0.3000000000000114
 50
90.000000000010175
 51
180.0000000000108
  0
ARC
  5
12F6
  8
0
 10
85.907367669050359
 20
73.431454164156548
 30
0.0
 40
0.3000000000000682
 50
269.99999999997829
 51
359.99999999997829
  0
LINE
  5
12F7
  8
0
 10
85.907367669050245
 20
73.13145416415648
 30
0.0
 11
84.65736766902296
 21
73.13145416415648
 31
0.0
  0
LINE
  5
12F8
  8
0
 10
86.207367669050427
 20
74.331454164156412
 30
0.0
 11
86.207367669050427
 21
73.431454164156435
 31
0.0
  0
ARC
  5
12F9
  8
0
 10
87.707367669050427
 20
72.631454164189222
 30
0.0
 40
1.0
 50
270.0
 51
0.0
  0
ARC
  5
12FA
  8
0
 10
87.707367669050427
 20
73.631454164156452
 30
0.0
 40
0.9999999999999928
 50
0.0000000000016284
 51
90.000000000000398
  0
LINE
  5
12FB
  8
0
 10
85.678688012604425
 20
81.916988070089246
 30
0.0
 11
83.12183376314465
 21
79.360133820629471
 31
0.0
  0
LINE
  5
12FC
  8
0
 10
79.807367669044652
 20
81.331454164161983
 30
0.0
 11
79.807367669044652
 21
82.531454164162014
 31
0.0
  0
LINE
  5
12FD
  8
0
 10
78.807367669044652
 20
83.531454164162014
 30
0.0
 11
77.807367669050336
 21
83.531454164162014
 31
0.0
  0
LINE
  5
12FE
  8
0
 10
78.307367669044652
 20
79.481454164189131
 30
0.0
 11
78.307367669044652
 21
80.731454164162074
 31
0.0
  0
ARC
  5
12FF
  8
0
 10
78.607367669044606
 20
80.731454164162074
 30
0.0
 40
0.2999999999999545
 50
90.0
 51
180.0
  0
LINE
  5
1300
  8
0
 10
78.607367669044606
 20
81.031454164162014
 30
0.0
 11
79.507367669044683
 21
81.031454164162014
 31
0.0
  0
ARC
  5
1301
  8
0
 10
79.507367669044683
 20
81.331454164161983
 30
0.0
 40
0.2999999999999545
 50
269.99999999999932
 51
0.0
  0
ARC
  5
1302
  8
0
 10
78.807367669044652
 20
82.531454164162014
 30
0.0
 40
1.0000000000000071
 50
0.0
 51
89.999999999999588
  0
ARC
  5
1303
  8
0
 10
77.807367669050336
 20
82.531454164162014
 30
0.0
 40
1.0
 50
90.0
 51
180.0
  0
LINE
  5
1304
  8
0
 10
81.000513419585104
 20
78.481454164189131
 30
0.0
 11
79.307367669044652
 21
78.481454164189131
 31
0.0
  0
ARC
  5
1305
  8
0
 10
81.000513419585104
 20
81.481454164189017
 30
0.0
 40
2.9999999999998832
 50
270.00000000000063
 51
315.0000000000004
  0
ARC
  5
1306
  8
0
 10
79.307367669044652
 20
79.481454164189131
 30
0.0
 40
1.0
 50
180.0
 51
270.0
  0
ARC
  5
1307
  8
0
 10
83.557367669044652
 20
84.038308413648735
 30
0.0
 40
2.9999999999999321
 50
315.00000000000301
 51
0.0000000000032569
  0
ARC
  5
1308
  8
0
 10
89.214221918537305
 20
78.381454164156565
 30
0.0
 40
2.999999999999913
 50
90.000000000002998
 51
135.00000000000321
  0
LINE
  5
1309
  8
0
 10
84.536047325463414
 20
77.945920258202023
 30
0.0
 11
87.092901574977517
 21
80.502774507716026
 31
0.0
  0
ARC
  5
130A
  8
0
 10
96.957367669051223
 20
75.824599914697501
 30
0.0
 40
3.0000000000000941
 50
0.0000000000021713
 51
45.000000000001727
  0
ARC
  5
130B
  8
0
 10
96.957367669051351
 20
75.824599914666905
 30
0.0
 40
5.0
 50
0.0
 51
44.999999999999361
  0
ARC
  5
130C
  8
0
 10
103.95736766905129
 20
75.631454164188369
 30
0.0
 40
2.0
 50
180.0
 51
270.0
  0
LINE
  5
130D
  8
0
 10
101.95736766905129
 20
75.631454164188369
 30
0.0
 11
101.95736766905129
 21
75.824599914666905
 31
0.0
  0
LINE
  5
130E
  8
0
 10
99.957367669051337
 20
75.824599914697615
 30
0.0
 11
99.957367669051337
 21
74.131454164157276
 31
0.0
  0
ARC
  5
130F
  8
0
 10
97.107367669051214
 20
74.331454164157208
 30
0.0
 40
0.2999999999999545
 50
0.0
 51
90.0
  0
LINE
  5
1310
  8
0
 10
97.107367669051214
 20
74.631454164157162
 30
0.0
 11
95.907367669051155
 21
74.631454164157276
 31
0.0
  0
LINE
  5
1311
  8
0
 10
98.957367669051337
 20
73.131454164157248
 30
0.0
 11
97.707367669051109
 21
73.131454164157276
 31
0.0
  0
ARC
  5
1312
  8
0
 10
97.707367669051109
 20
73.43145416415723
 30
0.0
 40
0.2999999999999545
 50
180.0
 51
270.0
  0
ARC
  5
1313
  8
0
 10
98.957367669051337
 20
74.131454164157248
 30
0.0
 40
0.9999999999999928
 50
269.9999999999996
 51
0.0000000000016284
  0
LINE
  5
1314
  8
0
 10
97.407367669051155
 20
73.43145416415723
 30
0.0
 11
97.407367669051155
 21
74.331454164157208
 31
0.0
  0
LINE
  5
1315
  8
0
 10
94.907367669051155
 20
73.631454164157276
 30
0.0
 11
94.907367669051155
 21
72.631454164189222
 31
0.0
  0
ARC
  5
1316
  8
0
 10
95.907367669051155
 20
73.631454164157276
 30
0.0
 40
1.0
 50
90.0
 51
180.0
  0
ARC
  5
1317
  8
0
 10
95.907367669051155
 20
72.631454164189222
 30
0.0
 40
1.0
 50
180.0
 51
270.0
  0
LINE
  5
1318
  8
0
 10
103.95736766905129
 20
73.631454164188369
 30
0.0
 11
109.6573676690229
 21
73.631454164188369
 31
0.0
  0
ARC
  5
1319
  8
0
 10
100.0573676690542
 20
84.038308413648792
 30
0.0
 40
3.0
 50
179.99999999999969
 51
225.00000000000011
  0
LINE
  5
131A
  8
0
 10
100.4929015749841
 20
79.360133820599629
 30
0.0
 11
97.936047325494656
 21
81.916988070089133
 31
0.0
  0
ARC
  5
131B
  8
0
 10
94.400513419592244
 20
78.381454164155883
 30
0.0
 40
3.000000000000596
 50
45.000000000026681
 51
90.000000000026319
  0
LINE
  5
131C
  8
0
 10
96.521833763151335
 20
80.502774507716936
 30
0.0
 11
99.078688012610883
 21
77.945920258257274
 31
0.0
  0
ARC
  5
1321
  8
0
 10
95.907367669078425
 20
100.63145416418919
 30
0.0
 40
1.0
 50
90.0
 51
180.0
  0
ARC
  5
1322
  8
0
 10
87.707367669077485
 20
100.63145416418919
 30
0.0
 40
0.9999999999999857
 50
0.0000000000016284
 51
90.00000000000081
  0
ARC
  5
1323
  8
0
 10
79.807367669050336
 20
98.631454164189236
 30
0.0
 40
3.0
 50
90.0
 51
180.0
  0
LINE
  5
1324
  8
0
 10
94.400513419590894
 20
91.881454164194906
 30
0.0
 11
89.214221918537064
 21
91.881454164194906
 31
0.0
  0
LINE
  5
1325
  8
0
 10
83.121833763090081
 20
93.902774507776257
 30
0.0
 11
85.678688012604198
 21
91.345920258262254
 31
0.0
  0
LINE
  5
1326
  8
0
 10
87.092901574977304
 20
92.760133820635247
 30
0.0
 11
84.536047325490472
 21
95.316988070122193
 31
0.0
  0
LINE
  5
1327
  8
0
 10
78.307367669044652
 20
92.531454164162014
 30
0.0
 11
78.307367669044652
 21
93.781454164216584
 31
0.0
  0
LINE
  5
1328
  8
0
 10
76.807367669050336
 20
98.631454164189236
 30
0.0
 11
76.807367669050336
 21
90.731454164162074
 31
0.0
  0
LINE
  5
1329
  8
0
 10
79.807367669044652
 20
90.731454164162074
 30
0.0
 11
79.807367669044652
 21
91.931454164162119
 31
0.0
  0
LINE
  5
132A
  8
0
 10
79.507367669044683
 20
92.231454164162059
 30
0.0
 11
78.607367669044606
 21
92.231454164162059
 31
0.0
  0
ARC
  5
132B
  8
0
 10
78.607367669044606
 20
92.531454164162014
 30
0.0
 40
0.2999999999999545
 50
180.0
 51
270.0
  0
LINE
  5
132C
  8
0
 10
77.807367669050336
 20
89.731454164162059
 30
0.0
 11
78.807367669044652
 21
89.731454164162059
 31
0.0
  0
ARC
  5
132D
  8
0
 10
78.807367669044652
 20
90.731454164162074
 30
0.0
 40
1.0
 50
270.0
 51
0.0
  0
ARC
  5
132E
  8
0
 10
79.507367669044683
 20
91.931454164162119
 30
0.0
 40
0.2999999999999545
 50
0.0
 51
90.0
  0
ARC
  5
132F
  8
0
 10
77.807367669050336
 20
90.731454164162074
 30
0.0
 40
1.0
 50
180.0
 51
270.0
  0
ARC
  5
1330
  8
0
 10
83.557367669044424
 20
89.224599914702424
 30
0.0
 40
3.000000000000222
 50
0.0000000000010856
 51
45.000000000000803
  0
ARC
  5
1331
  8
0
 10
89.214221918537064
 20
94.881454164195077
 30
0.0
 40
3.0000000000001701
 50
225.00000000000179
 51
270.00000000000148
  0
ARC
  5
1332
  8
0
 10
86.657367669050458
 20
97.438308413681767
 30
0.0
 40
3.0000000000001492
 50
179.99999999999619
 51
224.99999999999531
  0
ARC
  5
1333
  8
0
 10
84.657367669050245
 20
99.131454164194906
 30
0.0
 40
0.9999999999999928
 50
89.999999999999588
 51
180.0
  0
LINE
  5
1334
  8
0
 10
81.857367669053019
 20
100.13145416421651
 30
0.0
 11
79.807367669050336
 21
100.13145416421651
 31
0.0
  0
ARC
  5
1335
  8
0
 10
81.857367669045729
 20
96.581454164216495
 30
0.0
 40
0.3000000000000114
 50
270.00000000000949
 51
359.99999999988057
  0
LINE
  5
1336
  8
0
 10
83.657367669050245
 20
97.438308413681966
 30
0.0
 11
83.657367669050245
 21
99.131454164194906
 31
0.0
  0
LINE
  5
1337
  8
0
 10
82.157367669045684
 20
96.581454164215884
 30
0.0
 11
82.157367669052974
 21
99.83145416421587
 31
0.0
  0
ARC
  5
1338
  8
0
 10
81.000513419530535
 20
91.781454164216711
 30
0.0
 40
2.9999999999998859
 50
44.999999999999602
 51
89.999999999999446
  0
ARC
  5
1339
  8
0
 10
78.607367669050291
 20
96.581454164216495
 30
0.0
 40
0.3000000000000043
 50
179.99999999998909
 51
269.99999999999051
  0
LINE
  5
133A
  8
0
 10
78.307367669050336
 20
98.631454164216521
 30
0.0
 11
78.307367669050336
 21
96.581454164216552
 31
0.0
  0
ARC
  5
133B
  8
0
 10
79.307367669044652
 20
93.781454164216584
 30
0.0
 40
0.9999999999999822
 50
89.999999999998977
 51
180.0
  0
LINE
  5
133C
  8
0
 10
79.307367669044652
 20
94.781454164216584
 30
0.0
 11
81.000513419530535
 21
94.781454164216584
 31
0.0
  0
LINE
  5
133D
  8
0
 10
78.607367669050291
 20
96.281454164216484
 30
0.0
 11
81.857367669045729
 21
96.281454164216484
 31
0.0
  0
ARC
  5
133E
  8
0
 10
81.857367669053019
 20
99.831454164216566
 30
0.0
 40
0.2999999999999616
 50
359.99999999986971
 51
89.999999999998636
  0
ARC
  5
133F
  8
0
 10
79.807367669050336
 20
98.631454164216521
 30
0.0
 40
1.5
 50
90.000000000000554
 51
180.0
  0
LINE
  5
1340
  8
0
 10
84.657367669050245
 20
100.13145416419491
 30
0.0
 11
85.90736766907753
 21
100.13145416419491
 31
0.0
  0
LINE
  5
1341
  8
0
 10
86.207367669077485
 20
99.831454164194966
 30
0.0
 11
86.207367669077485
 21
98.931454164195088
 31
0.0
  0
ARC
  5
1342
  8
0
 10
86.507367669077553
 20
98.931454164195216
 30
0.0
 40
0.3000000000000682
 50
180.00000000002171
 51
270.00000000002171
  0
LINE
  5
1343
  8
0
 10
86.507367669077667
 20
98.631454164195134
 30
0.0
 11
87.707367669077485
 21
98.631454164194921
 31
0.0
  0
ARC
  5
1344
  8
0
 10
87.707367669077485
 20
99.631454164194906
 30
0.0
 40
1.0
 50
270.0
 51
0.0
  0
ARC
  5
1345
  8
0
 10
85.90736766907753
 20
99.831454164194966
 30
0.0
 40
0.2999999999999545
 50
0.0
 51
90.0
  0
LINE
  5
1346
  8
0
 10
88.707367669077485
 20
99.631454164194906
 30
0.0
 11
88.707367669077485
 21
100.63145416418919
 31
0.0
  0
LINE
  5
1347
  8
0
 10
97.936047325494656
 20
91.345920258262126
 30
0.0
 11
100.4929015750111
 21
93.902774507778645
 31
0.0
  0
LINE
  5
1348
  8
0
 10
99.078688012638153
 20
95.316988070122875
 30
0.0
 11
96.521833763151335
 21
92.760133820636156
 31
0.0
  0
ARC
  5
1349
  8
0
 10
94.400513419590183
 20
94.881454164196313
 30
0.0
 40
3.0000000000014162
 50
270.00000000001262
 51
315.00000000001279
  0
ARC
  5
134A
  8
0
 10
100.0573676690543
 20
89.22459991470248
 30
0.0
 40
3.0
 50
135.0
 51
179.99999999999969
  0
ARC
  5
134B
  8
0
 10
103.95736766907849
 20
97.631454164188355
 30
0.0
 40
2.0
 50
90.0
 51
180.00000000000071
  0
LINE
  5
134C
  8
0
 10
97.707367669078394
 20
100.1314541641958
 30
0.0
 11
98.957367669078394
 21
100.1314541641958
 31
0.0
  0
LINE
  5
134D
  8
0
 10
101.95736766907849
 20
97.631454164188355
 30
0.0
 11
101.95736766907849
 21
97.438308413711525
 31
0.0
  0
LINE
  5
134E
  8
0
 10
99.957367669078394
 20
99.131454164195816
 30
0.0
 11
99.957367669078394
 21
97.438308413682634
 31
0.0
  0
ARC
  5
134F
  8
0
 10
97.107367669078485
 20
98.931454164195785
 30
0.0
 40
0.2999999999999545
 50
270.0
 51
0.0
  0
LINE
  5
1350
  8
0
 10
97.407367669078425
 20
98.931454164195785
 30
0.0
 11
97.407367669078425
 21
99.831454164195875
 31
0.0
  0
LINE
  5
1351
  8
0
 10
95.907367669078425
 20
98.631454164195816
 30
0.0
 11
97.107367669078485
 21
98.631454164195816
 31
0.0
  0
ARC
  5
1352
  8
0
 10
96.957367669078394
 20
97.438308413682435
 30
0.0
 40
3.000000000000056
 50
315.00000000000381
 51
0.0000000000043425
  0
ARC
  5
1353
  8
0
 10
96.957367669078508
 20
97.438308413711425
 30
0.0
 40
5.0
 50
314.99999999999932
 51
0.0000000000014885
  0
ARC
  5
1354
  8
0
 10
95.907367669078425
 20
99.631454164195816
 30
0.0
 40
1.0000000000000071
 50
180.0
 51
269.9999999999996
  0
ARC
  5
1355
  8
0
 10
97.707367669078394
 20
99.831454164195875
 30
0.0
 40
0.2999999999999545
 50
90.0
 51
180.0
  0
ARC
  5
1356
  8
0
 10
98.957367669078394
 20
99.131454164195816
 30
0.0
 40
1.0
 50
0.0
 51
90.0
  0
LINE
  5
1357
  8
0
 10
94.907367669078425
 20
100.63145416418919
 30
0.0
 11
94.907367669078425
 21
99.631454164195816
 31
0.0
  0
LINE
  5
1358
  8
0
 10
103.95736766907849
 20
99.631454164188369
 30
0.0
 11
109.6573676690501
 21
99.631454164188369
 31
0.0
  0
LINE
  5
1359
  8
0
 10
87.707367669077485
 20
101.63145416418919
 30
0.0
 11
79.807367669050336
 21
101.63145416418919
 31
0.0
  0
LINE
  5
135C
  8
0
 10
187.05736766908331
 20
84.038308413648679
 30
0.0
 11
187.05736766908299
 21
89.22459991470248
 31
0.0
  0
CIRCLE
  5
135D
  8
0
 10
181.80736766905031
 20
86.631454164189222
 30
0.0
 40
2.5
  0
LINE
  5
135E
  8
0
 10
176.55736766901569
 20
89.224599914702708
 30
0.0
 11
176.55736766901569
 21
84.038308413648906
 31
0.0
  0
LINE
  5
135F
  8
0
 10
157.0573676690542
 20
84.038308413648906
 30
0.0
 11
157.0573676690542
 21
89.22459991470248
 31
0.0
  0
CIRCLE
  5
1360
  8
0
 10
151.80736766905031
 20
86.631454164189222
 30
0.0
 40
2.5
  0
LINE
  5
1361
  8
0
 10
146.55736766901569
 20
89.224599914702523
 30
0.0
 11
146.55736766901569
 21
84.038308413648735
 31
0.0
  0
LINE
  5
1362
  8
0
 10
127.0573676690542
 20
84.038308413648792
 30
0.0
 11
127.0573676690543
 21
89.22459991470248
 31
0.0
  0
CIRCLE
  5
1363
  8
0
 10
121.80736766905029
 20
86.631454164189222
 30
0.0
 40
2.5
  0
LINE
  5
1364
  8
0
 10
116.5573676690158
 20
89.224599914702523
 30
0.0
 11
116.5573676690158
 21
84.038308413648735
 31
0.0
  0
LINE
  5
1366
  8
1
 10
121.8073676691056
 20
111.63145416418919
 30
0.0
 11
121.8073676691056
 21
61.631454164189222
 31
0.0
  0
LINE
  5
1367
  8
1
 10
151.80736766910559
 20
111.63145416418919
 30
0.0
 11
151.80736766910559
 21
61.631454164189222
 31
0.0
  0
LINE
  5
1368
  8
1
 10
181.80736766905031
 20
111.63145416418919
 30
0.0
 11
181.80736766905031
 21
61.631454164189222
 31
0.0
  0
ARC
  5
1369
  8
0
 10
184.4005134195917
 20
78.38145416415739
 30
0.0
 40
2.9999999999998859
 50
44.999999999999602
 51
89.999999999999446
  0
ARC
  5
136A
  8
0
 10
185.9073676690511
 20
73.631454164157276
 30
0.0
 40
1.0
 50
90.0
 51
180.0
  0
ARC
  5
136B
  8
0
 10
185.9073676690511
 20
72.631454164189222
 30
0.0
 40
1.0
 50
180.0
 51
270.0
  0
ARC
  5
136C
  8
0
 10
149.21422191853731
 20
78.381454164156565
 30
0.0
 40
2.999999999999913
 50
90.000000000002998
 51
135.00000000000321
  0
ARC
  5
136D
  8
0
 10
147.7073676690504
 20
72.631454164189222
 30
0.0
 40
1.0
 50
270.0
 51
0.0
  0
ARC
  5
136E
  8
0
 10
147.7073676690504
 20
73.63145416415648
 30
0.0
 40
0.9999999999999857
 50
0.0000000000008142
 51
90.00000000000081
  0
LINE
  5
136F
  8
0
 10
130.4929015749841
 20
79.360133820599629
 30
0.0
 11
127.9360473254946
 21
81.916988070089133
 31
0.0
  0
ARC
  5
1370
  8
0
 10
126.95736766905119
 20
75.824599914697501
 30
0.0
 40
3.0000000000000941
 50
0.0000000000021713
 51
45.000000000001727
  0
ARC
  5
1371
  8
0
 10
128.95736766905131
 20
74.131454164157248
 30
0.0
 40
1.0
 50
270.0
 51
0.0000000000016284
  0
LINE
  5
1372
  8
0
 10
125.9073676690511
 20
71.631454164189222
 30
0.0
 11
147.7073676690504
 21
71.631454164189222
 31
0.0
  0
ARC
  5
1373
  8
0
 10
116.6573676690229
 20
75.824599914642249
 30
0.0
 40
3.0000000000000711
 50
134.9999999999979
 51
179.99999999999781
  0
ARC
  5
1374
  8
0
 10
116.6573676690229
 20
75.824599914671296
 30
0.0
 40
5.0
 50
135.00000000000119
 51
180.00000000000151
  0
LINE
  5
1375
  8
0
 10
118.7073676690504
 20
72.631454164189222
 30
0.0
 11
118.7073676690504
 21
73.63145416415648
 31
0.0
  0
LINE
  5
1376
  8
0
 10
117.7073676690504
 20
74.63145416415648
 30
0.0
 11
116.5073676690504
 21
74.63145416415648
 31
0.0
  0
ARC
  5
1377
  8
0
 10
116.5073676690504
 20
74.331454164156469
 30
0.0
 40
0.3000000000000114
 50
90.000000000010857
 51
180.0000000000108
  0
LINE
  5
1378
  8
0
 10
113.6573676690229
 20
74.13145416415648
 30
0.0
 11
113.6573676690229
 21
75.824599914642363
 31
0.0
  0
LINE
  5
1379
  8
0
 10
111.6573676690229
 20
75.631454164188426
 30
0.0
 11
111.6573676690229
 21
75.824599914671182
 31
0.0
  0
ARC
  5
137A
  8
0
 10
115.9073676690503
 20
73.431454164156548
 30
0.0
 40
0.3000000000000682
 50
269.99999999997829
 51
359.99999999997829
  0
LINE
  5
137B
  8
0
 10
115.9073676690502
 20
73.13145416415648
 30
0.0
 11
114.6573676690229
 21
73.13145416415648
 31
0.0
  0
LINE
  5
137C
  8
0
 10
116.2073676690504
 20
74.331454164156412
 30
0.0
 11
116.2073676690504
 21
73.431454164156435
 31
0.0
  0
ARC
  5
137D
  8
0
 10
114.6573676690229
 20
74.13145416415648
 30
0.0
 40
1.0
 50
180.0
 51
270.0
  0
ARC
  5
137E
  8
0
 10
117.7073676690504
 20
72.631454164189222
 30
0.0
 40
1.0
 50
270.0
 51
0.0
  0
ARC
  5
137F
  8
0
 10
117.7073676690504
 20
73.63145416415648
 30
0.0
 40
1.0000000000000071
 50
0.0
 51
89.999999999999588
  0
LINE
  5
1380
  8
0
 10
129.95736766905131
 20
75.824599914697615
 30
0.0
 11
129.95736766905131
 21
74.131454164157276
 31
0.0
  0
ARC
  5
1381
  8
0
 10
127.1073676690512
 20
74.331454164157208
 30
0.0
 40
0.2999999999999545
 50
0.0
 51
90.0
  0
LINE
  5
1382
  8
0
 10
127.1073676690512
 20
74.631454164157162
 30
0.0
 11
125.9073676690511
 21
74.631454164157276
 31
0.0
  0
ARC
  5
1383
  8
0
 10
127.7073676690511
 20
73.43145416415723
 30
0.0
 40
0.2999999999999545
 50
180.0
 51
270.0
  0
LINE
  5
1384
  8
0
 10
128.95736766905131
 20
73.131454164157248
 30
0.0
 11
127.7073676690511
 21
73.131454164157276
 31
0.0
  0
LINE
  5
1385
  8
0
 10
127.4073676690511
 20
73.43145416415723
 30
0.0
 11
127.4073676690511
 21
74.331454164157208
 31
0.0
  0
LINE
  5
1386
  8
0
 10
124.9073676690511
 20
73.631454164157276
 30
0.0
 11
124.9073676690511
 21
72.631454164189222
 31
0.0
  0
ARC
  5
1387
  8
0
 10
125.9073676690511
 20
73.631454164157276
 30
0.0
 40
1.0
 50
90.0
 51
180.0
  0
ARC
  5
1388
  8
0
 10
125.9073676690511
 20
72.631454164189222
 30
0.0
 40
1.0
 50
180.0
 51
270.0
  0
LINE
  5
1389
  8
0
 10
119.21422191853701
 20
81.38145416415648
 30
0.0
 11
124.40051341959089
 21
81.38145416415648
 31
0.0
  0
ARC
  5
138A
  8
0
 10
113.5573676690158
 20
84.038308413648792
 30
0.0
 40
3.0
 50
314.99999999999989
 51
359.9999999999996
  0
LINE
  5
138B
  8
0
 10
115.67868801257529
 20
81.916988070089175
 30
0.0
 11
113.12183376309019
 21
79.360133820603934
 31
0.0
  0
ARC
  5
138C
  8
0
 10
119.21422191853731
 20
78.381454164156565
 30
0.0
 40
2.999999999999913
 50
90.000000000002998
 51
135.00000000000321
  0
LINE
  5
138D
  8
0
 10
114.5360473254634
 20
77.945920258202023
 30
0.0
 11
117.0929015749775
 21
80.502774507716026
 31
0.0
  0
ARC
  5
138E
  8
0
 10
130.0573676690542
 20
84.038308413648792
 30
0.0
 40
3.0
 50
179.99999999999969
 51
225.00000000000011
  0
ARC
  5
138F
  8
0
 10
124.4005134195922
 20
78.381454164155883
 30
0.0
 40
3.000000000000596
 50
45.000000000026681
 51
90.000000000026319
  0
LINE
  5
1390
  8
0
 10
126.52183376315131
 20
80.502774507716936
 30
0.0
 11
129.07868801261091
 21
77.945920258257274
 31
0.0
  0
ARC
  5
1391
  8
0
 10
146.6573676690229
 20
75.824599914642249
 30
0.0
 40
3.0000000000000711
 50
134.9999999999979
 51
179.99999999999781
  0
ARC
  5
1392
  8
0
 10
146.6573676690229
 20
75.824599914671296
 30
0.0
 40
5.0
 50
135.00000000000119
 51
180.00000000000151
  0
ARC
  5
1393
  8
0
 10
126.95736766905129
 20
75.824599914666905
 30
0.0
 40
5.0
 50
0.0
 51
44.999999999999361
  0
LINE
  5
1394
  8
0
 10
133.95736766905131
 20
73.631454164188369
 30
0.0
 11
139.6573676690229
 21
73.631454164188369
 31
0.0
  0
LINE
  5
1395
  8
0
 10
131.95736766905131
 20
75.631454164188369
 30
0.0
 11
131.95736766905131
 21
75.824599914666905
 31
0.0
  0
ARC
  5
1396
  8
0
 10
133.95736766905131
 20
75.631454164188369
 30
0.0
 40
2.0
 50
180.0
 51
270.0
  0
LINE
  5
1397
  8
0
 10
147.7073676690504
 20
74.631454164156452
 30
0.0
 11
146.50736766905041
 21
74.63145416415648
 31
0.0
  0
ARC
  5
1398
  8
0
 10
146.50736766905041
 20
74.331454164156469
 30
0.0
 40
0.3000000000000114
 50
90.000000000010857
 51
180.0000000000108
  0
LINE
  5
1399
  8
0
 10
141.6573676690229
 20
75.631454164188426
 30
0.0
 11
141.6573676690229
 21
75.824599914671182
 31
0.0
  0
LINE
  5
139A
  8
0
 10
143.6573676690229
 20
74.13145416415648
 30
0.0
 11
143.6573676690229
 21
75.824599914642363
 31
0.0
  0
ARC
  5
139B
  8
0
 10
145.9073676690503
 20
73.431454164156548
 30
0.0
 40
0.3000000000000682
 50
269.99999999997829
 51
359.99999999997829
  0
LINE
  5
139C
  8
0
 10
145.90736766905019
 20
73.13145416415648
 30
0.0
 11
144.6573676690229
 21
73.13145416415648
 31
0.0
  0
LINE
  5
139D
  8
0
 10
146.2073676690504
 20
74.331454164156412
 30
0.0
 11
146.2073676690504
 21
73.431454164156435
 31
0.0
  0
ARC
  5
139E
  8
0
 10
144.6573676690229
 20
74.13145416415648
 30
0.0
 40
1.0
 50
180.0
 51
270.0
  0
ARC
  5
139F
  8
0
 10
139.6573676690229
 20
75.631454164188369
 30
0.0
 40
2.0
 50
270.0
 51
0.0000000000014885
  0
ARC
  5
13A0
  8
0
 10
143.55736766901569
 20
84.038308413648792
 30
0.0
 40
3.0
 50
314.99999999999989
 51
359.9999999999996
  0
LINE
  5
13A1
  8
0
 10
145.67868801257529
 20
81.916988070089175
 30
0.0
 11
143.12183376309019
 21
79.360133820603934
 31
0.0
  0
LINE
  5
13A2
  8
0
 10
144.53604732546339
 20
77.945920258202023
 30
0.0
 11
147.0929015749775
 21
80.502774507716026
 31
0.0
  0
LINE
  5
13A3
  8
0
 10
169.6573676690229
 20
73.631454164188426
 30
0.0
 11
163.95736766905131
 21
73.631454164188426
 31
0.0
  0
LINE
  5
13A4
  8
0
 10
155.9073676690511
 20
71.631454164189222
 30
0.0
 11
177.7073676690504
 21
71.631454164189222
 31
0.0
  0
ARC
  5
13A5
  8
0
 10
156.95736766905119
 20
75.824599914697501
 30
0.0
 40
3.0000000000000941
 50
0.0000000000021713
 51
45.000000000001727
  0
ARC
  5
13A6
  8
0
 10
156.95736766905119
 20
75.824599914666805
 30
0.0
 40
5.0000000000001421
 50
0.0000000000013028
 51
45.000000000000689
  0
LINE
  5
13A7
  8
0
 10
158.95736766905131
 20
73.131454164157276
 30
0.0
 11
157.70736766905111
 21
73.131454164157276
 31
0.0
  0
ARC
  5
13A8
  8
0
 10
157.1073676690512
 20
74.331454164157208
 30
0.0
 40
0.2999999999999545
 50
0.0
 51
90.0
  0
LINE
  5
13A9
  8
0
 10
157.1073676690512
 20
74.631454164157162
 30
0.0
 11
155.9073676690511
 21
74.631454164157276
 31
0.0
  0
ARC
  5
13AA
  8
0
 10
157.70736766905111
 20
73.43145416415723
 30
0.0
 40
0.2999999999999545
 50
180.0
 51
270.0
  0
LINE
  5
13AB
  8
0
 10
157.4073676690511
 20
73.43145416415723
 30
0.0
 11
157.4073676690511
 21
74.331454164157208
 31
0.0
  0
LINE
  5
13AC
  8
0
 10
154.9073676690511
 20
73.631454164157276
 30
0.0
 11
154.9073676690511
 21
72.631454164189222
 31
0.0
  0
LINE
  5
13AD
  8
0
 10
148.7073676690504
 20
72.631454164189222
 30
0.0
 11
148.7073676690504
 21
73.63145416415648
 31
0.0
  0
ARC
  5
13AE
  8
0
 10
155.9073676690511
 20
72.631454164189222
 30
0.0
 40
1.0
 50
180.0
 51
270.0
  0
ARC
  5
13AF
  8
0
 10
155.9073676690511
 20
73.631454164157276
 30
0.0
 40
1.0
 50
90.0
 51
180.0
  0
LINE
  5
13B0
  8
0
 10
161.95736766905131
 20
75.631454164188426
 30
0.0
 11
161.95736766905131
 21
75.824599914666905
 31
0.0
  0
LINE
  5
13B1
  8
0
 10
159.95736766905131
 20
75.824599914697615
 30
0.0
 11
159.95736766905131
 21
74.131454164157276
 31
0.0
  0
ARC
  5
13B2
  8
0
 10
158.95736766905131
 20
74.131454164157248
 30
0.0
 40
0.9999999999999715
 50
269.99999999999841
 51
0.0000000000016284
  0
ARC
  5
13B3
  8
0
 10
163.95736766905131
 20
75.631454164188426
 30
0.0
 40
2.0
 50
180.0
 51
270.0
  0
ARC
  5
13B4
  8
0
 10
160.0573676690542
 20
84.038308413648735
 30
0.0
 40
2.9999999999999329
 50
179.9999999999967
 51
224.9999999999971
  0
LINE
  5
13B5
  8
0
 10
156.52183376315131
 20
80.502774507716936
 30
0.0
 11
159.07868801261091
 21
77.945920258257274
 31
0.0
  0
LINE
  5
13B6
  8
0
 10
149.21422191853711
 20
81.38145416415648
 30
0.0
 11
154.40051341959091
 21
81.38145416415648
 31
0.0
  0
ARC
  5
13B7
  8
0
 10
154.40051341959219
 20
78.381454164155883
 30
0.0
 40
3.000000000000596
 50
45.000000000026681
 51
90.000000000026319
  0
LINE
  5
13B8
  8
0
 10
160.49290157498399
 20
79.360133820599685
 30
0.0
 11
157.9360473254944
 21
81.916988070089246
 31
0.0
  0
ARC
  5
13B9
  8
0
 10
176.6573676690229
 20
75.824599914642249
 30
0.0
 40
3.0000000000000711
 50
134.9999999999979
 51
179.99999999999781
  0
ARC
  5
13BA
  8
0
 10
176.6573676690229
 20
75.824599914671438
 30
0.0
 40
4.9999999999999387
 50
135.00000000000199
 51
180.0000000000023
  0
ARC
  5
13BB
  8
0
 10
176.5073676690503
 20
74.331454164156469
 30
0.0
 40
0.3000000000000114
 50
90.000000000010857
 51
180.0000000000108
  0
LINE
  5
13BC
  8
0
 10
171.6573676690229
 20
75.824599914671239
 30
0.0
 11
171.6573676690229
 21
75.63145416418854
 31
0.0
  0
LINE
  5
13BD
  8
0
 10
173.6573676690229
 20
74.13145416415648
 30
0.0
 11
173.6573676690229
 21
75.824599914642363
 31
0.0
  0
ARC
  5
13BE
  8
0
 10
175.9073676690503
 20
73.431454164156548
 30
0.0
 40
0.3000000000000682
 50
269.99999999997829
 51
359.99999999997829
  0
LINE
  5
13BF
  8
0
 10
175.90736766905019
 20
73.13145416415648
 30
0.0
 11
174.6573676690229
 21
73.13145416415648
 31
0.0
  0
LINE
  5
13C0
  8
0
 10
176.2073676690504
 20
74.331454164156412
 30
0.0
 11
176.2073676690504
 21
73.431454164156435
 31
0.0
  0
ARC
  5
13C1
  8
0
 10
174.6573676690229
 20
74.13145416415648
 30
0.0
 40
1.0
 50
180.0
 51
270.0
  0
ARC
  5
13C2
  8
0
 10
169.6573676690229
 20
75.631454164188455
 30
0.0
 40
2.000000000000028
 50
270.0000000000008
 51
0.0000000000024427
  0
LINE
  5
13C3
  8
0
 10
184.9073676690511
 20
73.631454164157276
 30
0.0
 11
184.9073676690511
 21
72.631454164189222
 31
0.0
  0
LINE
  5
13C4
  8
0
 10
178.7073676690504
 20
72.631454164189222
 30
0.0
 11
178.7073676690504
 21
73.63145416415648
 31
0.0
  0
LINE
  5
13C5
  8
0
 10
177.7073676690504
 20
74.63145416415648
 30
0.0
 11
176.5073676690503
 21
74.63145416415648
 31
0.0
  0
ARC
  5
13C6
  8
0
 10
177.7073676690504
 20
72.631454164189222
 30
0.0
 40
1.0
 50
270.0
 51
0.0
  0
ARC
  5
13C7
  8
0
 10
177.7073676690504
 20
73.63145416415648
 30
0.0
 40
1.0
 50
0.0
 51
90.0
  0
ARC
  5
13C8
  8
0
 10
173.5573676690156
 20
84.03830841364902
 30
0.0
 40
3.0000000000000848
 50
314.99999999999812
 51
359.99999999999778
  0
LINE
  5
13C9
  8
0
 10
174.53604732546339
 20
77.945920258202023
 30
0.0
 11
177.0929015749775
 21
80.502774507716026
 31
0.0
  0
LINE
  5
13CA
  8
0
 10
175.67868801257529
 20
81.916988070089246
 30
0.0
 11
173.12183376309011
 21
79.360133820604005
 31
0.0
  0
LINE
  5
13CB
  8
0
 10
179.21422191853711
 20
81.38145416415648
 30
0.0
 11
184.4005134195917
 21
81.381454164157276
 31
0.0
  0
ARC
  5
13CC
  8
0
 10
179.21422191853731
 20
78.381454164156565
 30
0.0
 40
2.999999999999913
 50
90.000000000002998
 51
135.00000000000321
  0
ARC
  5
13D1
  8
0
 10
186.95736766905111
 20
75.824599914697785
 30
0.0
 40
2.9999999999999729
 50
359.99999999999682
 51
44.999999999996341
  0
LINE
  5
13D2
  8
0
 10
196.80736766905031
 20
74.631454164189222
 30
0.0
 11
196.80736766905031
 21
82.531454164189313
 31
0.0
  0
ARC
  5
13D3
  8
0
 10
193.80736766905031
 20
74.631454164189222
 30
0.0
 40
3.0
 50
270.0
 51
0.0
  0
ARC
  5
13D4
  8
0
 10
193.80736766905011
 20
74.631454164161923
 30
0.0
 40
1.5
 50
270.0
 51
359.99999999999937
  0
LINE
  5
13D5
  8
0
 10
191.7573676690547
 20
76.981454164161846
 30
0.0
 11
195.0073676690501
 21
76.981454164161846
 31
0.0
  0
ARC
  5
13D6
  8
0
 10
191.7573676690547
 20
76.681454164161892
 30
0.0
 40
0.2999999999999545
 50
90.0
 51
179.99999999986969
  0
LINE
  5
13D7
  8
0
 10
189.95736766905111
 20
75.824599914697615
 30
0.0
 11
189.95736766905111
 21
74.131454164157276
 31
0.0
  0
ARC
  5
13D8
  8
0
 10
187.1073676690512
 20
74.331454164157265
 30
0.0
 40
0.3000000000000114
 50
359.99999999998909
 51
89.999999999989143
  0
LINE
  5
13D9
  8
0
 10
187.1073676690512
 20
74.631454164157276
 30
0.0
 11
185.9073676690511
 21
74.631454164157276
 31
0.0
  0
ARC
  5
13DA
  8
0
 10
191.7573676690474
 20
73.431454164161892
 30
0.0
 40
0.2999999999999545
 50
179.99999999986969
 51
270.0
  0
ARC
  5
13DB
  8
0
 10
187.70736766905111
 20
73.43145416415723
 30
0.0
 40
0.2999999999999545
 50
180.0
 51
270.0
  0
LINE
  5
13DC
  8
0
 10
188.95736766905111
 20
73.131454164157276
 30
0.0
 11
187.70736766905111
 21
73.131454164157276
 31
0.0
  0
ARC
  5
13DD
  8
0
 10
188.95736766905111
 20
74.131454164157248
 30
0.0
 40
0.9999999999999715
 50
269.99999999999841
 51
0.0000000000016284
  0
LINE
  5
13DE
  8
0
 10
191.4573676690475
 20
73.431454164162574
 30
0.0
 11
191.45736766905469
 21
76.681454164162574
 31
0.0
  0
LINE
  5
13DF
  8
0
 10
187.4073676690511
 20
73.43145416415723
 30
0.0
 11
187.4073676690511
 21
74.331454164157208
 31
0.0
  0
LINE
  5
13E0
  8
0
 10
193.80736766905011
 20
73.131454164161937
 30
0.0
 11
191.7573676690474
 21
73.131454164161937
 31
0.0
  0
LINE
  5
13E1
  8
0
 10
185.9073676690511
 20
71.631454164189222
 30
0.0
 11
193.80736766905031
 21
71.631454164189222
 31
0.0
  0
ARC
  5
13E2
  8
0
 10
195.0073676690501
 20
76.681454164161892
 30
0.0
 40
0.2999999999999545
 50
0.0
 51
90.0
  0
LINE
  5
13E3
  8
0
 10
195.30736766905011
 20
76.681454164161892
 30
0.0
 11
195.30736766905011
 21
74.631454164161923
 31
0.0
  0
LINE
  5
13E4
  8
0
 10
195.80736766905031
 20
83.531454164189299
 30
0.0
 11
194.80736766908311
 21
83.531454164189299
 31
0.0
  0
LINE
  5
13E5
  8
0
 10
194.107367669083
 20
81.031454164189299
 30
0.0
 11
195.0073676690831
 21
81.031454164189299
 31
0.0
  0
ARC
  5
13E6
  8
0
 10
194.30736766908311
 20
79.481454164161946
 30
0.0
 40
1.0
 50
270.0
 51
0.0
  0
LINE
  5
13E7
  8
0
 10
193.80736766908299
 20
82.531454164189313
 30
0.0
 11
193.80736766908299
 21
81.331454164189253
 31
0.0
  0
ARC
  5
13E8
  8
0
 10
194.107367669083
 20
81.331454164189253
 30
0.0
 40
0.2999999999999545
 50
180.0
 51
270.0
  0
ARC
  5
13E9
  8
0
 10
194.80736766908311
 20
82.531454164189313
 30
0.0
 40
1.0
 50
90.0
 51
180.0
  0
ARC
  5
13EA
  8
0
 10
190.05736766908299
 20
84.038308413648636
 30
0.0
 40
2.9999999999996918
 50
179.99999999999889
 51
224.99999999999869
  0
LINE
  5
13EB
  8
0
 10
190.49290157501011
 20
79.3601338206023
 30
0.0
 11
187.9360473255235
 21
81.916988070089246
 31
0.0
  0
LINE
  5
13EC
  8
0
 10
194.30736766908311
 20
78.48145416416196
 30
0.0
 11
192.61422191856991
 21
78.481454164162074
 31
0.0
  0
ARC
  5
13ED
  8
0
 10
192.61422191856971
 20
81.481454164162116
 30
0.0
 40
3.000000000000028
 50
225.00000000000389
 51
270.00000000000489
  0
LINE
  5
13EE
  8
0
 10
186.52183376315131
 20
80.502774507716936
 30
0.0
 11
189.07868801261091
 21
77.945920258257274
 31
0.0
  0
ARC
  5
13EF
  8
0
 10
195.0073676690831
 20
80.731454164189358
 30
0.0
 40
0.2999999999999545
 50
0.0
 51
90.0
  0
LINE
  5
13F0
  8
0
 10
195.30736766908311
 20
80.731454164189358
 30
0.0
 11
195.30736766908311
 21
79.481454164161946
 31
0.0
  0
ARC
  5
13F1
  8
0
 10
195.80736766905031
 20
82.531454164189313
 30
0.0
 40
1.0
 50
0.0
 51
90.0
  0
ARC
  5
13F2
  8
0
 10
185.90736766907841
 20
100.63145416418919
 30
0.0
 40
1.0
 50
90.0
 51
180.0
  0
ARC
  5
13F3
  8
0
 10
185.90736766907841
 20
99.631454164195816
 30
0.0
 40
1.0
 50
180.0
 51
270.0
  0
ARC
  5
13F4
  8
0
 10
184.4005134195902
 20
94.881454164196299
 30
0.0
 40
3.00000000000139
 50
270.00000000001239
 51
315.00000000001307
  0
ARC
  5
13FA
  8
0
 10
147.70736766907751
 20
100.63145416418919
 30
0.0
 40
1.0
 50
0.0
 51
90.0
  0
ARC
  5
13FB
  8
0
 10
147.70736766907751
 20
99.631454164194906
 30
0.0
 40
1.0
 50
270.0
 51
0.0
  0
ARC
  5
13FC
  8
0
 10
149.21422191853731
 20
94.881454164194835
 30
0.0
 40
2.9999999999999432
 50
224.9999999999969
 51
269.99999999999682
  0
ARC
  5
13FD
  8
0
 10
125.9073676690784
 20
100.63145416418919
 30
0.0
 40
1.0
 50
90.0
 51
180.0
  0
ARC
  5
13FE
  8
0
 10
117.7073676690775
 20
100.63145416418919
 30
0.0
 40
1.0
 50
0.0
 51
90.0
  0
ARC
  5
13FF
  8
0
 10
126.95736766907839
 20
97.438308413682435
 30
0.0
 40
3.000000000000056
 50
315.00000000000381
 51
0.0000000000043425
  0
LINE
  5
1400
  8
0
 10
127.9360473254946
 20
91.345920258262126
 30
0.0
 11
130.4929015750111
 21
93.902774507778645
 31
0.0
  0
ARC
  5
1401
  8
0
 10
128.95736766907839
 20
99.131454164195816
 30
0.0
 40
1.0
 50
0.0
 51
90.0
  0
LINE
  5
1402
  8
0
 10
129.07868801263811
 20
95.316988070122875
 30
0.0
 11
126.52183376315131
 21
92.760133820636156
 31
0.0
  0
LINE
  5
1403
  8
0
 10
113.12183376311749
 20
93.902774507720153
 30
0.0
 11
115.67868801257541
 21
91.345920258262197
 31
0.0
  0
LINE
  5
1404
  8
0
 10
117.0929015749775
 20
92.760133820635374
 30
0.0
 11
114.5360473254904
 21
95.316988070122306
 31
0.0
  0
LINE
  5
1405
  8
0
 10
124.40051341959089
 20
91.881454164194906
 30
0.0
 11
119.21422191853701
 21
91.881454164194906
 31
0.0
  0
ARC
  5
1406
  8
0
 10
113.5573676690158
 20
89.224599914702523
 30
0.0
 40
3.0
 50
359.9999999999996
 51
44.999999999999901
  0
ARC
  5
1407
  8
0
 10
119.21422191853731
 20
94.881454164194835
 30
0.0
 40
2.9999999999999432
 50
224.9999999999969
 51
269.99999999999682
  0
ARC
  5
1408
  8
0
 10
124.4005134195902
 20
94.881454164196313
 30
0.0
 40
3.0000000000014162
 50
270.00000000001262
 51
315.00000000001279
  0
ARC
  5
1409
  8
0
 10
130.05736766905429
 20
89.22459991470248
 30
0.0
 40
3.0
 50
135.0
 51
179.99999999999969
  0
LINE
  5
140A
  8
0
 10
114.6573676690502
 20
100.13145416419491
 30
0.0
 11
115.9073676690775
 21
100.13145416419491
 31
0.0
  0
LINE
  5
140B
  8
0
 10
116.2073676690775
 20
99.831454164194966
 30
0.0
 11
116.2073676690777
 21
98.931454164195088
 31
0.0
  0
ARC
  5
140C
  8
0
 10
116.50736766907779
 20
98.931454164194975
 30
0.0
 40
0.3000000000000682
 50
179.99999999997829
 51
269.99999999997829
  0
LINE
  5
140D
  8
0
 10
116.5073676690776
 20
98.631454164194921
 30
0.0
 11
117.7073676690775
 21
98.631454164194921
 31
0.0
  0
LINE
  5
140E
  8
0
 10
111.6573676690501
 20
97.631454164188355
 30
0.0
 11
111.6573676690501
 21
97.438308413652919
 31
0.0
  0
LINE
  5
140F
  8
0
 10
113.6573676690502
 20
97.438308413681739
 30
0.0
 11
113.6573676690502
 21
99.131454164194906
 31
0.0
  0
ARC
  5
1410
  8
0
 10
116.65736766905
 20
97.438308413681725
 30
0.0
 40
2.9999999999997371
 50
179.9999999999994
 51
224.99999999999849
  0
ARC
  5
1411
  8
0
 10
117.7073676690775
 20
99.631454164194906
 30
0.0
 40
1.0
 50
270.0
 51
0.0
  0
LINE
  5
1412
  8
0
 10
118.7073676690775
 20
99.631454164194906
 30
0.0
 11
118.7073676690775
 21
100.63145416418919
 31
0.0
  0
ARC
  5
1413
  8
0
 10
114.6573676690502
 20
99.131454164194906
 30
0.0
 40
1.0
 50
90.0
 51
180.0
  0
ARC
  5
1414
  8
0
 10
115.9073676690775
 20
99.831454164194966
 30
0.0
 40
0.2999999999999545
 50
0.0
 51
90.0
  0
LINE
  5
1415
  8
0
 10
127.70736766907839
 20
100.1314541641958
 30
0.0
 11
128.95736766907839
 21
100.1314541641958
 31
0.0
  0
LINE
  5
1416
  8
0
 10
129.95736766907839
 20
99.131454164195816
 30
0.0
 11
129.95736766907839
 21
97.438308413682634
 31
0.0
  0
LINE
  5
1417
  8
0
 10
125.9073676690784
 20
98.631454164195816
 30
0.0
 11
127.1073676690785
 21
98.631454164195816
 31
0.0
  0
ARC
  5
1418
  8
0
 10
127.1073676690785
 20
98.931454164195785
 30
0.0
 40
0.2999999999999545
 50
270.0
 51
0.0
  0
LINE
  5
1419
  8
0
 10
127.4073676690784
 20
98.931454164195785
 30
0.0
 11
127.4073676690784
 21
99.831454164195875
 31
0.0
  0
ARC
  5
141A
  8
0
 10
125.9073676690784
 20
99.631454164195816
 30
0.0
 40
1.0000000000000071
 50
180.0
 51
269.9999999999996
  0
LINE
  5
141B
  8
0
 10
124.9073676690784
 20
100.63145416418919
 30
0.0
 11
124.9073676690784
 21
99.631454164195816
 31
0.0
  0
ARC
  5
141C
  8
0
 10
127.70736766907839
 20
99.831454164195875
 30
0.0
 40
0.2999999999999545
 50
90.0
 51
180.0
  0
LINE
  5
141D
  8
0
 10
143.12183376311751
 20
93.902774507720153
 30
0.0
 11
145.67868801257541
 21
91.345920258262197
 31
0.0
  0
LINE
  5
141E
  8
0
 10
147.0929015749775
 20
92.760133820635374
 30
0.0
 11
144.5360473254905
 21
95.316988070122306
 31
0.0
  0
ARC
  5
141F
  8
0
 10
143.55736766901569
 20
89.224599914702523
 30
0.0
 40
3.0
 50
359.9999999999996
 51
44.999999999999901
  0
LINE
  5
1420
  8
0
 10
133.95736766907851
 20
99.631454164188369
 30
0.0
 11
139.6573676690501
 21
99.631454164188369
 31
0.0
  0
LINE
  5
1421
  8
0
 10
131.95736766907851
 20
97.631454164188355
 30
0.0
 11
131.95736766907851
 21
97.438308413711525
 31
0.0
  0
ARC
  5
1422
  8
0
 10
126.95736766907849
 20
97.438308413711425
 30
0.0
 40
5.0
 50
314.99999999999932
 51
0.0000000000014885
  0
ARC
  5
1423
  8
0
 10
133.95736766907851
 20
97.631454164188355
 30
0.0
 40
2.0
 50
90.0
 51
180.00000000000071
  0
LINE
  5
1424
  8
0
 10
144.65736766905019
 20
100.13145416419491
 30
0.0
 11
145.9073676690775
 21
100.13145416419491
 31
0.0
  0
LINE
  5
1425
  8
0
 10
146.20736766907751
 20
99.831454164194966
 30
0.0
 11
146.20736766907771
 21
98.931454164195088
 31
0.0
  0
ARC
  5
1426
  8
0
 10
146.50736766907781
 20
98.931454164194975
 30
0.0
 40
0.3000000000000682
 50
179.99999999997829
 51
269.99999999997829
  0
LINE
  5
1427
  8
0
 10
146.50736766907761
 20
98.631454164194921
 30
0.0
 11
147.70736766907751
 21
98.631454164194921
 31
0.0
  0
LINE
  5
1428
  8
0
 10
141.6573676690501
 20
97.631454164188355
 30
0.0
 11
141.6573676690501
 21
97.438308413652919
 31
0.0
  0
LINE
  5
1429
  8
0
 10
143.65736766905019
 20
97.438308413681739
 30
0.0
 11
143.65736766905019
 21
99.131454164194906
 31
0.0
  0
ARC
  5
142A
  8
0
 10
146.65736766904999
 20
97.438308413681725
 30
0.0
 40
2.999999999999742
 50
179.9999999999994
 51
224.99999999999849
  0
ARC
  5
142B
  8
0
 10
146.6573676690501
 20
97.438308413652919
 30
0.0
 40
5.0
 50
180.0
 51
225.00000000000031
  0
ARC
  5
142C
  8
0
 10
145.9073676690775
 20
99.831454164194966
 30
0.0
 40
0.2999999999999545
 50
0.0
 51
90.0
  0
ARC
  5
142D
  8
0
 10
144.65736766905019
 20
99.131454164194906
 30
0.0
 40
1.0
 50
90.0
 51
180.0
  0
ARC
  5
142E
  8
0
 10
139.6573676690501
 20
97.631454164188355
 30
0.0
 40
2.0
 50
359.9999999999992
 51
90.0
  0
LINE
  5
142F
  8
0
 10
147.70736766907751
 20
101.63145416418919
 30
0.0
 11
125.9073676690784
 21
101.63145416418919
 31
0.0
  0
ARC
  5
1430
  8
0
 10
177.70736766907751
 20
100.63145416418919
 30
0.0
 40
1.0
 50
0.0
 51
90.0
  0
ARC
  5
1431
  8
0
 10
155.90736766907841
 20
100.63145416418919
 30
0.0
 40
1.0
 50
90.0
 51
180.0
  0
LINE
  5
1432
  8
0
 10
163.95736766907839
 20
99.631454164188526
 30
0.0
 11
169.65736766904999
 21
99.631454164188526
 31
0.0
  0
LINE
  5
1433
  8
0
 10
157.9360473254946
 20
91.345920258262254
 30
0.0
 11
160.49290157501099
 21
93.902774507778759
 31
0.0
  0
LINE
  5
1434
  8
0
 10
159.0786880126382
 20
95.316988070122875
 30
0.0
 11
156.52183376315131
 21
92.760133820636156
 31
0.0
  0
ARC
  5
1435
  8
0
 10
160.0573676690544
 20
89.224599914702424
 30
0.0
 40
3.0000000000002269
 50
134.9999999999992
 51
179.99999999999889
  0
LINE
  5
1436
  8
0
 10
154.40051341959091
 20
91.881454164194906
 30
0.0
 11
149.21422191853711
 21
91.881454164194906
 31
0.0
  0
ARC
  5
1437
  8
0
 10
154.4005134195902
 20
94.881454164196299
 30
0.0
 40
3.00000000000139
 50
270.00000000001239
 51
315.00000000001307
  0
LINE
  5
1438
  8
0
 10
157.70736766907839
 20
100.1314541641958
 30
0.0
 11
158.95736766907839
 21
100.1314541641958
 31
0.0
  0
LINE
  5
1439
  8
0
 10
155.90736766907841
 20
98.631454164195816
 30
0.0
 11
157.10736766907851
 21
98.631454164195816
 31
0.0
  0
ARC
  5
143A
  8
0
 10
157.10736766907851
 20
98.931454164195785
 30
0.0
 40
0.2999999999999545
 50
270.0
 51
0.0
  0
LINE
  5
143B
  8
0
 10
157.40736766907841
 20
98.931454164195785
 30
0.0
 11
157.40736766907841
 21
99.831454164195875
 31
0.0
  0
ARC
  5
143C
  8
0
 10
155.90736766907841
 20
99.631454164195816
 30
0.0
 40
1.0
 50
180.0
 51
270.0
  0
ARC
  5
143D
  8
0
 10
157.70736766907839
 20
99.831454164195875
 30
0.0
 40
0.2999999999999545
 50
90.0
 51
180.0
  0
LINE
  5
143E
  8
0
 10
154.90736766907841
 20
100.63145416418919
 30
0.0
 11
154.90736766907841
 21
99.631454164195816
 31
0.0
  0
LINE
  5
143F
  8
0
 10
148.70736766907751
 20
99.631454164194906
 30
0.0
 11
148.70736766907751
 21
100.63145416418919
 31
0.0
  0
LINE
  5
1440
  8
0
 10
161.95736766907839
 20
97.438308413711525
 30
0.0
 11
161.95736766907839
 21
97.63145416418854
 31
0.0
  0
LINE
  5
1441
  8
0
 10
159.95736766907839
 20
99.131454164195816
 30
0.0
 11
159.95736766907839
 21
97.438308413682634
 31
0.0
  0
ARC
  5
1442
  8
0
 10
156.95736766907839
 20
97.438308413682435
 30
0.0
 40
3.000000000000056
 50
315.00000000000381
 51
0.0000000000043425
  0
ARC
  5
1443
  8
0
 10
156.95736766907851
 20
97.438308413711525
 30
0.0
 40
4.9999999999998588
 50
314.9999999999979
 51
0.0
  0
ARC
  5
1444
  8
0
 10
158.95736766907839
 20
99.131454164195816
 30
0.0
 40
1.0
 50
0.0
 51
90.0
  0
ARC
  5
1445
  8
0
 10
163.95736766907839
 20
97.63145416418854
 30
0.0
 40
1.9999999999999849
 50
89.999999999999588
 51
180.0
  0
LINE
  5
1446
  8
0
 10
173.12183376311731
 20
93.902774507720324
 30
0.0
 11
175.67868801257529
 21
91.345920258262254
 31
0.0
  0
LINE
  5
1447
  8
0
 10
177.0929015749775
 20
92.760133820635374
 30
0.0
 11
174.5360473254905
 21
95.316988070122306
 31
0.0
  0
ARC
  5
1448
  8
0
 10
173.55736766901589
 20
89.224599914702523
 30
0.0
 40
2.9999999999999232
 50
0.0000000000032569
 51
45.000000000003453
  0
LINE
  5
1449
  8
0
 10
184.40051341959079
 20
91.881454164194906
 30
0.0
 11
179.21422191853711
 21
91.881454164194906
 31
0.0
  0
ARC
  5
144A
  8
0
 10
179.21422191853731
 20
94.881454164194835
 30
0.0
 40
2.9999999999999432
 50
224.9999999999969
 51
269.99999999999682
  0
ARC
  5
144B
  8
0
 10
176.50736766907781
 20
98.931454164194975
 30
0.0
 40
0.3000000000000682
 50
179.99999999997829
 51
269.99999999997829
  0
LINE
  5
144C
  8
0
 10
174.65736766905019
 20
100.13145416419491
 30
0.0
 11
175.9073676690775
 21
100.13145416419491
 31
0.0
  0
LINE
  5
144D
  8
0
 10
176.20736766907751
 20
99.831454164194966
 30
0.0
 11
176.20736766907771
 21
98.931454164195088
 31
0.0
  0
ARC
  5
144E
  8
0
 10
176.65736766904999
 20
97.438308413681725
 30
0.0
 40
2.999999999999742
 50
179.9999999999994
 51
224.99999999999849
  0
LINE
  5
144F
  8
0
 10
171.65736766904999
 20
97.63145416418854
 30
0.0
 11
171.65736766904999
 21
97.438308413653075
 31
0.0
  0
LINE
  5
1450
  8
0
 10
173.65736766905019
 20
97.438308413681739
 30
0.0
 11
173.65736766905019
 21
99.131454164194906
 31
0.0
  0
ARC
  5
1451
  8
0
 10
176.65736766904999
 20
97.438308413653161
 30
0.0
 40
5.0000000000000417
 50
180.00000000000071
 51
225.00000000000111
  0
ARC
  5
1452
  8
0
 10
174.65736766905019
 20
99.131454164194906
 30
0.0
 40
1.0
 50
90.0
 51
180.0
  0
ARC
  5
1453
  8
0
 10
175.9073676690775
 20
99.831454164194966
 30
0.0
 40
0.2999999999999545
 50
0.0
 51
90.0
  0
ARC
  5
1454
  8
0
 10
169.65736766904999
 20
97.63145416418854
 30
0.0
 40
2.0
 50
0.0
 51
90.000000000000398
  0
LINE
  5
1455
  8
0
 10
176.50736766907761
 20
98.631454164194921
 30
0.0
 11
177.70736766907751
 21
98.631454164194921
 31
0.0
  0
ARC
  5
1456
  8
0
 10
177.70736766907751
 20
99.631454164194906
 30
0.0
 40
1.0
 50
270.0
 51
0.0
  0
LINE
  5
1457
  8
0
 10
184.90736766907841
 20
100.63145416418919
 30
0.0
 11
184.90736766907841
 21
99.631454164195816
 31
0.0
  0
LINE
  5
1458
  8
0
 10
178.70736766907751
 20
99.631454164194906
 30
0.0
 11
178.70736766907751
 21
100.63145416418919
 31
0.0
  0
LINE
  5
1459
  8
0
 10
177.70736766907751
 20
101.63145416418919
 30
0.0
 11
155.90736766907841
 21
101.63145416418919
 31
0.0
  0
ARC
  5
1464
  8
0
 10
193.80736766905031
 20
98.631454164189236
 30
0.0
 40
3.0
 50
0.0
 51
90.0
  0
LINE
  5
1465
  8
0
 10
195.30736766908311
 20
93.78145416418954
 30
0.0
 11
195.30736766908311
 21
92.531454164189313
 31
0.0
  0
LINE
  5
1466
  8
0
 10
196.80736766905031
 20
90.73145416418933
 30
0.0
 11
196.80736766905031
 21
98.631454164189236
 31
0.0
  0
LINE
  5
1467
  8
0
 10
187.9360473255235
 20
91.345920258262254
 30
0.0
 11
190.49290157501039
 21
93.9027745077492
 31
0.0
  0
LINE
  5
1468
  8
0
 10
189.07868801263791
 20
95.316988070122875
 30
0.0
 11
186.52183376315131
 21
92.760133820636156
 31
0.0
  0
LINE
  5
1469
  8
0
 10
195.0073676690831
 20
92.231454164189344
 30
0.0
 11
194.107367669083
 21
92.231454164189344
 31
0.0
  0
LINE
  5
146A
  8
0
 10
194.80736766908311
 20
89.731454164189344
 30
0.0
 11
195.80736766905031
 21
89.73145416418933
 31
0.0
  0
ARC
  5
146B
  8
0
 10
194.107367669083
 20
91.931454164189404
 30
0.0
 40
0.2999999999999545
 50
90.0
 51
180.0
  0
LINE
  5
146C
  8
0
 10
193.80736766908299
 20
91.931454164189404
 30
0.0
 11
193.80736766908299
 21
90.731454164189358
 31
0.0
  0
ARC
  5
146D
  8
0
 10
194.80736766908311
 20
90.731454164189358
 30
0.0
 40
1.0
 50
180.0
 51
270.0
  0
ARC
  5
146E
  8
0
 10
190.05736766908331
 20
89.224599914702424
 30
0.0
 40
3.0000000000001839
 50
134.99999999999861
 51
179.99999999999889
  0
ARC
  5
146F
  8
0
 10
195.0073676690831
 20
92.531454164189313
 30
0.0
 40
0.2999999999999545
 50
270.0
 51
0.0
  0
ARC
  5
1470
  8
0
 10
195.80736766905031
 20
90.73145416418933
 30
0.0
 40
1.0
 50
270.0
 51
0.0
  0
ARC
  5
1471
  8
0
 10
194.30736766908311
 20
93.78145416418954
 30
0.0
 40
1.0
 50
0.0
 51
90.0
  0
ARC
  5
1472
  8
0
 10
193.80736766907739
 20
98.631454164189236
 30
0.0
 40
1.5
 50
0.0
 51
90.0
  0
LINE
  5
1473
  8
0
 10
191.7573676690767
 20
96.28145416419386
 30
0.0
 11
195.0073676690767
 21
96.281454164186584
 31
0.0
  0
LINE
  5
1474
  8
0
 10
187.70736766907839
 20
100.1314541641958
 30
0.0
 11
188.95736766907839
 21
100.1314541641958
 31
0.0
  0
ARC
  5
1475
  8
0
 10
191.75736766907741
 20
96.581454164193815
 30
0.0
 40
0.2999999999999545
 50
180.0
 51
269.99999999986971
  0
LINE
  5
1476
  8
0
 10
189.95736766907839
 20
99.131454164195816
 30
0.0
 11
189.95736766907839
 21
97.438308413682634
 31
0.0
  0
LINE
  5
1477
  8
0
 10
191.45736766907751
 20
99.831454164189282
 30
0.0
 11
191.45736766907751
 21
96.581454164193815
 31
0.0
  0
LINE
  5
1478
  8
0
 10
185.90736766907841
 20
98.631454164195816
 30
0.0
 11
187.10736766907851
 21
98.631454164195816
 31
0.0
  0
ARC
  5
1479
  8
0
 10
187.10736766907851
 20
98.931454164195785
 30
0.0
 40
0.2999999999999545
 50
270.0
 51
0.0
  0
LINE
  5
147A
  8
0
 10
187.40736766907841
 20
98.931454164195785
 30
0.0
 11
187.40736766907841
 21
99.831454164195875
 31
0.0
  0
ARC
  5
147B
  8
0
 10
186.9573676690782
 20
97.438308413682677
 30
0.0
 40
3.0000000000001701
 50
314.99999999999881
 51
359.99999999999937
  0
ARC
  5
147C
  8
0
 10
192.61422191856991
 20
91.781454164189654
 30
0.0
 40
2.9999999999999032
 50
90.00000000000108
 51
135.00000000000071
  0
ARC
  5
147D
  8
0
 10
188.95736766907839
 20
99.131454164195816
 30
0.0
 40
1.0
 50
0.0
 51
90.0
  0
ARC
  5
147E
  8
0
 10
191.75736766907741
 20
99.831454164189282
 30
0.0
 40
0.2999999999999545
 50
90.0
 51
180.0
  0
ARC
  5
147F
  8
0
 10
187.70736766907839
 20
99.831454164195875
 30
0.0
 40
0.2999999999999545
 50
90.0
 51
180.0
  0
LINE
  5
1480
  8
0
 10
193.80736766907739
 20
100.13145416418919
 30
0.0
 11
191.75736766907741
 21
100.13145416418919
 31
0.0
  0
LINE
  5
1481
  8
0
 10
192.61422191856991
 20
94.78145416418954
 30
0.0
 11
194.30736766908311
 21
94.78145416418954
 31
0.0
  0
ARC
  5
1482
  8
0
 10
195.00736766907741
 20
96.581454164186553
 30
0.0
 40
0.2999999999999545
 50
269.99999999986971
 51
0.0
  0
LINE
  5
1483
  8
0
 10
195.30736766907739
 20
96.581454164186553
 30
0.0
 11
195.30736766907739
 21
98.631454164189236
 31
0.0
  0
LINE
  5
1484
  8
0
 10
193.80736766905031
 20
101.63145416418919
 30
0.0
 11
185.90736766907841
 21
101.63145416418919
 31
0.0
  0
LINE
  5
148B
  8
0
 10
231.1947712028564
 20
71.631454164189222
 30
0.0
 11
231.1947712028564
 21
101.63145416418919
 31
0.0
  0
LINE
  5
148C
  8
0
 10
331.19477120285637
 20
71.631454164189222
 30
0.0
 11
331.19477120285637
 21
101.63145416418919
 31
0.0
  0
LINE
  5
148D
  8
0
 10
231.1947712028564
 20
83.531454164189299
 30
0.0
 11
331.19477120285637
 21
83.531454164189299
 31
0.0
  0
LINE
  5
148E
  8
0
 10
231.1947712028564
 20
71.631454164189222
 30
0.0
 11
331.19477120285637
 21
71.631454164189222
 31
0.0
  0
LINE
  5
1491
  8
0
 10
231.1947712028564
 20
101.63145416418919
 30
0.0
 11
331.19477120285637
 21
101.63145416418919
 31
0.0
  0
LINE
  5
1492
  8
0
 10
231.1947712028564
 20
89.73145416418933
 30
0.0
 11
331.19477120285637
 21
89.731454164189344
 31
0.0
  0
LINE
  5
1499
  8
1
 10
180.7456065906733
 20
138.52188859750871
 30
0.0
 11
180.7456065906733
 21
258.52188859750862
 31
0.0
  0
LINE
  5
149A
  8
1
 10
150.74560659072861
 20
138.52188859750871
 30
0.0
 11
150.74560659072861
 21
258.52188859750862
 31
0.0
  0
LINE
  5
149B
  8
1
 10
120.7456065907286
 20
138.52188859750871
 30
0.0
 11
120.7456065907286
 21
258.52188859750862
 31
0.0
  0
LINE
  5
149C
  8
1
 10
90.745606590673333
 20
138.52188859750871
 30
0.0
 11
90.745606590673333
 21
258.52188859750862
 31
0.0
  0
LINE
  5
149D
  8
0
 10
195.7456065906733
 20
148.52188859750859
 30
0.0
 11
75.745606590674242
 21
148.52188859750859
 31
0.0
  0
LINE
  5
149E
  8
0
 10
195.7456065906733
 20
248.52188859750871
 30
0.0
 11
75.745606590674242
 21
248.52188859750871
 31
0.0
  0
LINE
  5
149F
  8
0
 10
93.845606590701436
 20
148.52188859750859
 30
0.0
 11
93.845606590701436
 21
248.52188859750871
 31
0.0
  0
LINE
  5
14A0
  8
0
 10
87.645606590700467
 20
148.52188859750859
 30
0.0
 11
87.645606590700467
 21
248.52188859750871
 31
0.0
  0
LINE
  5
14A1
  8
0
 10
75.745606590674242
 20
148.52188859750859
 30
0.0
 11
75.745606590674242
 21
248.52188859750871
 31
0.0
  0
LINE
  5
14A3
  8
0
 10
195.7456065906733
 20
148.52188859750859
 30
0.0
 11
195.7456065906733
 21
248.52188859750871
 31
0.0
  0
LINE
  5
14A4
  8
0
 10
183.84560659070141
 20
148.52188859750859
 30
0.0
 11
183.84560659070141
 21
248.52188859750871
 31
0.0
  0
LINE
  5
14A5
  8
0
 10
177.6456065907004
 20
148.52188859750859
 30
0.0
 11
177.6456065907004
 21
248.52188859750871
 31
0.0
  0
LINE
  5
14A6
  8
0
 10
153.84560659070141
 20
148.52188859750859
 30
0.0
 11
153.84560659070141
 21
248.52188859750871
 31
0.0
  0
LINE
  5
14A7
  8
0
 10
147.6456065907004
 20
148.52188859750859
 30
0.0
 11
147.6456065907004
 21
248.52188859750871
 31
0.0
  0
LINE
  5
14A8
  8
0
 10
123.84560659070139
 20
148.52188859750859
 30
0.0
 11
123.84560659070139
 21
248.52188859750871
 31
0.0
  0
LINE
  5
14A9
  8
0
 10
117.6456065907005
 20
148.52188859750859
 30
0.0
 11
117.6456065907005
 21
248.52188859750871
 31
0.0
  0
TEXT
  5
15E3
  8
0
 62
     3
 10
0.0
 20
0.0
 30
0.0
 40
10.0
  1
L6-SPL12030N
  7
STANDARD1
  0
ENDSEC
  0
EOF
