  0
SECTION
  2
HEADER
  9
$ACADVER
  1
AC1009
  9
$INSBASE
 10
7.37824081052986
 20
15.90864369846679
 30
0.0
  9
$EXTMIN
 10
0.0
 20
-2.960436562073669
 30
0.0
  9
$EXTMAX
 10
319.90834438761323
 20
261.67256517851951
 30
0.0
  9
$LIMMIN
 10
0.0
 20
0.0
  9
$LIMMAX
 10
385.0
 20
270.0
  9
$ORTHOMODE
 70
     1
  9
$REGENMODE
 70
     1
  9
$FILLMODE
 70
     1
  9
$QTEXTMODE
 70
     0
  9
$MIRRTEXT
 70
     0
  9
$DRAGMODE
 70
     2
  9
$LTSCALE
 40
10.0
  9
$OSMODE
 70
  3071
  9
$ATTMODE
 70
     1
  9
$TEXTSIZE
 40
4.0
  9
$TRACEWID
 40
0.05
  9
$TEXTSTYLE
  7
STANDARD
  9
$CLAYER
  8
0
  9
$CELTYPE
  6
BYLAYER
  9
$CECOLOR
 62
   256
  9
$DIMSCALE
 40
1.0
  9
$DIMASZ
 40
3.0
  9
$DIMEXO
 40
2.0
  9
$DIMDLI
 40
10.0
  9
$DIMRND
 40
0.0
  9
$DIMDLE
 40
0.0
  9
$DIMEXE
 40
2.0
  9
$DIMTP
 40
0.0
  9
$DIMTM
 40
0.0
  9
$DIMTXT
 40
3.0
  9
$DIMCEN
 40
0.09
  9
$DIMTSZ
 40
0.0
  9
$DIMTOL
 70
     0
  9
$DIMLIM
 70
     0
  9
$DIMTIH
 70
     0
  9
$DIMTOH
 70
     0
  9
$DIMSE1
 70
     0
  9
$DIMSE2
 70
     0
  9
$DIMTAD
 70
     1
  9
$DIMZIN
 70
     0
  9
$DIMBLK
  1

  9
$DIMASO
 70
     0
  9
$DIMSHO
 70
     0
  9
$DIMPOST
  1

  9
$DIMAPOST
  1

  9
$DIMALT
 70
     0
  9
$DIMALTD
 70
     2
  9
$DIMALTF
 40
25.399999999999999
  9
$DIMLFAC
 40
1.0
  9
$DIMTOFL
 70
     1
  9
$DIMTVP
 40
1.6000000000000001
  9
$DIMTIX
 70
     1
  9
$DIMSOXD
 70
     0
  9
$DIMSAH
 70
     0
  9
$DIMBLK1
  1

  9
$DIMBLK2
  1

  9
$DIMSTYLE
  2
STANDARD
  9
$DIMCLRD
 70
     0
  9
$DIMCLRE
 70
     0
  9
$DIMCLRT
 70
     0
  9
$DIMTFAC
 40
1.0
  9
$DIMGAP
 40
1.0
  9
$LUNITS
 70
     2
  9
$LUPREC
 70
     2
  9
$SKETCHINC
 40
0.1
  9
$FILLETRAD
 40
0.0
  9
$AUNITS
 70
     0
  9
$AUPREC
 70
     2
  9
$MENU
  1
E:\r13\win\SUPPORT\ACAD
  9
$ELEVATION
 40
0.0
  9
$PELEVATION
 40
0.0
  9
$THICKNESS
 40
0.0
  9
$LIMCHECK
 70
     0
  9
$BLIPMODE
 70
     0
  9
$CHAMFERA
 40
1.0
  9
$CHAMFERB
 40
1.0
  9
$SKPOLY
 70
     0
  9
$TDCREATE
 40
2450252.6853964119
  9
$TDUPDATE
 40
2456597.562381783
  9
$TDINDWG
 40
0.1300140856
  9
$TDUSRTIMER
 40
0.1300140856
  9
$USRTIMER
 70
     1
  9
$ANGBASE
 50
0.0
  9
$ANGDIR
 70
     0
  9
$PDMODE
 70
     0
  9
$PDSIZE
 40
0.0
  9
$PLINEWID
 40
0.0
  9
$COORDS
 70
     1
  9
$SPLFRAME
 70
     0
  9
$SPLINETYPE
 70
     6
  9
$SPLINESEGS
 70
     8
  9
$ATTDIA
 70
     0
  9
$ATTREQ
 70
     1
  9
$HANDLING
 70
     1
  9
$HANDSEED
  5
247C
  9
$SURFTAB1
 70
     6
  9
$SURFTAB2
 70
     6
  9
$SURFTYPE
 70
     6
  9
$SURFU
 70
     6
  9
$SURFV
 70
     6
  9
$UCSNAME
  2

  9
$UCSORG
 10
0.0
 20
0.0
 30
0.0
  9
$UCSXDIR
 10
1.0
 20
0.0
 30
0.0
  9
$UCSYDIR
 10
0.0
 20
1.0
 30
0.0
  9
$PUCSNAME
  2

  9
$PUCSORG
 10
0.0
 20
0.0
 30
0.0
  9
$PUCSXDIR
 10
1.0
 20
0.0
 30
0.0
  9
$PUCSYDIR
 10
0.0
 20
1.0
 30
0.0
  9
$USERI1
 70
     3
  9
$USERI2
 70
     1
  9
$USERI3
 70
     0
  9
$USERI4
 70
     1
  9
$USERI5
 70
     0
  9
$USERR1
 40
1.0
  9
$USERR2
 40
3.0
  9
$USERR3
 40
3.0
  9
$USERR4
 40
3.0
  9
$USERR5
 40
10.0
  9
$WORLDVIEW
 70
     1
  9
$SHADEDGE
 70
     3
  9
$SHADEDIF
 70
    70
  9
$TILEMODE
 70
     1
  9
$MAXACTVP
 70
    16
  9
$PLIMCHECK
 70
     0
  9
$PEXTMIN
 10
1.0000000000000000E+020
 20
1.0000000000000000E+020
 30
1.0000000000000000E+020
  9
$PEXTMAX
 10
-1.0000000000000000E+020
 20
-1.0000000000000000E+020
 30
-1.0000000000000000E+020
  9
$PLIMMIN
 10
0.0
 20
0.0
  9
$PLIMMAX
 10
12.0
 20
9.0
  9
$UNITMODE
 70
     0
  9
$VISRETAIN
 70
     0
  9
$PLINEGEN
 70
     0
  9
$PSLTSCALE
 70
     0
  0
ENDSEC
  0
SECTION
  2
TABLES
  0
TABLE
  2
VPORT
 70
     1
  0
VPORT
  2
*ACTIVE
 70
     0
 10
0.0
 20
0.0
 11
1.0
 21
1.0
 12
192.49412581440311
 22
162.8616388594717
 13
0.0
 23
0.0
 14
5.0
 24
5.0
 15
5.0
 25
5.0
 16
0.0
 26
0.0
 36
1.0
 17
0.0
 27
0.0
 37
0.0
 40
334.81001162774987
 41
1.9089595375722539
 42
50.0
 43
0.0
 44
0.0
 50
0.0
 51
0.0
 71
     0
 72
  1000
 73
     1
 74
     0
 75
     0
 76
     0
 77
     0
 78
     1
  0
ENDTAB
  0
TABLE
  2
LTYPE
 70
     3
  0
LTYPE
  2
CONTINUOUS
 70
     0
  3
Solid Line
 72
    65
 73
     0
 40
0.0
  0
LTYPE
  2
CENTER
 70
     0
  3
____ _ ____ _ ____ _ ____ _ ____ _ ____ _ ____
 72
    65
 73
     4
 40
2.0
 49
1.25
 49
-0.25
 49
0.25
 49
-0.25
  0
LTYPE
  2
PHANTOM2
 70
     0
  3
___ _ _ ___ _ _ ___ _ _ ___ _ _
 72
    65
 73
     6
 40
1.25
 49
0.625
 49
-0.125
 49
0.125
 49
-0.125
 49
0.125
 49
-0.125
  0
ENDTAB
  0
TABLE
  2
LAYER
 70
     2
  0
LAYER
  2
0
 70
     0
 62
     7
  6
CONTINUOUS
  0
LAYER
  2
1
 70
     0
 62
     1
  6
CENTER
  0
ENDTAB
  0
TABLE
  2
STYLE
 70
     2
  0
STYLE
  2
STANDARD
 70
     0
 40
0.0
 41
1.0
 50
0.0
 71
     0
 42
4.0
  3
simplex
  4
bigfont
  0
STYLE
  2
STANDARD1
 70
     0
 40
0.0
 41
1.0
 50
0.0
 71
     0
 42
3.0
  3
txt
  4

  0
ENDTAB
  0
TABLE
  2
VIEW
 70
     0
  0
ENDTAB
  0
TABLE
  2
UCS
 70
     0
  0
ENDTAB
  0
TABLE
  2
APPID
 70
     3
  0
APPID
  2
ACAD
 70
     0
  0
APPID
  2
ACAD_MLEADERVER
 70
     0
  0
APPID
  2
ACAD_NAV_VCDISPLAY
 70
     0
  0
ENDTAB
  0
TABLE
  2
DIMSTYLE
 70
     1
  0
DIMSTYLE
  2
STANDARD
 70
     0
  3

  4

  5

  6

  7

 40
1.0
 41
0.18
 42
0.0625
 43
0.38
 44
0.18
 45
0.0
 46
0.0
 47
0.0
 48
0.0
140
0.18
141
0.09
142
0.0
143
25.399999999999999
144
1.0
145
0.0
146
1.0
147
0.09
 71
     0
 72
     0
 73
     1
 74
     1
 75
     0
 76
     0
 77
     0
 78
     0
170
     0
171
     2
172
     0
173
     0
174
     0
175
     0
176
     0
177
     0
178
     0
  0
ENDTAB
  0
ENDSEC
  0
SECTION
  2
BLOCKS
  0
BLOCK
  8
0
  2
$MODEL_SPACE
 70
     0
 10
0.0
 20
0.0
 30
0.0
  3
$MODEL_SPACE
  1

  0
ENDBLK
  5
233D
  8
0
  0
BLOCK
 67
     1
  8
0
  2
$PAPER_SPACE
 70
     0
 10
0.0
 20
0.0
 30
0.0
  3
$PAPER_SPACE
  1

  0
ENDBLK
  5
233B
 67
     1
  8
0
  0
ENDSEC
  0
SECTION
  2
ENTITIES
  0
LINE
  5
210C
  8
0
 10
179.0237138373509
 20
251.67256517851959
 30
0.0
 11
59.023713837351799
 21
251.67256517851959
 31
0.0
  0
LINE
  5
210D
  8
0
 10
179.0237138373509
 20
151.67256517851951
 30
0.0
 11
59.023713837351799
 21
151.67256517851951
 31
0.0
  0
LINE
  5
210F
  8
0
 10
59.023713837351799
 20
151.67256517851951
 30
0.0
 11
59.023713837351799
 21
251.67256517851959
 31
0.0
  0
LINE
  5
2110
  8
0
 10
70.923713837378045
 20
151.67256517851951
 30
0.0
 11
70.923713837378045
 21
251.67256517851959
 31
0.0
  0
LINE
  5
2111
  8
0
 10
77.123713837379
 20
151.67256517851951
 30
0.0
 11
77.123713837379
 21
251.67256517851959
 31
0.0
  0
LINE
  5
2112
  8
0
 10
100.923713837378
 20
151.67256517851951
 30
0.0
 11
100.923713837378
 21
251.67256517851959
 31
0.0
  0
LINE
  5
2113
  8
0
 10
107.123713837379
 20
151.67256517851951
 30
0.0
 11
107.123713837379
 21
251.67256517851959
 31
0.0
  0
LINE
  5
2114
  8
0
 10
130.92371383737799
 20
151.67256517851951
 30
0.0
 11
130.92371383737799
 21
251.67256517851959
 31
0.0
  0
LINE
  5
2115
  8
0
 10
137.123713837379
 20
151.67256517851951
 30
0.0
 11
137.123713837379
 21
251.67256517851959
 31
0.0
  0
LINE
  5
2117
  8
0
 10
160.92371383737799
 20
151.67256517851951
 30
0.0
 11
160.92371383737799
 21
251.67256517851959
 31
0.0
  0
LINE
  5
2118
  8
0
 10
167.123713837379
 20
151.67256517851951
 30
0.0
 11
167.123713837379
 21
251.67256517851959
 31
0.0
  0
LINE
  5
211A
  8
0
 10
179.0237138373509
 20
151.67256517851951
 30
0.0
 11
179.0237138373509
 21
251.67256517851959
 31
0.0
  0
LINE
  5
2123
  8
1
 10
74.023713837350897
 20
141.67256517851951
 30
0.0
 11
74.023713837350897
 21
261.67256517851951
 31
0.0
  0
LINE
  5
2124
  8
1
 10
104.02371383740611
 20
141.67256517851951
 30
0.0
 11
104.02371383740611
 21
261.67256517851951
 31
0.0
  0
LINE
  5
2125
  8
1
 10
134.02371383740609
 20
141.67256517851951
 30
0.0
 11
134.02371383740609
 21
261.67256517851951
 31
0.0
  0
LINE
  5
2126
  8
1
 10
164.0237138373509
 20
141.67256517851951
 30
0.0
 11
164.0237138373509
 21
261.67256517851951
 31
0.0
  0
LINE
  5
2134
  8
0
 10
314.90834438761323
 20
124.4252170230437
 30
0.0
 11
314.90834438761323
 21
64.425217023043729
 31
0.0
  0
LINE
  5
2135
  8
0
 10
214.9083443876132
 20
124.4252170230437
 30
0.0
 11
214.9083443876132
 21
64.425217023043729
 31
0.0
  0
LINE
  5
2137
  8
0
 10
214.9083443876132
 20
64.425217023043729
 30
0.0
 11
314.90834438761323
 21
64.425217023043729
 31
0.0
  0
LINE
  5
2138
  8
0
 10
214.9083443876132
 20
76.325217023016648
 30
0.0
 11
314.90834438761323
 21
76.325217023016648
 31
0.0
  0
LINE
  5
2139
  8
0
 10
214.9083443876132
 20
82.525217023016694
 30
0.0
 11
314.90834438761323
 21
82.525217023016694
 31
0.0
  0
LINE
  5
213A
  8
0
 10
214.9083443876132
 20
106.32521702307071
 30
0.0
 11
314.90834438761323
 21
106.32521702307071
 31
0.0
  0
LINE
  5
213B
  8
0
 10
214.9083443876132
 20
112.52521702307079
 30
0.0
 11
314.90834438761323
 21
112.52521702307079
 31
0.0
  0
LINE
  5
213D
  8
0
 10
214.9083443876132
 20
124.4252170230437
 30
0.0
 11
314.90834438761323
 21
124.4252170230437
 31
0.0
  0
LINE
  5
213E
  8
1
 10
178.69508860885591
 20
109.4252170230434
 30
0.0
 11
48.69508860885594
 21
109.4252170230434
 31
0.0
  0
LINE
  5
213F
  8
1
 10
178.69508860885591
 20
79.425217023043388
 30
0.0
 11
48.69508860885594
 21
79.425217023043388
 31
0.0
  0
LINE
  5
2140
  8
1
 10
98.695088608856153
 20
129.4252170230437
 30
0.0
 11
98.695088608856153
 21
59.425217023043729
 31
0.0
  0
LINE
  5
2141
  8
1
 10
128.69508860885611
 20
129.4252170230437
 30
0.0
 11
128.69508860885611
 21
59.425217023043729
 31
0.0
  0
LINE
  5
2142
  8
1
 10
158.69508860885611
 20
129.4252170230437
 30
0.0
 11
158.69508860885611
 21
59.425217023043729
 31
0.0
  0
LINE
  5
2143
  8
1
 10
68.695088608856153
 20
129.4252170230437
 30
0.0
 11
68.695088608856153
 21
59.425217023043729
 31
0.0
  0
LINE
  5
2166
  8
1
 10
209.9083443876132
 20
109.4252170230434
 30
0.0
 11
319.90834438761323
 21
109.4252170230434
 31
0.0
  0
LINE
  5
2167
  8
1
 10
209.9083443876132
 20
79.42521702304407
 30
0.0
 11
319.90834438761323
 21
79.42521702304407
 31
0.0
  0
LINE
  5
216F
  8
0
 10
155.36539882562329
 20
104.17521702304801
 30
0.0
 11
160.29828486617239
 21
104.17521702304801
 31
0.0
  0
LINE
  5
2170
  8
0
 10
160.29828486541641
 20
84.675217023048049
 30
0.0
 11
155.36539882563079
 21
84.675217023048049
 31
0.0
  0
LINE
  5
2171
  8
0
 10
157.09189235202319
 20
74.17521702304191
 30
0.0
 11
160.29828486571071
 21
74.175217023045207
 31
0.0
  0
LINE
  5
2172
  8
0
 10
160.29828486570881
 20
114.6752170230434
 30
0.0
 11
157.0918923520276
 21
114.6752170230434
 31
0.0
  0
CIRCLE
  5
2173
  8
0
 10
158.6950886088589
 20
79.425217023059645
 30
0.0
 40
2.5
  0
CIRCLE
  5
2174
  8
0
 10
158.6950886088527
 20
109.4252170230596
 30
0.0
 40
2.5
  0
ARC
  5
2175
  8
0
 10
120.4450886088636
 20
107.82202076572391
 30
0.0
 40
3.0
 50
314.9999999012706
 51
0.0000000000005428
  0
ARC
  5
2176
  8
0
 10
106.9450886088636
 20
107.82202076648009
 30
0.0
 40
3.0000000000000639
 50
180.00000000000429
 51
224.99999994741481
  0
LINE
  5
2177
  8
0
 10
93.445088608857532
 20
111.02841327957231
 30
0.0
 11
93.445088608857532
 21
106.09552723982
 31
0.0
  0
LINE
  5
2178
  8
0
 10
73.945088608857532
 20
106.0955272398276
 30
0.0
 11
73.945088608857532
 21
111.0284132802189
 31
0.0
  0
LINE
  5
2179
  8
0
 10
153.4450886088477
 20
111.0284132795756
 30
0.0
 11
153.4450886088477
 21
106.0955272398234
 31
0.0
  0
LINE
  5
217A
  8
0
 10
133.9450886088477
 20
106.095527239831
 30
0.0
 11
133.9450886088477
 21
111.0284132802222
 31
0.0
  0
ARC
  5
217B
  8
0
 10
54.695088608862307
 20
105.3252170230447
 30
0.0
 40
1.0
 50
90.0
 51
180.0
  0
ARC
  5
217C
  8
0
 10
55.895088608855978
 20
105.5252170230448
 30
0.0
 40
0.7999999999999546
 50
0.0
 51
90.0
  0
ARC
  5
217D
  8
0
 10
60.453004602015199
 20
107.8299367593676
 30
0.0
 40
3.0000000000000271
 50
315.0000000000046
 51
0.1419675017435786
  0
LINE
  5
217E
  8
0
 10
67.091892352320883
 20
104.17521702304469
 30
0.0
 11
72.024778392074722
 21
104.17521702304469
 31
0.0
  0
LINE
  5
217F
  8
0
 10
72.024778392066992
 20
84.675217023044752
 30
0.0
 11
67.091892351674232
 21
84.675217023044752
 31
0.0
  0
ARC
  5
2180
  8
0
 10
70.298284865713413
 20
71.175217023045349
 30
0.0
 40
2.999999999999857
 50
44.999999999999602
 51
90.000000000056446
  0
CIRCLE
  5
2181
  8
0
 10
68.695088608862307
 20
79.425217023043388
 30
0.0
 40
2.5
  0
ARC
  5
2182
  8
0
 10
54.695088608862307
 20
75.325217023043479
 30
0.0
 40
1.0000000000000071
 50
89.999999999993491
 51
179.9999999999996
  0
LINE
  5
2183
  8
0
 10
56.695088608863671
 20
72.24359364145198
 30
0.0
 11
56.695088608863898
 21
75.52521702304341
 31
0.0
  0
LINE
  5
2184
  8
0
 10
62.566408952423451
 20
75.700700422638647
 30
0.0
 11
58.402195390050331
 21
71.536486860265427
 31
0.0
  0
LINE
  5
2185
  8
0
 10
56.695088608862307
 20
64.425217023043388
 30
0.0
 11
64.595088608862397
 21
64.425217023043388
 31
0.0
  0
LINE
  5
2186
  8
0
 10
53.695088608862307
 20
75.325217023043479
 30
0.0
 11
53.695088608862307
 21
67.425217023043388
 31
0.0
  0
ARC
  5
2187
  8
0
 10
56.695088608862307
 20
67.425217023043388
 30
0.0
 40
3.0
 50
180.0
 51
270.0
  0
ARC
  5
2188
  8
0
 10
57.695088608863671
 20
72.243593641451994
 30
0.0
 40
1.0000000000000631
 50
180.00000000000119
 51
315.00000000000142
  0
ARC
  5
2189
  8
0
 10
61.513465227279987
 20
68.425217023042023
 30
0.0
 40
0.9999999999999857
 50
134.9999999999971
 51
269.99999999999682
  0
ARC
  5
218A
  8
0
 10
64.795088608862443
 20
66.625217023042069
 30
0.0
 40
0.7999999999999546
 50
359.99999999999193
 51
90.0
  0
ARC
  5
218B
  8
0
 10
64.595088608862397
 20
65.425217023043373
 30
0.0
 40
1.0
 50
270.0
 51
0.0
  0
LINE
  5
218C
  8
0
 10
64.795088608862443
 20
67.425217023042023
 30
0.0
 11
61.513465227279987
 21
67.425217023042023
 31
0.0
  0
LINE
  5
218D
  8
0
 10
65.595088608862383
 20
65.425217023043373
 30
0.0
 11
65.595088608862383
 21
66.625217023041955
 31
0.0
  0
ARC
  5
218E
  8
0
 10
67.091892352026093
 20
71.175217023041881
 30
0.0
 40
3.0000000000001492
 50
90.000000000054825
 51
134.99999999999841
  0
LINE
  5
218F
  8
0
 10
60.806358446093547
 20
69.132323804228577
 30
0.0
 11
64.970572008466434
 21
73.296537366601683
 31
0.0
  0
LINE
  5
2190
  8
0
 10
67.091892352023251
 20
74.175217023042023
 30
0.0
 11
70.298284865710457
 21
74.175217023045207
 31
0.0
  0
ARC
  5
2191
  8
0
 10
64.584533039116877
 20
94.425217049826358
 30
0.0
 40
5.999999999999968
 50
134.99999991247029
 51
224.99999991247029
  0
LINE
  5
2192
  8
0
 10
53.695088608862307
 20
105.3252170230447
 30
0.0
 11
53.695088608862307
 21
83.525217023047844
 31
0.0
  0
LINE
  5
2193
  8
0
 10
58.402195390039431
 20
87.596789898300486
 30
0.0
 11
62.566408952423451
 21
83.432576335916096
 31
0.0
  0
ARC
  5
2194
  8
0
 10
55.895088608852802
 20
83.325217023047784
 30
0.0
 40
0.7999999999999546
 50
270.0
 51
0.0
  0
ARC
  5
2195
  8
0
 10
54.695088608862307
 20
83.525217023047844
 30
0.0
 40
1.0
 50
180.0
 51
270.0
  0
LINE
  5
2196
  8
0
 10
55.895088608863936
 20
76.325217023043365
 30
0.0
 11
54.69508860886242
 21
76.325217023043479
 31
0.0
  0
ARC
  5
2197
  8
0
 10
55.895088608863823
 20
75.525217023043297
 30
0.0
 40
0.8000000000000682
 50
0.0000000000081422
 51
89.999999999991857
  0
LINE
  5
2198
  8
0
 10
54.695088608862307
 20
82.525217023047844
 30
0.0
 11
55.895088608852802
 21
82.525217023047844
 31
0.0
  0
ARC
  5
2199
  8
0
 10
57.695088608852757
 20
86.889683117113904
 30
0.0
 40
1.000000000000056
 50
44.999999999998558
 51
179.99999999999881
  0
LINE
  5
219A
  8
0
 10
56.695088608852757
 20
83.325217023047784
 30
0.0
 11
56.695088608852757
 21
86.889683117113904
 31
0.0
  0
ARC
  5
219B
  8
0
 10
60.445088608863777
 20
81.311255992356621
 30
0.0
 40
2.999999999999913
 50
359.99999999999648
 51
44.999999999997108
  0
ARC
  5
219C
  8
0
 10
60.445088608863671
 20
77.822020766198165
 30
0.0
 40
3.0
 50
315.00000000000341
 51
0.0000000000027141
  0
LINE
  5
219D
  8
0
 10
63.445088608863671
 20
81.31125599235645
 30
0.0
 11
63.445088608863671
 21
77.822020766198307
 31
0.0
  0
ARC
  5
219E
  8
0
 10
67.091892351674232
 20
87.675217023044624
 30
0.0
 40
2.9999999999999138
 50
224.99999993360041
 51
269.99999999999892
  0
LINE
  5
219F
  8
0
 10
64.970572005656322
 20
85.553896681943456
 30
0.0
 11
60.341892345516271
 21
90.182576369188496
 31
0.0
  0
LINE
  5
21A0
  8
0
 10
62.574324945574972
 20
105.70861641580809
 30
0.0
 11
58.402195390042607
 21
101.5364868602756
 31
0.0
  0
LINE
  5
21A1
  8
0
 10
56.69508860885594
 20
102.2435936414622
 30
0.0
 11
56.69508860885594
 21
105.5252170230448
 31
0.0
  0
ARC
  5
21A2
  8
0
 10
57.69508860885594
 20
102.2435936414622
 30
0.0
 40
1.0000000000000679
 50
180.00000000000159
 51
315.00000000000119
  0
ARC
  5
21A3
  8
0
 10
67.091892352320883
 20
101.17521702304489
 30
0.0
 40
2.999999999999833
 50
90.0
 51
134.9999999336014
  0
LINE
  5
21A4
  8
0
 10
60.341892358479072
 20
98.667857743427021
 30
0.0
 11
64.970572011219701
 21
103.2965373690627
 31
0.0
  0
ARC
  5
21A5
  8
0
 10
113.69508858373609
 20
99.65780720392263
 30
0.0
 40
2.0000000000000151
 50
224.9999999183552
 51
314.99999991716692
  0
ARC
  5
21A6
  8
0
 10
113.6950886313309
 20
89.192626842281697
 30
0.0
 40
2.00000000000002
 50
44.999999912736079
 51
134.9999999127358
  0
ARC
  5
21A7
  8
0
 10
113.6950885837425
 20
69.65780720392263
 30
0.0
 40
2.0000000000000209
 50
224.99999991835529
 51
314.99999991716669
  0
LINE
  5
21A8
  8
0
 10
102.7950886088656
 20
64.425217023043388
 30
0.0
 11
124.5950886088624
 21
64.425217023043388
 31
0.0
  0
LINE
  5
21A9
  8
0
 10
79.452447884573075
 20
71.07202077340969
 30
0.0
 11
74.823768263350757
 21
75.700700424854404
 31
0.0
  0
LINE
  5
21AA
  8
0
 10
92.566408948761818
 20
75.700700418495884
 30
0.0
 11
87.937729258701424
 21
71.072020758898574
 31
0.0
  0
LINE
  5
21AB
  8
0
 10
112.2808750193542
 20
68.243593643564736
 30
0.0
 11
104.8237682633635
 21
75.700700424867364
 31
0.0
  0
LINE
  5
21AC
  8
0
 10
90.806358446093327
 20
69.132323804228577
 30
0.0
 11
94.970572008466675
 21
73.296537366601683
 31
0.0
  0
LINE
  5
21AD
  8
0
 10
94.795088608862443
 20
67.425217023042023
 30
0.0
 11
91.513465227279994
 21
67.425217023042023
 31
0.0
  0
LINE
  5
21AE
  8
0
 10
72.795088608865399
 20
64.425217023043388
 30
0.0
 11
94.595088608862397
 21
64.425217023043388
 31
0.0
  0
ARC
  5
21AF
  8
0
 10
83.695088578892864
 20
75.314661453328597
 30
0.0
 40
6.000000000000048
 50
224.99999990276029
 51
314.999999901271
  0
ARC
  5
21B0
  8
0
 10
75.876711990459512
 20
68.425217023045207
 30
0.0
 40
0.999999999999993
 50
270.00000000000489
 51
45.000000000001428
  0
ARC
  5
21B1
  8
0
 10
72.795088608865399
 20
65.425217023043373
 30
0.0
 40
1.0
 50
180.0
 51
270.0
  0
LINE
  5
21B2
  8
0
 10
71.795088608865399
 20
66.625217023045138
 30
0.0
 11
71.795088608865399
 21
65.425217023043373
 31
0.0
  0
ARC
  5
21B3
  8
0
 10
72.595088608865581
 20
66.625217023044968
 30
0.0
 40
0.8000000000001249
 50
89.999999999995936
 51
179.99999999998781
  0
LINE
  5
21B4
  8
0
 10
75.876711990459626
 20
67.425217023045207
 30
0.0
 11
72.595088608865581
 21
67.425217023045093
 31
0.0
  0
LINE
  5
21B5
  8
0
 10
72.419605209272959
 20
73.296537366604866
 30
0.0
 11
76.583818771646065
 21
69.13232380423176
 31
0.0
  0
ARC
  5
21B6
  8
0
 10
91.513465227279994
 20
68.425217023042052
 30
0.0
 40
1.000000000000028
 50
135.00000000000341
 51
270.0000000000033
  0
LINE
  5
21B7
  8
0
 10
105.8767119904594
 20
67.425217023045207
 30
0.0
 11
102.59508860886559
 21
67.425217023045093
 31
0.0
  0
LINE
  5
21B8
  8
0
 10
102.4196052092732
 20
73.296537366604866
 30
0.0
 11
106.5838187716458
 21
69.13232380423176
 31
0.0
  0
ARC
  5
21B9
  8
0
 10
94.795088608862443
 20
66.625217023042069
 30
0.0
 40
0.7999999999999546
 50
359.99999999999193
 51
90.0
  0
LINE
  5
21BA
  8
0
 10
95.595088608862383
 20
65.425217023043373
 30
0.0
 11
95.595088608862383
 21
66.625217023041955
 31
0.0
  0
ARC
  5
21BB
  8
0
 10
94.595088608862397
 20
65.425217023043373
 30
0.0
 40
1.0
 50
270.0
 51
0.0
  0
ARC
  5
21BC
  8
0
 10
102.7950886088656
 20
65.425217023043373
 30
0.0
 40
1.0
 50
180.0000000000114
 51
270.0
  0
LINE
  5
21BD
  8
0
 10
101.7950886088654
 20
66.625217023045138
 30
0.0
 11
101.7950886088656
 21
65.425217023043189
 31
0.0
  0
ARC
  5
21BE
  8
0
 10
102.5950886088654
 20
66.625217023045025
 30
0.0
 40
0.8000000000000682
 50
89.999999999991857
 51
179.99999999999179
  0
LINE
  5
21BF
  8
0
 10
97.091892352023251
 20
74.175217023042023
 30
0.0
 11
100.2982848657104
 21
74.175217023045207
 31
0.0
  0
ARC
  5
21C0
  8
0
 10
97.091892352026221
 20
71.17521702304208
 30
0.0
 40
2.9999999999999432
 50
90.000000000057526
 51
135.0
  0
ARC
  5
21C1
  8
0
 10
100.2982848657135
 20
71.175217023045093
 30
0.0
 40
3.000000000000127
 50
45.000000000001727
 51
90.000000000058634
  0
ARC
  5
21C2
  8
0
 10
105.8767119904593
 20
68.425217023045207
 30
0.0
 40
0.999999999999993
 50
270.00000000000489
 51
45.000000000001428
  0
ARC
  5
21C3
  8
0
 10
90.445088608857546
 20
77.822020765710903
 30
0.0
 40
3.0
 50
314.9999999012706
 51
0.0000000000005428
  0
LINE
  5
21C4
  8
0
 10
73.798641999450865
 20
83.108460196847645
 30
0.0
 11
72.378331782660325
 21
84.528770413638085
 31
0.0
  0
ARC
  5
21C5
  8
0
 10
73.445088608857645
 20
82.754906806254496
 30
0.0
 40
0.4999999999998864
 50
359.99999999999352
 51
44.999999999995389
  0
LINE
  5
21C6
  8
0
 10
73.945088608857532
 20
77.822020766466949
 30
0.0
 11
73.945088608857532
 21
82.754906806254425
 31
0.0
  0
ARC
  5
21C7
  8
0
 10
76.945088608857532
 20
77.822020766466892
 30
0.0
 40
2.999999999999948
 50
179.99999999999901
 51
224.99999994740949
  0
ARC
  5
21C8
  8
0
 10
72.024778392067105
 20
84.175217023044695
 30
0.0
 40
0.5000000000000745
 50
45.000000000012669
 51
90.000000000009777
  0
ARC
  5
21C9
  8
0
 10
73.445088608857645
 20
106.0955272398276
 30
0.0
 40
0.4999999999998935
 50
315.00000000000341
 51
0.0000000000048853
  0
LINE
  5
21CA
  8
0
 10
72.378331782667814
 20
104.3216636324515
 30
0.0
 11
73.798641999450865
 21
105.7419738492344
 31
0.0
  0
ARC
  5
21CB
  8
0
 10
72.024778392074595
 20
104.6752170230446
 30
0.0
 40
0.4999999999998295
 50
270.00000000001631
 51
315.0000000000162
  0
ARC
  5
21CC
  8
0
 10
102.80564417856471
 20
94.425216993080156
 30
0.0
 40
5.999999999999968
 50
314.9999999027595
 51
44.999999901270229
  0
LINE
  5
21CD
  8
0
 10
107.0482848584836
 20
90.182576298760409
 30
0.0
 11
102.4196052070388
 21
85.553896677537978
 31
0.0
  0
LINE
  5
21CE
  8
0
 10
95.011845435047235
 20
84.528770413637957
 30
0.0
 11
93.591535218264184
 21
83.108460196855034
 31
0.0
  0
CIRCLE
  5
21CF
  8
0
 10
98.695088608868673
 20
79.425217023056348
 30
0.0
 40
2.5
  0
LINE
  5
21D0
  8
0
 10
93.445088608857532
 20
82.754906806261715
 30
0.0
 11
93.445088608857532
 21
77.822020765710931
 31
0.0
  0
ARC
  5
21D1
  8
0
 10
93.945088608857532
 20
82.754906806261815
 30
0.0
 40
0.5000000000000543
 50
135.0000000000127
 51
180.0000000000114
  0
LINE
  5
21D2
  8
0
 10
100.2982848654262
 20
84.675217023044752
 30
0.0
 11
95.365398825640554
 21
84.675217023044752
 31
0.0
  0
ARC
  5
21D3
  8
0
 10
95.365398825640554
 20
84.175217023044638
 30
0.0
 40
0.5000000000000995
 50
90.000000000003254
 51
135.00000000000341
  0
ARC
  5
21D4
  8
0
 10
100.2982848654262
 20
87.675217023044766
 30
0.0
 40
2.9999999999999591
 50
269.99999999999892
 51
314.99999994740921
  0
ARC
  5
21D5
  8
0
 10
106.94508860886999
 20
81.028413280231746
 30
0.0
 40
2.9999999999999711
 50
134.99999993359799
 51
179.99999999999659
  0
LINE
  5
21D6
  8
0
 10
103.94508860886999
 20
77.822020766479895
 30
0.0
 11
103.94508860886999
 21
81.028413280231916
 31
0.0
  0
ARC
  5
21D7
  8
0
 10
106.94508860886999
 20
77.822020766480136
 30
0.0
 40
3.0000000000000639
 50
180.00000000000429
 51
224.99999994741481
  0
LINE
  5
21D8
  8
0
 10
104.8237682677688
 20
83.149733626249827
 30
0.0
 11
112.28087507111169
 21
90.606840406808715
 31
0.0
  0
LINE
  5
21D9
  8
0
 10
102.4196052133973
 20
103.296537362949
 30
0.0
 11
107.0482848729948
 21
98.667857672888672
 31
0.0
  0
LINE
  5
21DA
  8
0
 10
95.365398825633065
 20
104.17521702304469
 30
0.0
 11
100.2982848661822
 21
104.17521702304469
 31
0.0
  0
ARC
  5
21DB
  8
0
 10
95.365398825632937
 20
104.67521702304479
 30
0.0
 40
0.5000000000000745
 50
225.0000000000127
 51
270.00000000000978
  0
LINE
  5
21DC
  8
0
 10
93.591535218264184
 20
105.7419738492267
 30
0.0
 11
95.011845435039717
 21
104.3216636324514
 31
0.0
  0
ARC
  5
21DD
  8
0
 10
93.945088608857532
 20
106.0955272398199
 30
0.0
 40
0.5
 50
179.99999999998701
 51
224.99999999999079
  0
ARC
  5
21DE
  8
0
 10
100.2982848661822
 20
101.17521702304469
 30
0.0
 40
3.0
 50
44.999999901270613
 51
90.000000000000554
  0
LINE
  5
21DF
  8
0
 10
112.2808750193478
 20
98.243593643564751
 30
0.0
 11
104.8237682633571
 21
105.70070042486731
 31
0.0
  0
LINE
  5
21E0
  8
0
 10
122.5664089487743
 20
75.700700418508859
 30
0.0
 11
115.10930214407109
 21
68.243593639504979
 31
0.0
  0
LINE
  5
21E1
  8
0
 10
139.4524478845633
 20
71.072020773412973
 30
0.0
 11
134.82376826334121
 21
75.7007004248577
 31
0.0
  0
LINE
  5
21E2
  8
0
 10
152.56640894875201
 20
75.700700418499196
 30
0.0
 11
147.9377292586916
 21
71.072020758901772
 31
0.0
  0
LINE
  5
21E3
  8
0
 10
132.7950886088654
 20
64.425217023043388
 30
0.0
 11
154.5950886088624
 21
64.425217023043388
 31
0.0
  0
ARC
  5
21E4
  8
0
 10
135.8767119904594
 20
68.42521702304515
 30
0.0
 40
1.000000000000038
 50
269.99999999999841
 51
44.999999999994799
  0
LINE
  5
21E5
  8
0
 10
132.41960520927319
 20
73.296537366604866
 30
0.0
 11
136.58381877164601
 21
69.132323804231646
 31
0.0
  0
ARC
  5
21E6
  8
0
 10
127.09189235202621
 20
71.175217023041682
 30
0.0
 40
3.0000000000002141
 50
90.00000000005538
 51
134.9999999999979
  0
ARC
  5
21E7
  8
0
 10
124.7950886088624
 20
66.625217023042069
 30
0.0
 40
0.7999999999999546
 50
359.99999999999193
 51
90.0
  0
ARC
  5
21E8
  8
0
 10
124.5950886088624
 20
65.425217023043373
 30
0.0
 40
1.0
 50
270.0
 51
0.0
  0
ARC
  5
21E9
  8
0
 10
121.51346522727999
 20
68.425217023042052
 30
0.0
 40
1.000000000000028
 50
135.00000000000341
 51
270.0000000000033
  0
LINE
  5
21EA
  8
0
 10
124.7950886088624
 20
67.425217023042023
 30
0.0
 11
121.51346522727999
 21
67.425217023042023
 31
0.0
  0
LINE
  5
21EB
  8
0
 10
120.8063584460933
 20
69.132323804228577
 30
0.0
 11
124.97057200846641
 21
73.296537366601569
 31
0.0
  0
LINE
  5
21EC
  8
0
 10
125.5950886088624
 20
65.425217023043373
 30
0.0
 11
125.5950886088624
 21
66.625217023041955
 31
0.0
  0
ARC
  5
21ED
  8
0
 10
132.7950886088654
 20
65.425217023043373
 30
0.0
 40
1.0
 50
180.0
 51
270.0
  0
LINE
  5
21EE
  8
0
 10
131.7950886088654
 20
66.625217023045138
 30
0.0
 11
131.7950886088654
 21
65.425217023043373
 31
0.0
  0
ARC
  5
21EF
  8
0
 10
132.59508860886541
 20
66.625217023045025
 30
0.0
 40
0.8000000000000682
 50
89.999999999991857
 51
179.99999999999179
  0
LINE
  5
21F0
  8
0
 10
135.8767119904594
 20
67.425217023045093
 30
0.0
 11
132.5950886088655
 21
67.425217023045093
 31
0.0
  0
ARC
  5
21F1
  8
0
 10
130.2982848657135
 20
71.175217023045064
 30
0.0
 40
3.000000000000135
 50
45.000000000001819
 51
90.000000000058634
  0
LINE
  5
21F2
  8
0
 10
127.09189235202319
 20
74.17521702304191
 30
0.0
 11
130.2982848657104
 21
74.175217023045207
 31
0.0
  0
ARC
  5
21F3
  8
0
 10
143.69508857888309
 20
75.314661453331837
 30
0.0
 40
6.000000000000048
 50
224.9999999027595
 51
314.99999990127031
  0
ARC
  5
21F4
  8
0
 10
151.51346522727999
 20
68.425217023042052
 30
0.0
 40
1.000000000000028
 50
135.00000000000341
 51
270.0000000000033
  0
LINE
  5
21F5
  8
0
 10
154.79508860886239
 20
67.425217023042023
 30
0.0
 11
151.51346522727999
 21
67.425217023042023
 31
0.0
  0
ARC
  5
21F6
  8
0
 10
154.79508860886239
 20
66.625217023042069
 30
0.0
 40
0.7999999999999546
 50
359.99999999999193
 51
90.0
  0
LINE
  5
21F7
  8
0
 10
155.5950886088624
 20
65.425217023043373
 30
0.0
 11
155.5950886088624
 21
66.625217023041955
 31
0.0
  0
ARC
  5
21F8
  8
0
 10
154.5950886088624
 20
65.425217023043373
 30
0.0
 40
1.0
 50
270.0
 51
0.0
  0
LINE
  5
21F9
  8
0
 10
150.8063584460933
 20
69.132323804228577
 30
0.0
 11
154.97057200846641
 21
73.296537366601569
 31
0.0
  0
ARC
  5
21FA
  8
0
 10
157.09189235202621
 20
71.175217023041682
 30
0.0
 40
3.000000000000234
 50
90.00000000005538
 51
134.9999999999975
  0
ARC
  5
21FB
  8
0
 10
124.5845330391071
 20
94.425217049829655
 30
0.0
 40
5.999999999999968
 50
134.99999991247029
 51
224.99999991247029
  0
ARC
  5
21FC
  8
0
 10
127.0918923516644
 20
87.675217023047935
 30
0.0
 40
2.9999999999999138
 50
224.99999993360041
 51
269.99999999999892
  0
ARC
  5
21FD
  8
0
 10
120.44508860886999
 20
81.028413279585436
 30
0.0
 40
2.9999999999999392
 50
359.99999999999659
 51
44.999999933597657
  0
ARC
  5
21FE
  8
0
 10
120.44508860886999
 20
77.822020765723863
 30
0.0
 40
3.0
 50
314.9999999012706
 51
0.0000000000005428
  0
LINE
  5
21FF
  8
0
 10
123.44508860886999
 20
81.028413279585266
 30
0.0
 11
123.44508860886999
 21
77.822020765723892
 31
0.0
  0
LINE
  5
2200
  8
0
 10
115.10930219585789
 20
90.606840402500893
 30
0.0
 11
122.5664089548881
 21
83.149733620686561
 31
0.0
  0
LINE
  5
2201
  8
0
 10
124.9705720056465
 20
85.553896681946753
 30
0.0
 11
120.34189234550649
 21
90.182576369191779
 31
0.0
  0
LINE
  5
2202
  8
0
 10
133.79864199944109
 20
83.108460196850956
 30
0.0
 11
132.37833178265049
 21
84.528770413641368
 31
0.0
  0
CIRCLE
  5
2203
  8
0
 10
128.6950886088527
 20
79.425217023046685
 30
0.0
 40
2.5
  0
ARC
  5
2204
  8
0
 10
133.4450886088477
 20
82.754906806257736
 30
0.0
 40
0.5
 50
359.99999999998698
 51
44.999999999990777
  0
LINE
  5
2205
  8
0
 10
133.9450886088477
 20
77.822020766470246
 30
0.0
 11
133.9450886088477
 21
82.754906806257637
 31
0.0
  0
ARC
  5
2206
  8
0
 10
136.94508860884781
 20
77.822020766470473
 30
0.0
 40
3.0000000000001039
 50
180.00000000000429
 51
224.9999999474141
  0
LINE
  5
2207
  8
0
 10
132.02477839205719
 20
84.675217023048049
 30
0.0
 11
127.0918923516644
 21
84.675217023048049
 31
0.0
  0
ARC
  5
2208
  8
0
 10
132.0247783920573
 20
84.175217023047992
 30
0.0
 40
0.5000000000000745
 50
45.000000000012669
 51
90.000000000009777
  0
ARC
  5
2209
  8
0
 10
127.09189235231111
 20
101.17521702304821
 30
0.0
 40
2.999999999999833
 50
90.0
 51
134.9999999336014
  0
LINE
  5
220A
  8
0
 10
122.5664089487679
 20
105.7007004185088
 30
0.0
 11
115.1093021440647
 21
98.243593639504994
 31
0.0
  0
LINE
  5
220B
  8
0
 10
120.34189235846929
 20
98.667857743430318
 30
0.0
 11
124.9705720112099
 21
103.296537369066
 31
0.0
  0
LINE
  5
220C
  8
0
 10
127.09189235231111
 20
104.17521702304801
 30
0.0
 11
132.02477839206489
 21
104.17521702304811
 31
0.0
  0
ARC
  5
220D
  8
0
 10
133.4450886088477
 20
106.0955272398308
 30
0.0
 40
0.5000000000000543
 50
315.00000000001268
 51
0.0000000000113991
  0
LINE
  5
220E
  8
0
 10
132.37833178265819
 20
104.3216636324549
 30
0.0
 11
133.79864199944109
 21
105.7419738492376
 31
0.0
  0
ARC
  5
220F
  8
0
 10
132.02477839206489
 20
104.67521702304821
 30
0.0
 40
0.5000000000000995
 50
270.0000000000033
 51
315.00000000000341
  0
LINE
  5
2210
  8
0
 10
155.0118454350374
 20
84.528770413641269
 30
0.0
 11
153.59153521825459
 21
83.108460196858346
 31
0.0
  0
ARC
  5
2211
  8
0
 10
150.4450886088477
 20
77.8220207657142
 30
0.0
 40
3.0
 50
314.9999999012706
 51
0.0000000000005428
  0
LINE
  5
2212
  8
0
 10
153.4450886088477
 20
82.754906806265126
 30
0.0
 11
153.4450886088477
 21
77.822020765714214
 31
0.0
  0
ARC
  5
2213
  8
0
 10
153.9450886088477
 20
82.754906806264884
 30
0.0
 40
0.500000000000004
 50
134.9999999999724
 51
179.99999999997391
  0
ARC
  5
2214
  8
0
 10
155.36539882563079
 20
84.175217023047935
 30
0.0
 40
0.5000000000000995
 50
90.0
 51
135.00000000000111
  0
ARC
  5
2215
  8
0
 10
155.36539882562329
 20
104.67521702304811
 30
0.0
 40
0.5000000000001347
 50
224.9999999999965
 51
269.99999999999352
  0
LINE
  5
2216
  8
0
 10
153.59153521825459
 20
105.74197384923011
 30
0.0
 11
155.0118454350299
 21
104.3216636324548
 31
0.0
  0
ARC
  5
2217
  8
0
 10
153.9450886088479
 20
106.0955272398236
 30
0.0
 40
0.5000000000001137
 50
180.0000000000195
 51
225.00000000002299
  0
ARC
  5
2218
  8
0
 10
70.581127578183313
 20
117.6752170230434
 30
0.0
 40
3.0000000000001039
 50
269.99999999999778
 51
314.99999999999852
  0
CIRCLE
  5
2219
  8
0
 10
68.695088608856153
 20
109.4252170230434
 30
0.0
 40
2.5
  0
ARC
  5
221A
  8
0
 10
56.695088608862307
 20
121.4252170230434
 30
0.0
 40
3.0
 50
90.0
 51
180.0
  0
ARC
  5
221B
  8
0
 10
64.795088608863793
 20
122.2252170230433
 30
0.0
 40
0.7999999999999546
 50
270.0
 51
0.0000000000081422
  0
LINE
  5
221C
  8
0
 10
58.402195390042607
 20
117.3139471858405
 30
0.0
 11
62.566399720282561
 21
113.14974285560019
 31
0.0
  0
LINE
  5
221D
  8
0
 10
56.695088608863898
 20
113.32521702304319
 30
0.0
 11
56.695088608863671
 21
116.60684040464611
 31
0.0
  0
LINE
  5
221E
  8
0
 10
53.695088608862307
 20
121.4252170230434
 30
0.0
 11
53.695088608862307
 21
113.5252170230433
 31
0.0
  0
ARC
  5
221F
  8
0
 10
54.695088608862307
 20
113.5252170230433
 30
0.0
 40
1.0
 50
180.0
 51
270.0
  0
LINE
  5
2220
  8
0
 10
55.895088608855978
 20
106.3252170230447
 30
0.0
 11
54.695088608862307
 21
106.3252170230447
 31
0.0
  0
ARC
  5
2221
  8
0
 10
55.895088608863823
 20
113.32521702304329
 30
0.0
 40
0.8000000000000682
 50
269.99999999999193
 51
359.99999999999193
  0
LINE
  5
2222
  8
0
 10
54.695088608862307
 20
112.5252170230433
 30
0.0
 11
55.895088608863723
 21
112.5252170230433
 31
0.0
  0
ARC
  5
2223
  8
0
 10
57.695088608861511
 20
116.60684040465161
 30
0.0
 40
0.99999999999784
 50
45.000000000318948
 51
180.00000000031099
  0
LINE
  5
2224
  8
0
 10
63.44507016748593
 20
111.035855905443
 30
0.0
 11
63.452995392778121
 21
107.83737015277011
 31
0.0
  0
ARC
  5
2225
  8
0
 10
60.445079376723008
 20
111.02842251204051
 30
0.0
 40
3.0000000000000031
 50
0.1419675017414087
 51
45.000000000001911
  0
ARC
  5
2226
  8
0
 10
67.091892352027457
 20
117.6752170230436
 30
0.0
 40
3.000000000000127
 50
225.00000000000171
 51
270.0000000000021
  0
LINE
  5
2227
  8
0
 10
61.513465227281358
 20
121.4252170230434
 30
0.0
 11
64.795088608863793
 21
121.4252170230434
 31
0.0
  0
ARC
  5
2228
  8
0
 10
61.513465227281358
 20
120.4252170230434
 30
0.0
 40
0.9999999999999879
 50
90.000000000003254
 51
225.0000000000035
  0
LINE
  5
2229
  8
0
 10
64.970572008467784
 20
115.5538966794838
 30
0.0
 11
60.806358446094919
 21
119.71811024185681
 31
0.0
  0
LINE
  5
222A
  8
0
 10
70.581127578183214
 20
114.6752170230433
 30
0.0
 11
67.091892352027571
 21
114.6752170230435
 31
0.0
  0
LINE
  5
222B
  8
0
 10
64.595088608863762
 20
124.4252170230434
 30
0.0
 11
56.695088608862307
 21
124.4252170230434
 31
0.0
  0
ARC
  5
222C
  8
0
 10
64.595088608863762
 20
123.4252170230434
 30
0.0
 40
1.0
 50
0.0
 51
90.0
  0
LINE
  5
222D
  8
0
 10
65.595088608863762
 20
122.2252170230434
 30
0.0
 11
65.595088608863762
 21
123.4252170230434
 31
0.0
  0
ARC
  5
222E
  8
0
 10
113.6950886313245
 20
119.1926268422817
 30
0.0
 40
2.0000000000000151
 50
44.999999912735937
 51
134.99999991273589
  0
LINE
  5
222F
  8
0
 10
124.5950886088637
 20
124.4252170230434
 30
0.0
 11
102.795088608867
 21
124.4252170230434
 31
0.0
  0
ARC
  5
2230
  8
0
 10
90.445088608857546
 20
111.02841327957221
 30
0.0
 40
3.0000000000000542
 50
0.0000000000018999
 51
44.99999993360295
  0
LINE
  5
2231
  8
0
 10
94.595088608863762
 20
124.4252170230434
 30
0.0
 11
72.79508860886699
 21
124.4252170230434
 31
0.0
  0
LINE
  5
2232
  8
0
 10
91.513465227281131
 20
121.4252170230434
 30
0.0
 11
94.795088608863807
 21
121.4252170230435
 31
0.0
  0
LINE
  5
2233
  8
0
 10
94.970572008467798
 20
115.5538966794838
 30
0.0
 11
90.806358446094691
 21
119.71811024185681
 31
0.0
  0
ARC
  5
2234
  8
0
 10
72.595088608866945
 20
122.2252170230465
 30
0.0
 40
0.7999999999999546
 50
180.0
 51
270.0
  0
ARC
  5
2235
  8
0
 10
83.695088635639195
 20
113.5357725927763
 30
0.0
 40
5.9999999999998872
 50
44.999999912471097
 51
134.99999991247111
  0
LINE
  5
2236
  8
0
 10
74.823768267756336
 20
113.1497336262368
 30
0.0
 11
79.452447955001389
 21
117.7784132863769
 31
0.0
  0
ARC
  5
2237
  8
0
 10
76.945088608857532
 20
111.0284132802188
 30
0.0
 40
2.9999999999999711
 50
134.9999999335981
 51
179.9999999999967
  0
LINE
  5
2238
  8
0
 10
76.866661484119277
 20
119.71811024186
 30
0.0
 11
72.702447921742987
 21
115.5538966794836
 31
0.0
  0
ARC
  5
2239
  8
0
 10
76.15955470293261
 20
120.4252170230466
 30
0.0
 40
1.000000000000028
 50
315.00000000000341
 51
90.000000000003254
  0
LINE
  5
223A
  8
0
 10
72.595088608866945
 20
121.4252170230466
 30
0.0
 11
76.15955470293261
 21
121.4252170230466
 31
0.0
  0
LINE
  5
223B
  8
0
 10
87.937729329239801
 20
117.7784132734142
 30
0.0
 11
92.566408954875442
 21
113.1497336206736
 31
0.0
  0
ARC
  5
223C
  8
0
 10
91.513465227281131
 20
120.4252170230434
 30
0.0
 40
0.9999999999999678
 50
90.000000000001606
 51
225.0000000000046
  0
LINE
  5
223D
  8
0
 10
71.79508860886699
 20
123.4252170230434
 30
0.0
 11
71.79508860886699
 21
122.2252170230465
 31
0.0
  0
ARC
  5
223E
  8
0
 10
72.79508860886699
 20
123.4252170230434
 30
0.0
 40
1.0
 50
90.0
 51
180.0
  0
ARC
  5
223F
  8
0
 10
94.795088608863807
 20
122.2252170230434
 30
0.0
 40
0.7999999999999546
 50
270.0
 51
0.0
  0
ARC
  5
2240
  8
0
 10
102.5950886088669
 20
122.2252170230465
 30
0.0
 40
0.7999999999999261
 50
179.9999999999979
 51
270.0000000000021
  0
LINE
  5
2241
  8
0
 10
106.86666148411921
 20
119.71811024186
 30
0.0
 11
102.702447921743
 21
115.5538966794836
 31
0.0
  0
LINE
  5
2242
  8
0
 10
102.5950886088669
 20
121.4252170230466
 30
0.0
 11
106.15955470293279
 21
121.4252170230466
 31
0.0
  0
CIRCLE
  5
2243
  8
0
 10
98.695088608862307
 20
109.42521702305631
 30
0.0
 40
2.5
  0
LINE
  5
2244
  8
0
 10
100.5811275781832
 20
114.6752170230433
 30
0.0
 11
97.091892352027571
 21
114.6752170230435
 31
0.0
  0
ARC
  5
2245
  8
0
 10
97.091892352027457
 20
117.6752170230435
 30
0.0
 40
3.000000000000028
 50
225.0000000000004
 51
270.0000000000021
  0
ARC
  5
2246
  8
0
 10
100.5811275781833
 20
117.6752170230432
 30
0.0
 40
3.0000000000000142
 50
269.99999999999733
 51
314.99999999999949
  0
LINE
  5
2247
  8
0
 10
104.8237682677625
 20
113.1497336262498
 30
0.0
 11
112.2808750711053
 21
120.6068404068087
 31
0.0
  0
ARC
  5
2248
  8
0
 10
106.9450886088636
 20
111.0284132802317
 30
0.0
 40
2.9999999999999711
 50
134.9999999335981
 51
179.9999999999967
  0
LINE
  5
2249
  8
0
 10
103.9450886088636
 20
107.82202076647989
 30
0.0
 11
103.9450886088636
 21
111.0284132802319
 31
0.0
  0
ARC
  5
224A
  8
0
 10
106.15955470293279
 20
120.4252170230466
 30
0.0
 40
0.9999999999999715
 50
314.99999999999648
 51
89.999999999996746
  0
ARC
  5
224B
  8
0
 10
94.595088608863762
 20
123.4252170230434
 30
0.0
 40
1.0
 50
0.0
 51
90.0
  0
LINE
  5
224C
  8
0
 10
95.595088608863762
 20
122.2252170230434
 30
0.0
 11
95.595088608863762
 21
123.4252170230434
 31
0.0
  0
LINE
  5
224D
  8
0
 10
101.795088608867
 20
123.4252170230434
 30
0.0
 11
101.795088608867
 21
122.2252170230465
 31
0.0
  0
ARC
  5
224E
  8
0
 10
102.795088608867
 20
123.4252170230434
 30
0.0
 40
1.0
 50
90.0
 51
180.0
  0
LINE
  5
224F
  8
0
 10
134.8237682677466
 20
113.14973362624031
 30
0.0
 11
139.45244795499161
 21
117.7784132863803
 31
0.0
  0
LINE
  5
2250
  8
0
 10
136.86666148411931
 20
119.71811024186
 30
0.0
 11
132.70244792174299
 21
115.5538966794835
 31
0.0
  0
LINE
  5
2251
  8
0
 10
132.59508860886689
 20
121.4252170230466
 30
0.0
 11
136.15955470293281
 21
121.4252170230466
 31
0.0
  0
LINE
  5
2252
  8
0
 10
154.5950886088637
 20
124.4252170230434
 30
0.0
 11
132.79508860886699
 21
124.4252170230434
 31
0.0
  0
ARC
  5
2253
  8
0
 10
124.79508860886379
 20
122.2252170230434
 30
0.0
 40
0.7999999999999546
 50
270.0
 51
0.0
  0
ARC
  5
2254
  8
0
 10
132.59508860886689
 20
122.2252170230465
 30
0.0
 40
0.7999999999999261
 50
179.9999999999979
 51
270.0000000000021
  0
ARC
  5
2255
  8
0
 10
127.0918923520273
 20
117.6752170230432
 30
0.0
 40
2.9999999999997442
 50
224.99999999999849
 51
270.00000000000063
  0
LINE
  5
2256
  8
0
 10
115.1093021958516
 20
120.60684040250089
 30
0.0
 11
122.56640895488179
 21
113.1497336206865
 31
0.0
  0
LINE
  5
2257
  8
0
 10
123.4450886088636
 20
111.02841327958519
 30
0.0
 11
123.4450886088636
 21
107.82202076572391
 31
0.0
  0
ARC
  5
2258
  8
0
 10
120.4450886088636
 20
111.02841327958539
 30
0.0
 40
2.9999999999999432
 50
359.99999999999682
 51
44.999999933597763
  0
LINE
  5
2259
  8
0
 10
121.5134652272813
 20
121.4252170230434
 30
0.0
 11
124.79508860886379
 21
121.4252170230435
 31
0.0
  0
ARC
  5
225A
  8
0
 10
121.5134652272815
 20
120.4252170230434
 30
0.0
 40
0.9999999999999879
 50
90.000000000004874
 51
225.00000000000111
  0
LINE
  5
225B
  8
0
 10
124.9705720084678
 20
115.5538966794838
 30
0.0
 11
120.8063584460949
 21
119.71811024185681
 31
0.0
  0
CIRCLE
  5
225C
  8
0
 10
128.69508860884639
 20
109.4252170230467
 30
0.0
 40
2.5
  0
ARC
  5
225D
  8
0
 10
136.94508860884781
 20
111.0284132802221
 30
0.0
 40
3.0000000000001128
 50
134.9999999335993
 51
179.99999999999781
  0
LINE
  5
225E
  8
0
 10
130.58112757818321
 20
114.6752170230431
 30
0.0
 11
127.0918923520273
 21
114.6752170230435
 31
0.0
  0
ARC
  5
225F
  8
0
 10
130.5811275781833
 20
117.6752170230431
 30
0.0
 40
3.0000000000000142
 50
269.99999999999733
 51
314.99999999999949
  0
ARC
  5
2260
  8
0
 10
124.5950886088637
 20
123.4252170230434
 30
0.0
 40
1.0
 50
0.0
 51
90.0
  0
LINE
  5
2261
  8
0
 10
125.5950886088637
 20
122.2252170230434
 30
0.0
 11
125.5950886088637
 21
123.4252170230434
 31
0.0
  0
LINE
  5
2262
  8
0
 10
131.79508860886699
 20
123.4252170230434
 30
0.0
 11
131.79508860886699
 21
122.2252170230465
 31
0.0
  0
ARC
  5
2263
  8
0
 10
132.79508860886699
 20
123.4252170230434
 30
0.0
 40
1.0
 50
90.0
 51
180.0
  0
ARC
  5
2264
  8
0
 10
154.79508860886381
 20
122.2252170230434
 30
0.0
 40
0.7999999999999546
 50
270.0
 51
0.0
  0
ARC
  5
2265
  8
0
 10
143.69508863562939
 20
113.53577259277969
 30
0.0
 40
5.9999999999998872
 50
44.999999912470329
 51
134.99999991247029
  0
ARC
  5
2266
  8
0
 10
136.1595547029327
 20
120.4252170230466
 30
0.0
 40
1.0
 50
315.0
 51
89.999999999993491
  0
LINE
  5
2267
  8
0
 10
147.93772932923
 20
117.7784132734175
 30
0.0
 11
152.56640895486589
 21
113.1497336206769
 31
0.0
  0
ARC
  5
2268
  8
0
 10
150.44508860884781
 20
111.0284132795757
 30
0.0
 40
2.9999999999999032
 50
359.99999999999682
 51
44.999999933598517
  0
LINE
  5
2269
  8
0
 10
151.5134652272813
 20
121.4252170230434
 30
0.0
 11
154.79508860886381
 21
121.4252170230435
 31
0.0
  0
LINE
  5
226A
  8
0
 10
154.970572008468
 20
115.5538966794837
 30
0.0
 11
150.80635844609489
 21
119.71811024185681
 31
0.0
  0
ARC
  5
226B
  8
0
 10
151.5134652272813
 20
120.4252170230434
 30
0.0
 40
0.9999999999999879
 50
90.000000000003254
 51
225.0000000000035
  0
ARC
  5
226C
  8
0
 10
157.0918923520276
 20
117.6752170230432
 30
0.0
 40
2.9999999999998721
 50
224.9999999999998
 51
270.0
  0
ARC
  5
226D
  8
0
 10
154.5950886088637
 20
123.4252170230434
 30
0.0
 40
1.0
 50
0.0
 51
90.0
  0
LINE
  5
226E
  8
0
 10
155.59508860886379
 20
122.2252170230434
 30
0.0
 11
155.59508860886379
 21
123.4252170230434
 31
0.0
  0
ARC
  5
226F
  8
0
 10
166.9450886088575
 20
107.8220207662069
 30
0.0
 40
2.9999999999999432
 50
179.99999999982521
 51
224.9999999999969
  0
ARC
  5
2270
  8
0
 10
171.4950886088622
 20
105.525217023048
 30
0.0
 40
0.7999999999951797
 50
90.000000000341956
 51
180.0000000003501
  0
ARC
  5
2271
  8
0
 10
172.69508860886231
 20
105.32521702304319
 30
0.0
 40
1.0
 50
0.0
 51
90.0
  0
LINE
  5
2272
  8
0
 10
168.98798182768039
 20
71.536486860277705
 30
0.0
 11
164.82376826530731
 21
75.700700422650925
 31
0.0
  0
LINE
  5
2273
  8
0
 10
170.6950886088668
 20
75.525217023046594
 30
0.0
 11
170.69508860886711
 21
72.243593641464258
 31
0.0
  0
ARC
  5
2274
  8
0
 10
172.69508860886231
 20
75.325217023046662
 30
0.0
 40
1.0
 50
0.0000000000004071
 51
90.000000000006509
  0
LINE
  5
2275
  8
0
 10
162.7950886088654
 20
64.425217023043388
 30
0.0
 11
170.69508860886231
 21
64.425217023043388
 31
0.0
  0
ARC
  5
2276
  8
0
 10
165.8767119904594
 20
68.425217023045235
 30
0.0
 40
1.000000000000028
 50
269.99999999999682
 51
44.99999999999654
  0
LINE
  5
2277
  8
0
 10
165.8767119904594
 20
67.425217023045207
 30
0.0
 11
162.59508860886561
 21
67.425217023045093
 31
0.0
  0
ARC
  5
2278
  8
0
 10
162.7950886088654
 20
65.425217023043373
 30
0.0
 40
1.0
 50
180.0
 51
270.0
  0
LINE
  5
2279
  8
0
 10
161.7950886088654
 20
66.625217023045138
 30
0.0
 11
161.7950886088654
 21
65.425217023043373
 31
0.0
  0
ARC
  5
227A
  8
0
 10
162.59508860886541
 20
66.625217023045025
 30
0.0
 40
0.8000000000000682
 50
89.999999999991857
 51
179.99999999999179
  0
LINE
  5
227B
  8
0
 10
162.41960520927319
 20
73.296537366604866
 30
0.0
 11
166.58381877164601
 21
69.13232380423176
 31
0.0
  0
ARC
  5
227C
  8
0
 10
160.29828486571361
 20
71.175217023045377
 30
0.0
 40
2.9999999999998361
 50
44.999999999999318
 51
90.000000000056446
  0
LINE
  5
227D
  8
0
 10
173.69508860886231
 20
67.425217023043388
 30
0.0
 11
173.69508860886231
 21
75.325217023046662
 31
0.0
  0
ARC
  5
227E
  8
0
 10
170.69508860886231
 20
67.425217023043388
 30
0.0
 40
3.0
 50
270.0
 51
0.0
  0
ARC
  5
227F
  8
0
 10
169.69508860886711
 20
72.243593641464287
 30
0.0
 40
1.000000000000056
 50
224.99999999999849
 51
359.99999999999881
  0
ARC
  5
2280
  8
0
 10
162.80564417855501
 20
94.425216993083325
 30
0.0
 40
6.0000000000000071
 50
314.9999999027599
 51
44.999999901269859
  0
LINE
  5
2281
  8
0
 10
173.69508860886231
 20
83.525217023046466
 30
0.0
 11
173.69508860886231
 21
105.32521702304319
 31
0.0
  0
LINE
  5
2282
  8
0
 10
164.82376826529429
 20
83.149733623453685
 30
0.0
 11
168.9879818276674
 21
87.313947185826805
 31
0.0
  0
ARC
  5
2283
  8
0
 10
166.94508860885409
 20
81.028413279894139
 30
0.0
 40
3.000000000000056
 50
135.00000000000401
 51
180.00000000023039
  0
LINE
  5
2284
  8
0
 10
163.9450886088668
 20
77.822020766198534
 30
0.0
 11
163.94508860885409
 21
81.028413279882102
 31
0.0
  0
ARC
  5
2285
  8
0
 10
166.9450886088668
 20
77.82202076621067
 30
0.0
 40
3.0000000000000089
 50
180.00000000023189
 51
225.0000000000027
  0
LINE
  5
2286
  8
0
 10
167.04828485847381
 20
90.182576298763593
 30
0.0
 11
162.41960520702901
 21
85.553896677541275
 31
0.0
  0
ARC
  5
2287
  8
0
 10
160.29828486541641
 20
87.675217023048035
 30
0.0
 40
2.9999999999999591
 50
269.99999999999892
 51
314.99999994740921
  0
ARC
  5
2288
  8
0
 10
172.69508860886231
 20
83.525217023046466
 30
0.0
 40
1.0
 50
270.0
 51
0.0
  0
ARC
  5
2289
  8
0
 10
171.4950886088543
 20
83.325217023046434
 30
0.0
 40
0.7999999999999546
 50
180.0
 51
270.0
  0
LINE
  5
228A
  8
0
 10
171.4950886088543
 20
82.525217023046466
 30
0.0
 11
172.69508860886231
 21
82.525217023046466
 31
0.0
  0
ARC
  5
228B
  8
0
 10
171.49508860886681
 20
75.525217023046594
 30
0.0
 40
0.7999999999999546
 50
90.0
 51
180.0
  0
LINE
  5
228C
  8
0
 10
172.69508860886219
 20
76.325217023046662
 30
0.0
 11
171.49508860886681
 21
76.325217023046534
 31
0.0
  0
LINE
  5
228D
  8
0
 10
170.69508860885389
 20
86.606840404640366
 30
0.0
 11
170.69508860885429
 21
83.325217023046434
 31
0.0
  0
ARC
  5
228E
  8
0
 10
169.69508860885389
 20
86.606840404640238
 30
0.0
 40
0.9999999999999376
 50
0.0000000000056996
 51
134.9999999999994
  0
LINE
  5
228F
  8
0
 10
168.98798182768019
 20
101.5364868602652
 30
0.0
 11
164.8237682652977
 21
105.7007004226474
 31
0.0
  0
LINE
  5
2290
  8
0
 10
162.41960521338751
 20
103.29653736295229
 30
0.0
 11
167.04828487298499
 21
98.667857672891856
 31
0.0
  0
ARC
  5
2291
  8
0
 10
160.29828486617239
 20
101.17521702304801
 30
0.0
 40
3.0
 50
44.999999901270229
 51
90.0
  0
ARC
  5
2292
  8
0
 10
169.6950886088666
 20
102.2435936414517
 30
0.0
 40
0.9999999999999431
 50
225.00000000000111
 51
359.99999999999511
  0
LINE
  5
2293
  8
0
 10
170.69508860886711
 20
105.5252170230432
 30
0.0
 11
170.6950886088666
 21
102.2435936414516
 31
0.0
  0
ARC
  5
2294
  8
0
 10
162.59508860886689
 20
122.2252170230465
 30
0.0
 40
0.7999999999999546
 50
180.0
 51
270.0
  0
ARC
  5
2295
  8
0
 10
170.69508860886231
 20
121.4252170230434
 30
0.0
 40
3.0
 50
0.0
 51
90.0
  0
LINE
  5
2296
  8
0
 10
164.82376826530731
 20
113.1497336234538
 30
0.0
 11
168.98798182768019
 21
117.3139471858271
 31
0.0
  0
ARC
  5
2297
  8
0
 10
166.9450886088668
 20
111.028413279894
 30
0.0
 40
3.0
 50
134.9999999999973
 51
179.99999999982469
  0
LINE
  5
2298
  8
0
 10
163.9450886088575
 20
107.822020766216
 30
0.0
 11
163.9450886088668
 21
111.02841327990321
 31
0.0
  0
LINE
  5
2299
  8
0
 10
166.5838187716447
 20
119.71811024186
 30
0.0
 11
162.41960520926841
 21
115.5538966794837
 31
0.0
  0
LINE
  5
229A
  8
0
 10
162.59508860886689
 20
121.4252170230466
 30
0.0
 11
165.8767119904582
 21
121.4252170230466
 31
0.0
  0
ARC
  5
229B
  8
0
 10
160.29828486570881
 20
117.6752170230432
 30
0.0
 40
2.999999999999853
 50
270.0
 51
315.00000000000023
  0
ARC
  5
229C
  8
0
 10
165.8767119904582
 20
120.4252170230466
 30
0.0
 40
0.9999999999999715
 50
314.99999999999648
 51
89.999999999996746
  0
LINE
  5
229D
  8
0
 10
173.69508860886231
 20
113.52521702304639
 30
0.0
 11
173.69508860886231
 21
121.4252170230434
 31
0.0
  0
LINE
  5
229E
  8
0
 10
170.6950886088668
 20
116.60684040464071
 30
0.0
 11
170.69508860886711
 21
113.32521702304651
 31
0.0
  0
ARC
  5
229F
  8
0
 10
172.69508860886231
 20
113.52521702304639
 30
0.0
 40
1.0
 50
270.0
 51
0.0
  0
LINE
  5
22A0
  8
0
 10
171.49508860886701
 20
112.52521702304639
 30
0.0
 11
172.69508860886231
 21
112.52521702304639
 31
0.0
  0
ARC
  5
22A1
  8
0
 10
171.49508860886701
 20
113.32521702304651
 30
0.0
 40
0.8000000000000113
 50
179.99999999999591
 51
269.99999999999591
  0
LINE
  5
22A2
  8
0
 10
172.69508860886231
 20
106.32521702304319
 30
0.0
 11
171.49508860885749
 21
106.32521702304319
 31
0.0
  0
ARC
  5
22A3
  8
0
 10
169.6950886088668
 20
116.60684040464059
 30
0.0
 40
1.000000000000038
 50
0.0000000000024427
 51
135.00000000000739
  0
LINE
  5
22A4
  8
0
 10
170.69508860886231
 20
124.4252170230434
 30
0.0
 11
162.79508860886699
 21
124.4252170230434
 31
0.0
  0
LINE
  5
22A5
  8
0
 10
161.79508860886699
 20
123.4252170230434
 30
0.0
 11
161.79508860886699
 21
122.2252170230465
 31
0.0
  0
ARC
  5
22A6
  8
0
 10
162.79508860886699
 20
123.4252170230434
 30
0.0
 40
1.0
 50
90.0
 51
180.0
  0
TEXT
  5
23EE
  8
0
 62
     3
 10
0.0
 20
0.0
 30
0.0
 40
10.0
  1
L6-SPH12060N-3M
  7
STANDARD1
  0
ENDSEC
  0
EOF
