  0
SECTION
  2
HEADER
  9
$ACADVER
  1
AC1009
  9
$INSBASE
 10
7.37824081052986
 20
15.90864369846679
 30
0.0
  9
$EXTMIN
 10
0.0
 20
-1.4802182810368341
 30
0.0
  9
$EXTMAX
 10
133.29010589425391
 20
111.7907828943199
 30
0.0
  9
$LIMMIN
 10
0.0
 20
0.0
  9
$LIMMAX
 10
385.0
 20
270.0
  9
$ORTHOMODE
 70
     0
  9
$REGENMODE
 70
     1
  9
$FILLMODE
 70
     1
  9
$QTEXTMODE
 70
     0
  9
$MIRRTEXT
 70
     0
  9
$DRAGMODE
 70
     2
  9
$LTSCALE
 40
10.0
  9
$OSMODE
 70
  3071
  9
$ATTMODE
 70
     1
  9
$TEXTSIZE
 40
4.0
  9
$TRACEWID
 40
0.05
  9
$TEXTSTYLE
  7
STANDARD
  9
$CLAYER
  8
0
  9
$CELTYPE
  6
BYLAYER
  9
$CECOLOR
 62
   256
  9
$DIMSCALE
 40
1.0
  9
$DIMASZ
 40
3.0
  9
$DIMEXO
 40
2.0
  9
$DIMDLI
 40
10.0
  9
$DIMRND
 40
0.0
  9
$DIMDLE
 40
0.0
  9
$DIMEXE
 40
2.0
  9
$DIMTP
 40
0.0
  9
$DIMTM
 40
0.0
  9
$DIMTXT
 40
3.0
  9
$DIMCEN
 40
0.09
  9
$DIMTSZ
 40
0.0
  9
$DIMTOL
 70
     0
  9
$DIMLIM
 70
     0
  9
$DIMTIH
 70
     0
  9
$DIMTOH
 70
     0
  9
$DIMSE1
 70
     0
  9
$DIMSE2
 70
     0
  9
$DIMTAD
 70
     1
  9
$DIMZIN
 70
     0
  9
$DIMBLK
  1

  9
$DIMASO
 70
     0
  9
$DIMSHO
 70
     0
  9
$DIMPOST
  1

  9
$DIMAPOST
  1

  9
$DIMALT
 70
     0
  9
$DIMALTD
 70
     2
  9
$DIMALTF
 40
25.399999999999999
  9
$DIMLFAC
 40
1.0
  9
$DIMTOFL
 70
     1
  9
$DIMTVP
 40
1.6000000000000001
  9
$DIMTIX
 70
     1
  9
$DIMSOXD
 70
     0
  9
$DIMSAH
 70
     0
  9
$DIMBLK1
  1

  9
$DIMBLK2
  1

  9
$DIMSTYLE
  2
STANDARD
  9
$DIMCLRD
 70
     0
  9
$DIMCLRE
 70
     0
  9
$DIMCLRT
 70
     0
  9
$DIMTFAC
 40
1.0
  9
$DIMGAP
 40
1.0
  9
$LUNITS
 70
     2
  9
$LUPREC
 70
     2
  9
$SKETCHINC
 40
0.1
  9
$FILLETRAD
 40
2.0
  9
$AUNITS
 70
     0
  9
$AUPREC
 70
     2
  9
$MENU
  1
E:\r13\win\SUPPORT\ACAD
  9
$ELEVATION
 40
0.0
  9
$PELEVATION
 40
0.0
  9
$THICKNESS
 40
0.0
  9
$LIMCHECK
 70
     0
  9
$BLIPMODE
 70
     0
  9
$CHAMFERA
 40
1.0
  9
$CHAMFERB
 40
1.0
  9
$SKPOLY
 70
     0
  9
$TDCREATE
 40
2450252.6853964119
  9
$TDUPDATE
 40
2456597.5623502661
  9
$TDINDWG
 40
0.1427400231
  9
$TDUSRTIMER
 40
0.1427400231
  9
$USRTIMER
 70
     1
  9
$ANGBASE
 50
0.0
  9
$ANGDIR
 70
     0
  9
$PDMODE
 70
     0
  9
$PDSIZE
 40
0.0
  9
$PLINEWID
 40
0.0
  9
$COORDS
 70
     1
  9
$SPLFRAME
 70
     0
  9
$SPLINETYPE
 70
     6
  9
$SPLINESEGS
 70
     8
  9
$ATTDIA
 70
     0
  9
$ATTREQ
 70
     1
  9
$HANDLING
 70
     1
  9
$HANDSEED
  5
29AB
  9
$SURFTAB1
 70
     6
  9
$SURFTAB2
 70
     6
  9
$SURFTYPE
 70
     6
  9
$SURFU
 70
     6
  9
$SURFV
 70
     6
  9
$UCSNAME
  2

  9
$UCSORG
 10
0.0
 20
0.0
 30
0.0
  9
$UCSXDIR
 10
1.0
 20
0.0
 30
0.0
  9
$UCSYDIR
 10
0.0
 20
1.0
 30
0.0
  9
$PUCSNAME
  2

  9
$PUCSORG
 10
0.0
 20
0.0
 30
0.0
  9
$PUCSXDIR
 10
1.0
 20
0.0
 30
0.0
  9
$PUCSYDIR
 10
0.0
 20
1.0
 30
0.0
  9
$USERI1
 70
     3
  9
$USERI2
 70
     1
  9
$USERI3
 70
     1
  9
$USERI4
 70
     1
  9
$USERI5
 70
     0
  9
$USERR1
 40
1.0
  9
$USERR2
 40
3.0
  9
$USERR3
 40
3.0
  9
$USERR4
 40
3.0
  9
$USERR5
 40
10.0
  9
$WORLDVIEW
 70
     1
  9
$SHADEDGE
 70
     3
  9
$SHADEDIF
 70
    70
  9
$TILEMODE
 70
     1
  9
$MAXACTVP
 70
    16
  9
$PLIMCHECK
 70
     0
  9
$PEXTMIN
 10
1.0000000000000000E+020
 20
1.0000000000000000E+020
 30
1.0000000000000000E+020
  9
$PEXTMAX
 10
-1.0000000000000000E+020
 20
-1.0000000000000000E+020
 30
-1.0000000000000000E+020
  9
$PLIMMIN
 10
0.0
 20
0.0
  9
$PLIMMAX
 10
12.0
 20
9.0
  9
$UNITMODE
 70
     0
  9
$VISRETAIN
 70
     0
  9
$PLINEGEN
 70
     0
  9
$PSLTSCALE
 70
     0
  0
ENDSEC
  0
SECTION
  2
TABLES
  0
TABLE
  2
VPORT
 70
     1
  0
VPORT
  2
*ACTIVE
 70
     0
 10
0.0
 20
0.0
 11
1.0
 21
1.0
 12
192.49412581440311
 22
163.44375437976839
 13
0.0
 23
0.0
 14
5.0
 24
5.0
 15
5.0
 25
5.0
 16
0.0
 26
0.0
 36
1.0
 17
0.0
 27
0.0
 37
0.0
 40
332.99088632058158
 41
1.9089595375722539
 42
50.0
 43
0.0
 44
0.0
 50
0.0
 51
0.0
 71
     0
 72
  1000
 73
     1
 74
     0
 75
     0
 76
     0
 77
     0
 78
     1
  0
ENDTAB
  0
TABLE
  2
LTYPE
 70
     3
  0
LTYPE
  2
CONTINUOUS
 70
     0
  3
Solid Line
 72
    65
 73
     0
 40
0.0
  0
LTYPE
  2
CENTER
 70
     0
  3
____ _ ____ _ ____ _ ____ _ ____ _ ____ _ ____
 72
    65
 73
     4
 40
2.0
 49
1.25
 49
-0.25
 49
0.25
 49
-0.25
  0
LTYPE
  2
PHANTOM2
 70
     0
  3
___ _ _ ___ _ _ ___ _ _ ___ _ _
 72
    65
 73
     6
 40
1.25
 49
0.625
 49
-0.125
 49
0.125
 49
-0.125
 49
0.125
 49
-0.125
  0
ENDTAB
  0
TABLE
  2
LAYER
 70
     4
  0
LAYER
  2
0
 70
     0
 62
     7
  6
CONTINUOUS
  0
LAYER
  2
11
 70
     0
 62
     3
  6
CONTINUOUS
  0
LAYER
  2
1
 70
     0
 62
     1
  6
CENTER
  0
LAYER
  2
3
 70
     0
 62
     3
  6
CONTINUOUS
  0
ENDTAB
  0
TABLE
  2
STYLE
 70
     2
  0
STYLE
  2
STANDARD
 70
     0
 40
0.0
 41
1.0
 50
0.0
 71
     0
 42
4.0
  3
simplex
  4
bigfont
  0
STYLE
  2
STANDARD1
 70
     0
 40
0.0
 41
1.0
 50
0.0
 71
     0
 42
3.0
  3
txt
  4

  0
ENDTAB
  0
TABLE
  2
VIEW
 70
     0
  0
ENDTAB
  0
TABLE
  2
UCS
 70
     0
  0
ENDTAB
  0
TABLE
  2
APPID
 70
     9
  0
APPID
  2
ACAD
 70
     0
  0
APPID
  2
GENIUS_GENODEF_13
 70
     0
  0
APPID
  2
GENIUS_GENOENT_13
 70
     0
  0
APPID
  2
GENIUS_GENOBJ_13
 70
     0
  0
APPID
  2
GENIUS_GENOLIS_13
 70
     0
  0
APPID
  2
GENIUS_GENOREF_13
 70
     0
  0
APPID
  2
GENIUS_GENOBJ-N-FIL_13
 70
     0
  0
APPID
  2
ACAD_MLEADERVER
 70
     0
  0
APPID
  2
ACAD_NAV_VCDISPLAY
 70
     0
  0
ENDTAB
  0
TABLE
  2
DIMSTYLE
 70
     1
  0
DIMSTYLE
  2
STANDARD
 70
     0
  3

  4

  5

  6

  7

 40
1.0
 41
0.18
 42
0.0625
 43
0.38
 44
0.18
 45
0.0
 46
0.0
 47
0.0
 48
0.0
140
0.18
141
0.09
142
0.0
143
25.399999999999999
144
1.0
145
0.0
146
1.0
147
0.09
 71
     0
 72
     0
 73
     1
 74
     1
 75
     0
 76
     0
 77
     0
 78
     0
170
     0
171
     2
172
     0
173
     0
174
     0
175
     0
176
     0
177
     0
178
     0
  0
ENDTAB
  0
ENDSEC
  0
SECTION
  2
BLOCKS
  0
BLOCK
  8
0
  2
$MODEL_SPACE
 70
     0
 10
0.0
 20
0.0
 30
0.0
  3
$MODEL_SPACE
  1

  0
ENDBLK
  5
2844
  8
0
  0
BLOCK
 67
     1
  8
0
  2
$PAPER_SPACE
 70
     0
 10
0.0
 20
0.0
 30
0.0
  3
$PAPER_SPACE
  1

  0
ENDBLK
  5
2842
 67
     1
  8
0
  0
ENDSEC
  0
SECTION
  2
ENTITIES
  0
LINE
  5
26B3
  8
1
 10
98.947519242963892
 20
100.49078289431991
 30
0.0
 11
133.29010589425391
 21
100.49078289431991
 31
0.0
  0
LINE
  5
26B4
  8
0
 10
108.44751924296069
 20
93.990782894319878
 30
0.0
 11
114.01013288872051
 21
93.990782894319878
 31
0.0
  0
LINE
  5
26B5
  8
0
 10
108.44751924296069
 20
106.99078289431991
 30
0.0
 11
114.01013288872051
 21
106.99078289431991
 31
0.0
  0
LINE
  5
26B6
  8
0
 10
128.44751924296389
 20
54.890636687006662
 30
0.0
 11
107.9482462652617
 21
54.890636687006513
 31
0.0
  0
LINE
  5
26B7
  8
0
 10
107.2070881856084
 20
51.40167869379983
 30
0.0
 11
111.44644701888041
 21
51.40167869379983
 31
0.0
  0
LINE
  5
26B8
  8
0
 10
107.64158456309229
 20
49.617568676022977
 30
0.0
 11
111.99188370502181
 21
51.657435391214072
 31
0.0
  0
LINE
  5
26B9
  8
0
 10
106.70315885899031
 20
51.165384906490118
 30
0.0
 11
111.1954527244114
 21
53.271833321176587
 31
0.0
  0
LINE
  5
26BA
  8
0
 10
107.44751924296391
 20
56.690636687006652
 30
0.0
 11
128.44751924296389
 21
56.690636687006652
 31
0.0
  0
LINE
  5
26BB
  8
0
 10
104.4903587174398
 20
102.3907828943199
 30
0.0
 11
104.4903587174398
 21
98.590782894319915
 31
0.0
  0
LINE
  5
26BC
  8
0
 10
104.2080176313175
 20
103.3907828943199
 30
0.0
 11
104.2080176313175
 21
97.590782894319915
 31
0.0
  0
LINE
  5
26BD
  8
0
 10
107.447519242967
 20
102.3907828943199
 30
0.0
 11
107.447519242967
 21
98.590782894319915
 31
0.0
  0
ARC
  5
26BE
  8
0
 10
108.44751924296069
 20
94.990782894319906
 30
0.0
 40
1.0
 50
180.0
 51
269.99999999999989
  0
ARC
  5
26BF
  8
0
 10
106.99751924296071
 20
97.140782894319926
 30
0.0
 40
0.7500000000000142
 50
306.86989764584308
 51
36.869897645839892
  0
LINE
  5
26C0
  8
0
 10
106.9333427982771
 20
97.890782894321575
 30
0.0
 11
106.04393898020029
 21
97.890782894319983
 31
0.0
  0
ARC
  5
26C1
  8
0
 10
106.9333427982771
 20
97.005565644865868
 30
0.0
 40
0.8852172494540976
 50
41.383829947904907
 51
138.61617005209081
  0
LINE
  5
26C2
  8
0
 10
107.2070881856099
 20
97.390782894319941
 30
0.0
 11
107.2070881856099
 21
97.590782894319915
 31
0.0
  0
LINE
  5
26C3
  8
0
 10
106.048261557895
 20
97.590782894319915
 30
0.0
 11
106.048261557895
 21
97.390782894319941
 31
0.0
  0
LINE
  5
26C4
  8
0
 10
104.28002740281811
 20
97.390782894319941
 30
0.0
 11
104.28002740281811
 21
97.590782894319915
 31
0.0
  0
ARC
  5
26C5
  8
0
 10
106.04393898020029
 20
93.718096839588995
 30
0.0
 40
4.1726860547310123
 50
90.000000000102077
 51
111.8588547001202
  0
ARC
  5
26C6
  8
0
 10
106.99751924296071
 20
97.140782894319983
 30
0.0
 40
0.7500000000000142
 50
306.86989764584308
 51
36.869897645839927
  0
LINE
  5
26C7
  8
0
 10
107.5975192429609
 20
97.590782894319915
 30
0.0
 11
104.2080176313175
 21
97.590782894319915
 31
0.0
  0
LINE
  5
26C8
  8
0
 10
107.7046260241497
 20
97.390782894319941
 30
0.0
 11
104.28002740281811
 21
97.390782894319941
 31
0.0
  0
LINE
  5
26C9
  8
0
 10
107.44751924296069
 20
96.540782894319904
 30
0.0
 11
107.44751924296069
 21
94.990782894319906
 31
0.0
  0
LINE
  5
26CA
  8
0
 10
107.7046260241497
 20
103.5907828943199
 30
0.0
 11
104.28002740281811
 21
103.5907828943199
 31
0.0
  0
LINE
  5
26CB
  8
0
 10
107.5975192429609
 20
103.3907828943199
 30
0.0
 11
104.2080176313175
 21
103.3907828943199
 31
0.0
  0
ARC
  5
26CC
  8
0
 10
106.99751924296071
 20
103.8407828943199
 30
0.0
 40
0.7500000000000142
 50
323.13010235415999
 51
53.130102354156847
  0
ARC
  5
26CD
  8
0
 10
106.04393898020029
 20
107.2634689490509
 30
0.0
 40
4.1726860547310123
 50
248.14114529987981
 51
269.99999999989791
  0
LINE
  5
26CE
  8
0
 10
104.28002740281811
 20
103.5907828943199
 30
0.0
 11
104.28002740281811
 21
103.3907828943199
 31
0.0
  0
LINE
  5
26CF
  8
0
 10
106.048261557895
 20
103.3907828943199
 30
0.0
 11
106.048261557895
 21
103.5907828943199
 31
0.0
  0
LINE
  5
26D0
  8
0
 10
107.2070881856099
 20
103.5907828943199
 30
0.0
 11
107.2070881856099
 21
103.3907828943199
 31
0.0
  0
ARC
  5
26D1
  8
0
 10
106.9333427982771
 20
103.9760001437739
 30
0.0
 40
0.8852172494540976
 50
221.38382994790911
 51
318.61617005209507
  0
LINE
  5
26D2
  8
0
 10
106.9333427982771
 20
103.09078289431829
 30
0.0
 11
106.04393898020029
 21
103.0907828943199
 31
0.0
  0
ARC
  5
26D3
  8
0
 10
108.44751924296069
 20
105.99078289431991
 30
0.0
 40
1.0
 50
90.0
 51
180.0
  0
LINE
  5
26D4
  8
0
 10
107.44751924296069
 20
104.4407828943199
 30
0.0
 11
107.44751924296069
 21
105.99078289431991
 31
0.0
  0
ARC
  5
26D5
  8
0
 10
106.62309342335961
 20
51.7896425170469
 30
0.0
 40
2.3990058300417778
 50
171.43150118724469
 51
295.12200421776049
  0
ARC
  5
26D6
  8
0
 10
106.4975233072567
 20
51.621141479012827
 30
0.0
 40
0.5000000335344375
 50
171.0020971182141
 51
294.28470684296661
  0
LINE
  5
26D7
  8
0
 10
104.2556659071669
 20
51.40167869379983
 30
0.0
 11
106.0482615578933
 21
51.40167869379983
 31
0.0
  0
LINE
  5
26D8
  8
0
 10
107.44751924296391
 20
56.690636687006652
 30
0.0
 11
107.44751924296391
 21
54.89063668700669
 31
0.0
  0
LINE
  5
26D9
  8
0
 10
104.4903587174382
 20
53.736568093638759
 30
0.0
 11
106.2691663535921
 21
53.456513820712239
 31
0.0
  0
LINE
  5
26DA
  8
0
 10
106.2691663535921
 20
53.456513820712239
 30
0.0
 11
106.0036762412909
 21
51.69934064122981
 31
0.0
  0
LINE
  5
26DB
  8
0
 10
104.4903587174382
 20
53.736568093638759
 30
0.0
 11
104.2508642263163
 21
52.147074481579608
 31
0.0
  0
ARC
  5
26DC
  8
0
 10
107.9482462652617
 20
53.190636687006638
 30
0.0
 40
1.7
 50
89.999999999999659
 51
171.0020971182137
  0
ARC
  5
26DD
  8
0
 10
107.94751924296391
 20
53.190636687006638
 30
0.0
 40
3.5
 50
98.213210701738205
 51
171.0263392353929
  0
ARC
  5
26DE
  8
0
 10
57.666209640537708
 20
54.831758363091978
 30
0.0
 40
5.5999999999999988
 50
28.346309363421689
 51
67.106312624534553
  0
LINE
  5
26DF
  8
0
 10
52.094735389542222
 20
57.490636687009832
 30
0.0
 11
62.594735389542222
 21
57.490636687009832
 31
0.0
  0
LINE
  5
26E0
  8
0
 10
62.594735389542222
 20
56.690636687006702
 30
0.0
 11
52.094735389542222
 21
56.690636687006702
 31
0.0
  0
LINE
  5
26E1
  8
0
 10
63.844735389542222
 20
54.89063668700669
 30
0.0
 11
60.3661693436934
 21
54.89063668700669
 31
0.0
  0
LINE
  5
26E2
  8
0
 10
50.844735389542222
 20
56.690636687006702
 30
0.0
 11
63.844735389542222
 21
56.690636687006702
 31
0.0
  0
LINE
  5
26E3
  8
3
 10
54.95823538954221
 20
49.39063668700669
 30
0.0
 11
54.95823538954226
 21
42.690636687006759
 31
0.0
  0
LINE
  5
26E4
  8
3
 10
59.731235389542178
 20
49.39063668700669
 30
0.0
 11
59.731235389542178
 21
42.690636687006759
 31
0.0
  0
LINE
  5
26E5
  8
0
 10
54.344735389539039
 20
44.690636687006702
 30
0.0
 11
54.95823538954226
 21
42.690636687006702
 31
0.0
  0
LINE
  5
26E6
  8
0
 10
60.344735389539032
 20
44.690636687006702
 30
0.0
 11
59.731235389542178
 21
42.690636687006702
 31
0.0
  0
LINE
  5
26E7
  8
0
 10
120.94751924296069
 20
44.690636687006638
 30
0.0
 11
120.33401924296381
 21
42.690636687006638
 31
0.0
  0
LINE
  5
26E8
  8
3
 10
115.56101924296389
 20
51.750636687004878
 30
0.0
 11
115.56101924296389
 21
42.690636687006702
 31
0.0
  0
LINE
  5
26E9
  8
3
 10
120.33401924296381
 20
51.750636687005731
 30
0.0
 11
120.33401924296381
 21
42.690636687006702
 31
0.0
  0
LINE
  5
26EA
  8
0
 10
114.94751924296069
 20
44.690636687006638
 30
0.0
 11
115.56101924296389
 21
42.690636687006638
 31
0.0
  0
LINE
  5
26EB
  8
0
 10
128.19041246177801
 20
97.390782894319941
 30
0.0
 11
131.61501108310961
 21
97.390782894319941
 31
0.0
  0
LINE
  5
26EC
  8
0
 10
128.29751924296681
 20
97.590782894319915
 30
0.0
 11
131.68702085461021
 21
97.590782894319915
 31
0.0
  0
ARC
  5
26ED
  8
0
 10
129.8510995057274
 20
93.718096839588995
 30
0.0
 40
4.1726860547310123
 50
68.141145299879753
 51
89.999999999897923
  0
ARC
  5
26EE
  8
0
 10
129.8510995057274
 20
107.2634689490509
 30
0.0
 40
4.1726860547310123
 50
270.00000000010209
 51
291.85885470012022
  0
LINE
  5
26EF
  8
0
 10
128.29751924296681
 20
103.3907828943199
 30
0.0
 11
131.68702085461021
 21
103.3907828943199
 31
0.0
  0
LINE
  5
26F0
  8
0
 10
128.19041246177801
 20
103.5907828943199
 30
0.0
 11
131.61501108310961
 21
103.5907828943199
 31
0.0
  0
LINE
  5
26F1
  8
0
 10
120.2569203197224
 20
100.49078289431991
 30
0.0
 11
119.10221978134309
 21
102.49078289431991
 31
0.0
  0
LINE
  5
26F2
  8
0
 10
116.7928187045846
 20
102.49078289431991
 30
0.0
 11
115.6381181662054
 21
100.49078289431991
 31
0.0
  0
CIRCLE
  5
26F3
  8
0
 10
117.94751924296391
 20
100.49078289431991
 30
0.0
 40
2.5
  0
CIRCLE
  5
26F4
  8
0
 10
117.94751924296391
 20
100.49078289431991
 30
0.0
 40
5.25
  0
LINE
  5
26F5
  8
0
 10
128.44751924296071
 20
102.3907828943199
 30
0.0
 11
128.44751924296071
 21
98.590782894319915
 31
0.0
  0
LINE
  5
26F6
  8
1
 10
117.94751924296391
 20
111.7907828943199
 30
0.0
 11
117.94751924296391
 21
89.090782894319915
 31
0.0
  0
LINE
  5
26F7
  8
0
 10
119.10221978134309
 20
98.490782894319892
 30
0.0
 11
120.2569203197224
 21
100.49078289431991
 31
0.0
  0
LINE
  5
26F8
  8
0
 10
115.25653623733881
 20
94.190782894319923
 30
0.0
 11
120.63850224858891
 21
94.190782894319923
 31
0.0
  0
ARC
  5
26F9
  8
0
 10
114.69751924296391
 20
93.690782894319938
 30
0.0
 40
0.75
 50
41.810314895778099
 51
156.42182152179811
  0
LINE
  5
26FA
  8
0
 10
116.7928187045846
 20
98.490782894319892
 30
0.0
 11
119.10221978134309
 21
98.490782894319892
 31
0.0
  0
LINE
  5
26FB
  8
0
 10
115.6381181662054
 20
100.49078289431991
 30
0.0
 11
116.7928187045846
 21
98.490782894319892
 31
0.0
  0
ARC
  5
26FC
  8
0
 10
127.4475192429606
 20
94.990782894319906
 30
0.0
 40
1.0
 50
270.0
 51
0.0
  0
LINE
  5
26FD
  8
0
 10
121.88490559720729
 20
93.990782894319878
 30
0.0
 11
127.4475192429606
 21
93.990782894319878
 31
0.0
  0
ARC
  5
26FE
  8
0
 10
121.19751924296391
 20
93.690782894319938
 30
0.0
 40
0.75
 50
23.578178478201838
 51
138.18968510422189
  0
ARC
  5
26FF
  8
0
 10
128.89751924296701
 20
97.140782894319983
 30
0.0
 40
0.7500000000000142
 50
143.1301023541601
 51
233.1301023541568
  0
LINE
  5
2700
  8
0
 10
129.8467769280328
 20
97.590782894319915
 30
0.0
 11
129.8467769280328
 21
97.390782894319941
 31
0.0
  0
LINE
  5
2701
  8
0
 10
128.68795030031779
 20
97.390782894319941
 30
0.0
 11
128.68795030031779
 21
97.590782894319915
 31
0.0
  0
ARC
  5
2702
  8
0
 10
128.9616956876506
 20
97.005565644865868
 30
0.0
 40
0.8852172494540976
 50
41.383829947909121
 51
138.6161700520951
  0
LINE
  5
2703
  8
0
 10
128.9616956876506
 20
97.890782894321575
 30
0.0
 11
129.8510995057274
 21
97.890782894319983
 31
0.0
  0
ARC
  5
2704
  8
0
 10
128.89751924296701
 20
97.140782894319926
 30
0.0
 40
0.7500000000000142
 50
143.1301023541601
 51
233.1301023541568
  0
LINE
  5
2705
  8
0
 10
128.4475192429606
 20
94.990782894319906
 30
0.0
 11
128.44751924296071
 21
96.540782894324622
 31
0.0
  0
LINE
  5
2706
  8
0
 10
120.33401924296381
 20
42.690636687006638
 30
0.0
 11
115.56101924296389
 21
42.690636687006638
 31
0.0
  0
LINE
  5
2707
  8
0
 10
115.25653623733891
 20
106.7907828943199
 30
0.0
 11
120.63850224858891
 21
106.7907828943199
 31
0.0
  0
ARC
  5
2708
  8
0
 10
114.69751924296391
 20
107.2907828943199
 30
0.0
 40
0.75
 50
203.57817847820621
 51
318.18968510422189
  0
LINE
  5
2709
  8
0
 10
119.10221978134309
 20
102.49078289431991
 30
0.0
 11
116.7928187045846
 21
102.49078289431991
 31
0.0
  0
LINE
  5
270A
  8
0
 10
121.88490559720719
 20
106.99078289432001
 30
0.0
 11
127.44751924296069
 21
106.99078289432001
 31
0.0
  0
ARC
  5
270B
  8
0
 10
121.19751924296391
 20
107.2907828943199
 30
0.0
 40
0.75
 50
221.81031489577811
 51
336.42182152180021
  0
LINE
  5
270C
  8
0
 10
128.9616956876506
 20
103.09078289431829
 30
0.0
 11
129.8510995057274
 21
103.0907828943199
 31
0.0
  0
ARC
  5
270D
  8
0
 10
128.9616956876506
 20
103.9760001437739
 30
0.0
 40
0.8852172494540976
 50
221.3838299479049
 51
318.61617005209092
  0
LINE
  5
270E
  8
0
 10
128.68795030031779
 20
103.5907828943199
 30
0.0
 11
128.68795030031779
 21
103.3907828943199
 31
0.0
  0
LINE
  5
270F
  8
0
 10
129.8467769280328
 20
103.3907828943199
 30
0.0
 11
129.8467769280328
 21
103.5907828943199
 31
0.0
  0
ARC
  5
2710
  8
0
 10
128.89751924296701
 20
103.8407828943199
 30
0.0
 40
0.7500000000000142
 50
126.8698976458431
 51
216.8698976458399
  0
ARC
  5
2711
  8
0
 10
127.44751924296069
 20
105.99078289432001
 30
0.0
 40
1.0
 50
0.0
 51
90.000000000000099
  0
LINE
  5
2712
  8
0
 10
128.44751924296071
 20
105.99078289432001
 30
0.0
 11
128.44751924296071
 21
104.44078289431521
 31
0.0
  0
LINE
  5
2713
  8
0
 10
131.40467976848791
 20
102.3907828943199
 30
0.0
 11
131.40467976848791
 21
98.590782894319915
 31
0.0
  0
LINE
  5
2714
  8
0
 10
131.68702085461021
 20
103.3907828943199
 30
0.0
 11
131.68702085461021
 21
97.590782894319915
 31
0.0
  0
LINE
  5
2715
  8
0
 10
131.61501108310961
 20
97.390782894319941
 30
0.0
 11
131.61501108310961
 21
97.590782894319915
 31
0.0
  0
LINE
  5
2716
  8
0
 10
131.61501108310961
 20
103.5907828943199
 30
0.0
 11
131.61501108310961
 21
103.3907828943199
 31
0.0
  0
LINE
  5
2717
  8
0
 10
59.731235389542178
 20
42.690636687006702
 30
0.0
 11
54.95823538954226
 21
42.690636687006702
 31
0.0
  0
ARC
  5
2718
  8
0
 10
129.27194506256811
 20
51.7896425170469
 30
0.0
 40
2.399005830041788
 50
244.87799578223951
 51
8.5684988127551591
  0
ARC
  5
2719
  8
0
 10
127.94751924296391
 20
53.190636687006638
 30
0.0
 40
3.5
 50
8.9736607646070432
 51
81.786789298261795
  0
LINE
  5
271A
  8
0
 10
131.63937257876071
 20
51.40167869379983
 30
0.0
 11
129.84677692803439
 21
51.40167869379983
 31
0.0
  0
LINE
  5
271B
  8
0
 10
131.4046797684895
 20
53.736568093638759
 30
0.0
 11
129.6258721323357
 21
53.456513820712239
 31
0.0
  0
ARC
  5
271C
  8
0
 10
118.2689934939594
 20
54.831758363091922
 30
0.0
 40
5.5999999999999988
 50
28.346309363421689
 51
67.106312624534553
  0
ARC
  5
271D
  8
0
 10
117.6260449919683
 20
54.831758363091922
 30
0.0
 40
5.5999999999999988
 50
112.8936873754654
 51
151.6536906365782
  0
LINE
  5
271E
  8
0
 10
114.94751924296069
 20
51.750636687004771
 30
0.0
 11
120.94751924296069
 21
51.750636687005851
 31
0.0
  0
LINE
  5
271F
  8
0
 10
120.50751924296389
 20
52.190636687006673
 30
0.0
 11
115.3875192429639
 21
52.190636687006638
 31
0.0
  0
LINE
  5
2720
  8
0
 10
112.69751924296391
 20
57.490636687009783
 30
0.0
 11
123.19751924296391
 21
57.490636687009783
 31
0.0
  0
LINE
  5
2721
  8
0
 10
123.19751924296391
 20
56.690636687006652
 30
0.0
 11
112.69751924296391
 21
56.690636687006652
 31
0.0
  0
LINE
  5
2722
  8
0
 10
120.94751924296069
 20
44.690636687006638
 30
0.0
 11
114.94751924296069
 21
44.690636687006581
 31
0.0
  0
LINE
  5
2723
  8
0
 10
114.94751924296069
 20
51.750636687004771
 30
0.0
 11
114.94751924296079
 21
44.690636687006638
 31
0.0
  0
LINE
  5
2724
  8
0
 10
114.4781544248379
 20
51.42540697260457
 30
0.0
 11
114.69751924296391
 21
53.21199004555978
 31
0.0
  0
LINE
  5
2725
  8
0
 10
114.4781544248379
 20
51.42540697260457
 30
0.0
 11
112.25845391466559
 21
51.69795192507916
 31
0.0
  0
LINE
  5
2727
  8
0
 10
112.69751924296391
 20
56.690636687006652
 30
0.0
 11
112.69751924296391
 21
57.490636687009783
 31
0.0
  0
ARC
  5
2728
  8
0
 10
112.2143659361879
 20
51.098859352886279
 30
0.0
 40
2.399999999999999
 50
82.999999999982776
 51
115.1220042177568
  0
ARC
  5
2729
  8
0
 10
112.19751924296369
 20
51.201678849258428
 30
0.0
 40
0.5
 50
83.000000000072774
 51
114.2847068429662
  0
LINE
  5
272A
  8
0
 10
114.69751924296391
 20
53.21199004555978
 30
0.0
 11
112.50685236036099
 21
53.480970116825368
 31
0.0
  0
LINE
  5
272B
  8
3
 10
115.3875192429626
 20
52.190636687006638
 30
0.0
 11
115.56101924296389
 21
51.750636687004878
 31
0.0
  0
LINE
  5
272C
  8
0
 10
115.3875192429639
 20
52.190636687006638
 30
0.0
 11
115.3875192429626
 21
52.190636687006638
 31
0.0
  0
LINE
  5
272D
  8
0
 10
114.94751924296069
 20
51.750636687004771
 30
0.0
 11
115.3875192429626
 21
52.190636687006638
 31
0.0
  0
LINE
  5
272E
  8
0
 10
115.3875192429639
 20
52.190636687006638
 30
0.0
 11
115.3875192429639
 21
54.890636687006577
 31
0.0
  0
LINE
  5
272F
  8
0
 10
120.94751924296069
 20
44.690636687006638
 30
0.0
 11
120.94751924296069
 21
51.750636687005851
 31
0.0
  0
LINE
  5
2730
  8
0
 10
121.4168840610897
 20
51.42540697260457
 30
0.0
 11
123.63658457126201
 21
51.69795192507916
 31
0.0
  0
ARC
  5
2731
  8
0
 10
129.39751517867111
 20
51.621141479012813
 30
0.0
 40
0.5000000335344375
 50
245.7152931570333
 51
8.9979028817859366
  0
LINE
  5
2732
  8
0
 10
129.19187962693741
 20
51.16538490649009
 30
0.0
 11
124.6995857615164
 21
53.271833321176587
 31
0.0
  0
LINE
  5
2733
  8
0
 10
128.25345392283549
 20
49.617568676022977
 30
0.0
 11
123.90315478090579
 21
51.657435391214072
 31
0.0
  0
LINE
  5
2734
  8
0
 10
121.4168840610897
 20
51.42540697260457
 30
0.0
 11
121.19751924296391
 21
53.21199004555978
 31
0.0
  0
LINE
  5
2735
  8
0
 10
128.68795030031939
 20
51.40167869379983
 30
0.0
 11
124.44859146704719
 21
51.40167869379983
 31
0.0
  0
LINE
  5
2737
  8
3
 10
120.50751924296389
 20
52.190636687002659
 30
0.0
 11
120.33401924296381
 21
51.750636687005731
 31
0.0
  0
LINE
  5
2738
  8
0
 10
120.50751924296389
 20
52.190636687002659
 30
0.0
 11
120.94751924296069
 21
51.750636687005851
 31
0.0
  0
LINE
  5
2739
  8
0
 10
120.50751924296389
 20
52.190636687006673
 30
0.0
 11
120.50751924296389
 21
54.890636687006598
 31
0.0
  0
LINE
  5
273A
  8
0
 10
123.19751924296391
 20
57.490636687009783
 30
0.0
 11
123.19751924296391
 21
56.690636687006652
 31
0.0
  0
ARC
  5
273B
  8
0
 10
123.6806725497398
 20
51.098859352886301
 30
0.0
 40
2.399999999999999
 50
64.877995782243033
 51
97.000000000017224
  0
LINE
  5
273C
  8
0
 10
121.19751924296391
 20
53.21199004555978
 30
0.0
 11
123.3881861255667
 21
53.480970116825397
 31
0.0
  0
ARC
  5
273D
  8
0
 10
123.69751924296401
 20
51.201678849258428
 30
0.0
 40
0.5
 50
65.715293157033713
 51
96.999999999927255
  0
LINE
  5
273E
  8
0
 10
128.44751924296389
 20
56.690636687006652
 30
0.0
 11
128.44751924296389
 21
54.890636687006662
 31
0.0
  0
ARC
  5
273F
  8
0
 10
127.946792220666
 20
53.190636687006638
 30
0.0
 40
1.7
 50
8.9979028817863416
 51
90.000000000000355
  0
LINE
  5
2740
  8
0
 10
129.6258721323357
 20
53.456513820712239
 30
0.0
 11
129.89136224463681
 21
51.699340641229782
 31
0.0
  0
LINE
  5
2741
  8
0
 10
115.44751924296391
 20
59.99063668700353
 30
0.0
 11
120.44751924296391
 21
59.99063668700353
 31
0.0
  0
LINE
  5
2742
  8
0
 10
115.44751924296391
 20
59.99063668700353
 30
0.0
 11
120.44751924296391
 21
59.99063668700353
 31
0.0
  0
ARC
  5
2743
  8
0
 10
57.023261138546609
 20
54.831758363091978
 30
0.0
 40
5.5999999999999988
 50
112.8936873754654
 51
151.6536906365782
  0
LINE
  5
2744
  8
0
 10
131.4046797684895
 20
53.736568093638759
 30
0.0
 11
131.6441742596115
 21
52.147074481579629
 31
0.0
  0
LINE
  5
2745
  8
0
 10
54.444735389542188
 20
53.390636687003557
 30
0.0
 11
54.444735389542188
 21
51.401678849259099
 31
0.0
  0
LINE
  5
2746
  8
0
 10
60.244735389542249
 20
53.390636687003557
 30
0.0
 11
60.244735389542249
 21
51.401678849259099
 31
0.0
  0
LINE
  5
2747
  8
0
 10
60.344735389539032
 20
44.690636687006702
 30
0.0
 11
54.344735389539039
 21
44.690636687006638
 31
0.0
  0
LINE
  5
2748
  8
0
 10
54.244735389542257
 20
49.39063668700669
 30
0.0
 11
60.444735389542188
 21
49.39063668700669
 31
0.0
  0
LINE
  5
274A
  8
0
 10
54.344735389539089
 20
49.39063668700669
 30
0.0
 11
54.344735389539153
 21
44.690636687006702
 31
0.0
  0
LINE
  5
274B
  8
0
 10
54.244735389542257
 20
51.401678849259099
 30
0.0
 11
54.444735389542188
 21
51.401678849259099
 31
0.0
  0
LINE
  5
274C
  8
0
 10
54.244735389542257
 20
49.39063668700669
 30
0.0
 11
54.244735389542257
 21
51.401678849259099
 31
0.0
  0
LINE
  5
274E
  8
0
 10
60.344735389539032
 20
44.690636687006702
 30
0.0
 11
60.344735389539032
 21
49.39063668700669
 31
0.0
  0
LINE
  5
274F
  8
0
 10
60.244735389542249
 20
51.401678849259099
 30
0.0
 11
60.444735389542188
 21
51.401678849259099
 31
0.0
  0
LINE
  5
2750
  8
0
 10
60.444735389542188
 20
49.39063668700669
 30
0.0
 11
60.444735389542188
 21
51.401678849259099
 31
0.0
  0
LINE
  5
2751
  8
0
 10
59.746074612033851
 20
53.73656809363883
 30
0.0
 11
54.931116125467611
 21
53.73656809363883
 31
0.0
  0
LINE
  5
2752
  8
0
 10
52.094735389542222
 20
56.690636687006702
 30
0.0
 11
52.094735389542222
 21
57.490636687009832
 31
0.0
  0
LINE
  5
2753
  8
0
 10
50.844735389542222
 20
54.89063668700669
 30
0.0
 11
50.844735389542222
 21
56.690636687006702
 31
0.0
  0
LINE
  5
2754
  8
0
 10
54.144735389531427
 20
55.090636687006679
 30
0.0
 11
54.144735389531427
 21
56.490636687006713
 31
0.0
  0
ARC
  5
2755
  8
0
 10
54.323301435389801
 20
54.690636687006702
 30
0.0
 40
0.2
 50
24.90106237031361
 51
90.0
  0
ARC
  5
2756
  8
0
 10
54.07987034954084
 20
56.190636687006702
 30
0.0
 40
0.5
 50
15.57306938144457
 51
90.0
  0
ARC
  5
2757
  8
0
 10
53.138485389536299
 20
54.140636687005149
 30
0.0
 40
1.50625000000591
 50
358.34608688377011
 51
24.901062370330159
  0
ARC
  5
2758
  8
0
 10
50.215808527426127
 20
55.02838411894453
 30
0.0
 40
4.5349794989565266
 50
338.82998026083237
 51
16.611802595623111
  0
LINE
  5
2759
  8
0
 10
54.323301435389801
 20
54.89063668700669
 30
0.0
 11
54.24473538953908
 21
54.89063668700669
 31
0.0
  0
LINE
  5
275A
  8
0
 10
53.394735389531427
 20
54.89063668700669
 30
0.0
 11
53.394735389531427
 21
56.690636687006702
 31
0.0
  0
LINE
  5
275B
  8
0
 10
54.323301435389801
 20
54.89063668700669
 30
0.0
 11
50.844735389542222
 21
54.89063668700669
 31
0.0
  0
LINE
  5
275C
  8
0
 10
60.544735389531411
 20
55.090636687006679
 30
0.0
 11
60.544735389531411
 21
56.490636687006713
 31
0.0
  0
ARC
  5
275D
  8
0
 10
60.3661693436934
 20
54.690636687006702
 30
0.0
 40
0.2
 50
90.0
 51
155.09893762971069
  0
ARC
  5
275E
  8
0
 10
60.609600429543953
 20
56.190636687006702
 30
0.0
 40
0.5
 50
90.0
 51
164.42693061855249
  0
ARC
  5
275F
  8
0
 10
61.550985389548138
 20
54.140636687005149
 30
0.0
 40
1.50625000000591
 50
155.0989376296925
 51
181.6539131162277
  0
ARC
  5
2760
  8
0
 10
64.473662251658354
 20
55.02838411894453
 30
0.0
 40
4.5349794989565959
 50
163.3881974043756
 51
201.17001973916729
  0
LINE
  5
2761
  8
0
 10
61.294735389531411
 20
54.89063668700669
 30
0.0
 11
61.294735389531411
 21
56.690636687006702
 31
0.0
  0
LINE
  5
2762
  8
0
 10
60.444735389539119
 20
54.89063668700669
 30
0.0
 11
60.3661693436934
 21
54.89063668700669
 31
0.0
  0
LINE
  5
2763
  8
0
 10
54.844735389542222
 20
59.99063668700358
 30
0.0
 11
59.844735389542222
 21
59.99063668700358
 31
0.0
  0
LINE
  5
2764
  8
0
 10
54.844735389542222
 20
59.99063668700358
 30
0.0
 11
59.844735389542222
 21
59.99063668700358
 31
0.0
  0
LINE
  5
2765
  8
0
 10
62.594735389542222
 20
57.490636687009832
 30
0.0
 11
62.594735389542222
 21
56.690636687006702
 31
0.0
  0
LINE
  5
2766
  8
0
 10
63.844735389542222
 20
56.690636687006702
 30
0.0
 11
63.844735389542222
 21
54.89063668700669
 31
0.0
  0
LINE
  5
2767
  8
1
 10
57.344735389542222
 20
64.990636687003587
 30
0.0
 11
57.344735389542222
 21
37.690636687006702
 31
0.0
  0
LINE
  5
2768
  8
1
 10
117.94751924296391
 20
64.99063668700353
 30
0.0
 11
117.94751924296391
 21
37.690636687006652
 31
0.0
  0
TEXT
  5
291D
  8
0
 62
     3
 10
0.0
 20
0.0
 30
0.0
 40
5.0
  1
L6-SJT6-SUS
  7
STANDARD1
  0
ENDSEC
  0
EOF
