  0
SECTION
  2
HEADER
  9
$ACADVER
  1
AC1009
  9
$INSBASE
 10
0.0
 20
0.0
 30
0.0
  9
$EXTMIN
 10
0.0
 20
-2.960436562073669
 30
0.0
  9
$EXTMAX
 10
133.76695023240899
 20
117.48923831045011
 30
0.0
  9
$LIMMIN
 10
0.0
 20
0.0
  9
$LIMMAX
 10
187.5
 20
139.0
  9
$ORTHOMODE
 70
     1
  9
$REGENMODE
 70
     1
  9
$FILLMODE
 70
     1
  9
$QTEXTMODE
 70
     0
  9
$MIRRTEXT
 70
     0
  9
$DRAGMODE
 70
     2
  9
$LTSCALE
 40
4.0
  9
$OSMODE
 70
  3071
  9
$ATTMODE
 70
     1
  9
$TEXTSIZE
 40
0.2
  9
$TRACEWID
 40
0.05
  9
$TEXTSTYLE
  7
STANDARD
  9
$CLAYER
  8
0
  9
$CELTYPE
  6
BYLAYER
  9
$CECOLOR
 62
   256
  9
$DIMSCALE
 40
1.0
  9
$DIMASZ
 40
3.0
  9
$DIMEXO
 40
1.0
  9
$DIMDLI
 40
6.0
  9
$DIMRND
 40
0.0
  9
$DIMDLE
 40
0.0
  9
$DIMEXE
 40
1.0
  9
$DIMTP
 40
495.0
  9
$DIMTM
 40
0.0
  9
$DIMTXT
 40
3.0
  9
$DIMCEN
 40
0.0
  9
$DIMTSZ
 40
0.0
  9
$DIMTOL
 70
     0
  9
$DIMLIM
 70
     0
  9
$DIMTIH
 70
     0
  9
$DIMTOH
 70
     0
  9
$DIMSE1
 70
     0
  9
$DIMSE2
 70
     0
  9
$DIMTAD
 70
     1
  9
$DIMZIN
 70
     0
  9
$DIMBLK
  1

  9
$DIMASO
 70
     0
  9
$DIMSHO
 70
     0
  9
$DIMPOST
  1

  9
$DIMAPOST
  1

  9
$DIMALT
 70
     0
  9
$DIMALTD
 70
     2
  9
$DIMALTF
 40
25.399999999999999
  9
$DIMLFAC
 40
1.0
  9
$DIMTOFL
 70
     1
  9
$DIMTVP
 40
0.0
  9
$DIMTIX
 70
     1
  9
$DIMSOXD
 70
     0
  9
$DIMSAH
 70
     0
  9
$DIMBLK1
  1

  9
$DIMBLK2
  1

  9
$DIMSTYLE
  2
STANDARD
  9
$DIMCLRD
 70
     0
  9
$DIMCLRE
 70
     0
  9
$DIMCLRT
 70
     4
  9
$DIMTFAC
 40
1.0
  9
$DIMGAP
 40
1.0
  9
$LUNITS
 70
     2
  9
$LUPREC
 70
     4
  9
$SKETCHINC
 40
0.1
  9
$FILLETRAD
 40
0.0
  9
$AUNITS
 70
     0
  9
$AUPREC
 70
     0
  9
$MENU
  1
C:\R13\WIN\SUPPORT\ACAD-I
  9
$ELEVATION
 40
0.0
  9
$PELEVATION
 40
0.0
  9
$THICKNESS
 40
0.0
  9
$LIMCHECK
 70
     0
  9
$BLIPMODE
 70
     0
  9
$CHAMFERA
 40
0.0
  9
$CHAMFERB
 40
0.0
  9
$SKPOLY
 70
     0
  9
$TDCREATE
 40
2450837.486061343
  9
$TDUPDATE
 40
2456597.5622196882
  9
$TDINDWG
 40
0.0038762037
  9
$TDUSRTIMER
 40
0.0038762037
  9
$USRTIMER
 70
     1
  9
$ANGBASE
 50
0.0
  9
$ANGDIR
 70
     0
  9
$PDMODE
 70
     0
  9
$PDSIZE
 40
0.0
  9
$PLINEWID
 40
0.0
  9
$COORDS
 70
     1
  9
$SPLFRAME
 70
     0
  9
$SPLINETYPE
 70
     6
  9
$SPLINESEGS
 70
     8
  9
$ATTDIA
 70
     0
  9
$ATTREQ
 70
     1
  9
$HANDLING
 70
     1
  9
$HANDSEED
  5
46D
  9
$SURFTAB1
 70
     6
  9
$SURFTAB2
 70
     6
  9
$SURFTYPE
 70
     6
  9
$SURFU
 70
     6
  9
$SURFV
 70
     6
  9
$UCSNAME
  2

  9
$UCSORG
 10
0.0
 20
0.0
 30
0.0
  9
$UCSXDIR
 10
1.0
 20
0.0
 30
0.0
  9
$UCSYDIR
 10
0.0
 20
1.0
 30
0.0
  9
$PUCSNAME
  2

  9
$PUCSORG
 10
0.0
 20
0.0
 30
0.0
  9
$PUCSXDIR
 10
1.0
 20
0.0
 30
0.0
  9
$PUCSYDIR
 10
0.0
 20
1.0
 30
0.0
  9
$USERI1
 70
     4
  9
$USERI2
 70
     1
  9
$USERI3
 70
     0
  9
$USERI4
 70
     0
  9
$USERI5
 70
     0
  9
$USERR1
 40
1.0
  9
$USERR2
 40
3.0
  9
$USERR3
 40
3.0
  9
$USERR4
 40
3.0
  9
$USERR5
 40
10.0
  9
$WORLDVIEW
 70
     1
  9
$SHADEDGE
 70
     3
  9
$SHADEDIF
 70
    70
  9
$TILEMODE
 70
     1
  9
$MAXACTVP
 70
    16
  9
$PLIMCHECK
 70
     0
  9
$PEXTMIN
 10
1.0000000000000000E+020
 20
1.0000000000000000E+020
 30
1.0000000000000000E+020
  9
$PEXTMAX
 10
-1.0000000000000000E+020
 20
-1.0000000000000000E+020
 30
-1.0000000000000000E+020
  9
$PLIMMIN
 10
0.0
 20
0.0
  9
$PLIMMAX
 10
12.0
 20
9.0
  9
$UNITMODE
 70
     0
  9
$VISRETAIN
 70
     0
  9
$PLINEGEN
 70
     0
  9
$PSLTSCALE
 70
     0
  0
ENDSEC
  0
SECTION
  2
TABLES
  0
TABLE
  2
VPORT
 70
     1
  0
VPORT
  2
*ACTIVE
 70
     0
 10
0.0
 20
0.0
 11
1.0
 21
1.0
 12
93.74713919532617
 22
83.281681274034085
 13
0.0
 23
0.0
 14
5.0
 24
5.0
 15
5.0
 25
5.0
 16
0.0
 26
0.0
 36
1.0
 17
0.0
 27
0.0
 37
0.0
 40
174.1211153682888
 41
1.9089595375722539
 42
50.0
 43
0.0
 44
0.0
 50
0.0
 51
0.0
 71
     0
 72
   100
 73
     1
 74
     0
 75
     0
 76
     0
 77
     0
 78
     0
  0
ENDTAB
  0
TABLE
  2
LTYPE
 70
     3
  0
LTYPE
  2
CONTINUOUS
 70
     0
  3
Solid Line
 72
    65
 73
     0
 40
0.0
  0
LTYPE
  2
CENTER
 70
     0
  3
____ _ ____ _ ____ _ ____ _ ____ _ ____ _ ____
 72
    65
 73
     4
 40
2.0
 49
1.25
 49
-0.25
 49
0.25
 49
-0.25
  0
LTYPE
  2
PHANTOM2
 70
     0
  3
___ _ _ ___ _ _ ___ _ _ ___ _ _
 72
    65
 73
     6
 40
1.25
 49
0.625
 49
-0.125
 49
0.125
 49
-0.125
 49
0.125
 49
-0.125
  0
ENDTAB
  0
TABLE
  2
LAYER
 70
     2
  0
LAYER
  2
0
 70
     0
 62
     7
  6
CONTINUOUS
  0
LAYER
  2
1
 70
     0
 62
     1
  6
CENTER
  0
ENDTAB
  0
TABLE
  2
STYLE
 70
     2
  0
STYLE
  2
STANDARD
 70
     0
 40
0.0
 41
1.0
 50
0.0
 71
     0
 42
0.2
  3
SIMPLEX
  4
BIGFONT
  0
STYLE
  2
STANDARD1
 70
     0
 40
0.0
 41
1.0
 50
0.0
 71
     0
 42
3.0
  3
txt
  4

  0
ENDTAB
  0
TABLE
  2
VIEW
 70
     0
  0
ENDTAB
  0
TABLE
  2
UCS
 70
     0
  0
ENDTAB
  0
TABLE
  2
APPID
 70
     3
  0
APPID
  2
ACAD
 70
     0
  0
APPID
  2
ACAD_MLEADERVER
 70
     0
  0
APPID
  2
ACAD_NAV_VCDISPLAY
 70
     0
  0
ENDTAB
  0
TABLE
  2
DIMSTYLE
 70
     1
  0
DIMSTYLE
  2
STANDARD
 70
     0
  3

  4

  5

  6

  7

 40
1.0
 41
0.18
 42
0.0625
 43
0.38
 44
0.18
 45
0.0
 46
0.0
 47
0.0
 48
0.0
140
0.18
141
0.09
142
0.0
143
25.399999999999999
144
1.0
145
0.0
146
1.0
147
0.09
 71
     0
 72
     0
 73
     1
 74
     1
 75
     0
 76
     0
 77
     0
 78
     0
170
     0
171
     2
172
     0
173
     0
174
     0
175
     0
176
     0
177
     0
178
     0
  0
ENDTAB
  0
ENDSEC
  0
SECTION
  2
BLOCKS
  0
BLOCK
  8
0
  2
$MODEL_SPACE
 70
     0
 10
0.0
 20
0.0
 30
0.0
  3
$MODEL_SPACE
  1

  0
ENDBLK
  5
32E
  8
0
  0
BLOCK
 67
     1
  8
0
  2
$PAPER_SPACE
 70
     0
 10
0.0
 20
0.0
 30
0.0
  3
$PAPER_SPACE
  1

  0
ENDBLK
  5
32C
 67
     1
  8
0
  0
BLOCK
  8
0
  2
STDGX5
 70
     0
 10
0.0
 20
0.0
 30
0.0
  3
STDGX5
  1

  0
ENDBLK
  5
4F
  8
0
  0
ENDSEC
  0
SECTION
  2
ENTITIES
  0
INSERT
  5
DE
  8
0
  2
STDGX5
 10
0.0
 20
0.0
 30
0.0
  0
INSERT
  5
DF
  8
0
  2
STDGX5
 10
0.0
 20
0.0
 30
0.0
  0
INSERT
  5
15C
  8
0
  2
STDGX5
 10
275.0
 20
0.0
 30
0.0
  0
INSERT
  5
15D
  8
0
  2
STDGX5
 10
275.0
 20
0.0
 30
0.0
  0
INSERT
  5
258
  8
0
  2
STDGX5
 10
0.0
 20
0.0
 30
0.0
 41
0.5
 42
0.5
 43
0.5
  0
INSERT
  5
259
  8
0
  2
STDGX5
 10
0.0
 20
0.0
 30
0.0
 41
0.5
 42
0.5
 43
0.5
  0
INSERT
  5
25A
  8
0
  2
STDGX5
 10
137.5
 20
0.0
 30
0.0
 41
0.5
 42
0.5
 43
0.5
  0
INSERT
  5
25B
  8
0
  2
STDGX5
 10
137.5
 20
0.0
 30
0.0
 41
0.5
 42
0.5
 43
0.5
  0
LINE
  5
26F
  8
0
 10
64.647751534922776
 20
112.48923831045011
 30
0.0
 11
87.984208197386778
 21
112.48923831045011
 31
0.0
  0
LINE
  5
270
  8
0
 10
64.647751534922776
 20
87.489238310450176
 30
0.0
 11
87.984208197386749
 21
87.489238310450133
 31
0.0
  0
ARC
  5
271
  8
0
 10
76.315979866155004
 20
64.124580861246756
 30
0.0
 40
1.1000000000000001
 50
359.99999999999562
 51
179.9999999999948
  0
ARC
  5
272
  8
0
 10
76.315979866154549
 20
61.424580861246802
 30
0.0
 40
1.1000000000000001
 50
179.99999999999699
 51
359.99999999999562
  0
LINE
  5
273
  8
0
 10
64.647751534922776
 20
112.48923831045011
 30
0.0
 11
64.647751534922776
 21
87.489238310450176
 31
0.0
  0
LINE
  5
274
  8
0
 10
68.212039932663828
 20
112.48923831045011
 30
0.0
 11
68.212039932663828
 21
87.489238310450176
 31
0.0
  0
LINE
  5
275
  8
0
 10
67.454262559701675
 20
112.48923831045011
 30
0.0
 11
67.454262559701675
 21
87.489238310450133
 31
0.0
  0
LINE
  5
276
  8
0
 10
66.569119702619957
 20
112.48923831045011
 30
0.0
 11
66.569119702619957
 21
87.489238310450176
 31
0.0
  0
LINE
  5
277
  8
0
 10
65.762150293012184
 20
112.48923831045011
 30
0.0
 11
65.762150293012212
 21
87.489238310450176
 31
0.0
  0
LINE
  5
278
  8
0
 10
72.445635338812934
 20
112.48923831045011
 30
0.0
 11
72.445635338812963
 21
87.489238310450133
 31
0.0
  0
LINE
  5
279
  8
0
 10
71.672251653169297
 20
112.48923831045011
 30
0.0
 11
71.672251653169297
 21
87.489238310450133
 31
0.0
  0
LINE
  5
27A
  8
0
 10
70.740597047753354
 20
112.48923831045011
 30
0.0
 11
70.740597047753397
 21
87.489238310450133
 31
0.0
  0
LINE
  5
27B
  8
0
 10
69.911017533882045
 20
112.48923831045011
 30
0.0
 11
69.911017533882045
 21
87.489238310450176
 31
0.0
  0
LINE
  5
27C
  8
0
 10
69.147332430859464
 20
112.48923831045011
 30
0.0
 11
69.147332430859507
 21
87.489238310450176
 31
0.0
  0
LINE
  5
27D
  8
0
 10
76.778772309087202
 20
112.48923831045011
 30
0.0
 11
76.778772309087202
 21
87.489238310450176
 31
0.0
  0
LINE
  5
27E
  8
0
 10
75.853187423222352
 20
112.48923831045011
 30
0.0
 11
75.853187423222352
 21
87.489238310450176
 31
0.0
  0
LINE
  5
27F
  8
0
 10
75.081081797940243
 20
112.48923831045011
 30
0.0
 11
75.081081797940215
 21
87.489238310450133
 31
0.0
  0
LINE
  5
280
  8
0
 10
74.208799900391625
 20
112.48923831045011
 30
0.0
 11
74.208799900391625
 21
87.489238310450133
 31
0.0
  0
LINE
  5
281
  8
0
 10
73.373928102329984
 20
112.48923831045011
 30
0.0
 11
73.373928102329984
 21
87.489238310450133
 31
0.0
  0
LINE
  5
282
  8
0
 10
75.215979866154413
 20
61.424580861246852
 30
0.0
 11
75.21597986615464
 21
64.124580861246812
 31
0.0
  0
LINE
  5
283
  8
0
 10
77.550877934369311
 20
112.48923831045011
 30
0.0
 11
77.550877934369339
 21
87.489238310450133
 31
0.0
  0
LINE
  5
284
  8
0
 10
79.25803162997957
 20
112.48923831045011
 30
0.0
 11
79.25803162997957
 21
87.489238310450133
 31
0.0
  0
LINE
  5
285
  8
0
 10
78.423159831917928
 20
112.48923831045011
 30
0.0
 11
78.423159831917928
 21
87.489238310450133
 31
0.0
  0
LINE
  5
286
  8
0
 10
80.186324393496619
 20
112.48923831045011
 30
0.0
 11
80.186324393496591
 21
87.489238310450133
 31
0.0
  0
LINE
  5
287
  8
0
 10
80.959708079140256
 20
112.48923831045011
 30
0.0
 11
80.959708079140256
 21
87.489238310450133
 31
0.0
  0
LINE
  5
288
  8
0
 10
81.891362684556185
 20
112.48923831045011
 30
0.0
 11
81.891362684556157
 21
87.489238310450133
 31
0.0
  0
LINE
  5
289
  8
0
 10
82.720942198427508
 20
112.48923831045011
 30
0.0
 11
82.720942198427508
 21
87.489238310450176
 31
0.0
  0
LINE
  5
28A
  8
0
 10
83.484627301450075
 20
112.48923831045011
 30
0.0
 11
83.484627301450047
 21
87.489238310450176
 31
0.0
  0
LINE
  5
28B
  8
0
 10
84.419919799645726
 20
112.48923831045011
 30
0.0
 11
84.419919799645726
 21
87.489238310450176
 31
0.0
  0
LINE
  5
28C
  8
0
 10
85.177697172607878
 20
112.48923831045011
 30
0.0
 11
85.177697172607878
 21
87.489238310450133
 31
0.0
  0
LINE
  5
28D
  8
0
 10
86.062840029689596
 20
112.48923831045011
 30
0.0
 11
86.062840029689596
 21
87.489238310450176
 31
0.0
  0
LINE
  5
28E
  8
0
 10
86.869809439297384
 20
112.48923831045011
 30
0.0
 11
86.869809439297342
 21
87.489238310450176
 31
0.0
  0
LINE
  5
28F
  8
0
 10
87.984208197386778
 20
112.48923831045011
 30
0.0
 11
87.984208197386749
 21
87.489238310450133
 31
0.0
  0
LINE
  5
290
  8
0
 10
77.415979866154913
 20
61.424580861246589
 30
0.0
 11
77.415979866155141
 21
64.124580861246585
 31
0.0
  0
LINE
  5
291
  8
0
 10
86.869809439297384
 20
66.180550001664614
 30
0.0
 11
87.012150293009228
 21
66.450513572750793
 31
0.0
  0
LINE
  5
292
  8
0
 10
133.76695023240899
 20
65.224580861246778
 30
0.0
 11
133.76695023240899
 21
58.22458086124692
 31
0.0
  0
LINE
  5
293
  8
0
 10
108.766950232409
 20
65.224580861246778
 30
0.0
 11
108.7669502324091
 21
58.22458086124692
 31
0.0
  0
LINE
  5
294
  8
0
 10
108.7669502324091
 20
58.22458086124692
 30
0.0
 11
133.76695023240899
 21
58.22458086124692
 31
0.0
  0
LINE
  5
295
  8
0
 10
108.766950232409
 20
67.778446324598164
 30
0.0
 11
133.76695023240899
 21
67.778446324598164
 31
0.0
  0
LINE
  5
296
  8
0
 10
108.766950232409
 20
68.143012522981309
 30
0.0
 11
133.76695023240899
 21
68.14301252298128
 31
0.0
  0
LINE
  5
297
  8
0
 10
108.766950232409
 20
66.663953573906497
 30
0.0
 11
133.76695023240899
 21
66.663953573906497
 31
0.0
  0
LINE
  5
298
  8
0
 10
108.766950232409
 20
67.113593480804866
 30
0.0
 11
133.76695023240899
 21
67.113593480804838
 31
0.0
  0
LINE
  5
299
  8
0
 10
108.766950232409
 20
67.484349757401191
 30
0.0
 11
133.76695023240899
 21
67.484349757401162
 31
0.0
  0
LINE
  5
29A
  8
0
 10
108.766950232409
 20
67.997588057578895
 30
0.0
 11
133.76695023240899
 21
67.997588057578866
 31
0.0
  0
LINE
  5
29B
  8
0
 10
108.766950232409
 20
68.215525949076181
 30
0.0
 11
108.766950232409
 21
65.224580861246778
 31
0.0
  0
LINE
  5
29C
  8
0
 10
133.76695023240899
 20
68.215525949076181
 30
0.0
 11
133.76695023240899
 21
65.224580861246778
 31
0.0
  0
LINE
  5
29D
  8
0
 10
108.766950232409
 20
68.215525949076152
 30
0.0
 11
133.76695023240899
 21
68.215525949076181
 31
0.0
  0
LINE
  5
29E
  8
0
 10
108.766950232409
 20
65.224580861246778
 30
0.0
 11
133.76695023240899
 21
65.224580861246778
 31
0.0
  0
LINE
  5
29F
  8
0
 10
78.475848411341559
 20
67.831315682413759
 30
0.0
 11
78.4231598319179
 21
67.598532707550419
 31
0.0
  0
ARC
  5
2A0
  8
0
 10
78.033399191038626
 20
67.686751936191229
 30
0.0
 40
0.3996198061665636
 50
195.79428014857501
 51
347.24644808697423
  0
LINE
  5
2A1
  8
0
 10
77.648866962503945
 20
67.577981744048515
 30
0.0
 11
77.550877934369225
 21
67.924399623968441
 31
0.0
  0
ARC
  5
2A2
  8
0
 10
77.16597986615443
 20
67.815525949076118
 30
0.0
 40
0.4000000000000505
 50
15.794280148583031
 51
165.47056721141161
  0
LINE
  5
2A3
  8
0
 10
76.778772309087145
 20
67.915876872091332
 30
0.0
 11
76.703187423221806
 21
67.624229938234151
 31
0.0
  0
ARC
  5
2A4
  8
0
 10
76.315979866154777
 20
67.72458086124908
 30
0.0
 40
0.3999999999997059
 50
270.00000000003263
 51
345.47056721144179
  0
ARC
  5
2A5
  8
0
 10
76.315979866155089
 20
67.724580861249535
 30
0.0
 40
0.4000000000001478
 50
194.5294327885843
 51
269.99999999998778
  0
LINE
  5
2A6
  8
0
 10
75.928772309087691
 20
67.624229938234322
 30
0.0
 11
75.853187423222352
 21
67.91587687209136
 31
0.0
  0
ARC
  5
2A7
  8
0
 10
75.465979866155067
 20
67.815525949076118
 30
0.0
 40
0.400000000000032
 50
14.529432788592279
 51
164.205719851422
  0
LINE
  5
2A8
  8
0
 10
75.081081797940243
 20
67.924399623968412
 30
0.0
 11
74.983092769805609
 21
67.577981744048543
 31
0.0
  0
ARC
  5
2A9
  8
0
 10
74.598560541270899
 20
67.686751936191229
 30
0.0
 40
0.3996198061665948
 50
192.75355191302879
 51
344.20571985142999
  0
LINE
  5
2AA
  8
0
 10
74.208799900391597
 20
67.59853270755039
 30
0.0
 11
74.156111320967909
 21
67.831315682413788
 31
0.0
  0
ARC
  5
2AB
  8
0
 10
73.76597986615522
 20
67.743012522981246
 30
0.0
 40
0.4000000000000427
 50
12.75355191302568
 51
168.55897877986999
  0
LINE
  5
2AC
  8
0
 10
73.373928102329984
 20
67.822356171003918
 30
0.0
 11
73.308031629980576
 21
67.496749410308595
 31
0.0
  0
ARC
  5
2AD
  8
0
 10
72.915979866155368
 20
67.576093058331423
 30
0.0
 40
0.4000000000000309
 50
198.3522610441388
 51
348.55897877984921
  0
LINE
  5
2AE
  8
0
 10
72.536324393497836
 20
67.450149729483854
 30
0.0
 11
72.445635338812934
 21
67.723531386426544
 31
0.0
  0
ARC
  5
2AF
  8
0
 10
72.065979866155459
 20
67.597588057578832
 30
0.0
 40
0.4000000000000174
 50
18.352261044160741
 51
169.84049888122209
  0
LINE
  5
2B0
  8
0
 10
71.672251653169297
 20
67.668143668969634
 30
0.0
 11
71.609708079141683
 21
67.319125792854692
 31
0.0
  0
ARC
  5
2B1
  8
0
 10
71.215979866155465
 20
67.38968140424555
 30
0.0
 40
0.4000000000000734
 50
200.52113314738079
 51
349.84049888121552
  0
LINE
  5
2B2
  8
0
 10
70.841362684557708
 20
67.249460267280398
 30
0.0
 11
70.740597047753397
 21
67.518667461563069
 31
0.0
  0
ARC
  5
2B3
  8
0
 10
70.365979866155556
 20
67.378446324598073
 30
0.0
 40
0.4000000000000779
 50
20.521133147353581
 51
170.96557406852219
  0
LINE
  5
2B4
  8
0
 10
69.970942198429185
 20
67.44125747868199
 30
0.0
 11
69.911017533882045
 21
67.064373785535153
 31
0.0
  0
ARC
  5
2B5
  8
0
 10
69.515979866155703
 20
67.127184939619013
 30
0.0
 40
0.4000000000000157
 50
202.836132599862
 51
350.96557406852969
  0
LINE
  5
2B6
  8
0
 10
69.147332430859507
 20
66.971946193007312
 30
0.0
 11
69.034627301451962
 21
67.239588504012943
 31
0.0
  0
ARC
  5
2B7
  8
0
 10
68.665979866155823
 20
67.084349757401185
 30
0.0
 40
0.4000000000000139
 50
22.83613259987267
 51
171.95160647818051
  0
LINE
  5
2B8
  8
0
 10
68.269919799647852
 20
67.140353540467345
 30
0.0
 11
68.212039932663856
 21
66.731025764519899
 31
0.0
  0
ARC
  5
2B9
  8
0
 10
67.815979866155885
 20
66.787029547586144
 30
0.0
 40
0.4000000000000369
 50
205.2717345356275
 51
351.95160647816851
  0
LINE
  5
2BA
  8
0
 10
67.454262559701675
 20
66.616264825785862
 30
0.0
 11
67.327697172610215
 21
66.884358202605
 31
0.0
  0
ARC
  5
2BB
  8
0
 10
66.965979866155919
 20
66.713593480804803
 30
0.0
 40
0.4000000000000615
 50
25.27173453561133
 51
172.81634205592709
  0
LINE
  5
2BC
  8
0
 10
66.569119702619929
 20
66.763613582746274
 30
0.0
 11
66.512840029692029
 21
66.317089898567815
 31
0.0
  0
ARC
  5
2BD
  8
0
 10
66.11597986615601
 20
66.367110000509214
 30
0.0
 40
0.4000000000000812
 50
207.80086514373161
 51
352.81634205593582
  0
LINE
  5
2BE
  8
0
 10
65.762150293012184
 20
66.180550001664614
 30
0.0
 11
65.619809439301321
 21
66.450513572751049
 31
0.0
  0
ARC
  5
2BF
  8
0
 10
65.265979866157522
 20
66.263953573906463
 30
0.0
 40
0.4000000000000183
 50
27.800865143729862
 51
124.3011990951849
  0
ARC
  5
2C0
  8
0
 10
65.547751534922725
 20
65.8509103235304
 30
0.0
 40
0.8999999999999472
 50
124.30119909517811
 51
201.55052466222639
  0
ARC
  5
2C1
  8
0
 10
65.308297922664963
 20
65.984224807157148
 30
0.0
 40
0.7565511364611255
 50
217.81997188709059
 51
294.84694245253138
  0
ARC
  5
2C2
  8
0
 10
65.916159954387894
 20
65.022165944174333
 30
0.0
 40
0.4000000000000079
 50
30.400234398417371
 51
136.46105146458899
  0
LINE
  5
2C3
  8
0
 10
66.261164593989378
 20
65.224580861246807
 30
0.0
 11
72.715979866154584
 21
65.224580861246835
 31
0.0
  0
ARC
  5
2C4
  8
0
 10
72.715979866154584
 20
64.724580861246835
 30
0.0
 40
0.5
 50
0.0
 51
90.0
  0
LINE
  5
2C5
  8
0
 10
73.215979866154584
 20
64.724580861246835
 30
0.0
 11
73.215979866154555
 21
62.724580861246949
 31
0.0
  0
ARC
  5
2C6
  8
0
 10
72.715979866154555
 20
62.724580861246949
 30
0.0
 40
0.5
 50
270.0
 51
0.0
  0
LINE
  5
2C7
  8
0
 10
72.715979866154555
 20
62.224580861246949
 30
0.0
 11
71.91597986615605
 21
62.224580861246892
 31
0.0
  0
ARC
  5
2C8
  8
0
 10
71.91597986615605
 20
61.724580861246892
 30
0.0
 40
0.5
 50
90.0
 51
226.7270894694588
  0
LINE
  5
2C9
  8
0
 10
71.573242773651032
 20
61.360532395488264
 30
0.0
 11
73.57302534373278
 21
59.360749825406629
 31
0.0
  0
ARC
  5
2CA
  8
0
 10
76.315979866154635
 20
62.10370434782859
 30
0.0
 40
3.8791234865816819
 50
225.00000000000119
 51
315.0000000000021
  0
LINE
  5
2CB
  8
0
 10
79.05893438857666
 20
59.360749825406771
 30
0.0
 11
81.058716958656774
 21
61.360532395486928
 31
0.0
  0
ARC
  5
2CC
  8
0
 10
80.715979866152225
 20
61.724580861246601
 30
0.0
 40
0.5000000000004589
 50
313.27291053042069
 51
89.999999999882746
  0
LINE
  5
2CD
  8
0
 10
80.715979866153248
 20
62.224580861247091
 30
0.0
 11
79.915979866154998
 21
62.224580861246949
 31
0.0
  0
ARC
  5
2CE
  8
0
 10
79.915979866154998
 20
62.724580861246949
 30
0.0
 40
0.5
 50
180.0
 51
270.0
  0
LINE
  5
2CF
  8
0
 10
79.415979866154998
 20
62.724580861246949
 30
0.0
 11
79.415979866154998
 21
64.724580861246835
 31
0.0
  0
ARC
  5
2D0
  8
0
 10
79.915979866154998
 20
64.724580861246864
 30
0.0
 40
0.5
 50
90.000000000003254
 51
180.00000000000321
  0
LINE
  5
2D1
  8
0
 10
79.91597986615497
 20
65.224580861246835
 30
0.0
 11
86.370795138320176
 21
65.224580861246807
 31
0.0
  0
ARC
  5
2D2
  8
0
 10
86.71579977792166
 20
65.022165944174333
 30
0.0
 40
0.4000000000000081
 50
43.538948535410981
 51
149.59976560158259
  0
ARC
  5
2D3
  8
0
 10
87.323661809644605
 20
65.984224807157148
 30
0.0
 40
0.756551136461149
 50
245.15305754746871
 51
322.18002811290938
  0
ARC
  5
2D4
  8
0
 10
87.084208197386715
 20
65.850910323530371
 30
0.0
 40
0.9000000000000261
 50
338.44947533777798
 51
55.698800904824893
  0
ARC
  5
2D5
  8
0
 10
87.365979866151974
 20
66.263953573906576
 30
0.0
 40
0.3999999999999181
 50
55.698800904817219
 51
152.19913485628069
  0
LINE
  5
2D6
  8
0
 10
87.012150293008247
 20
66.450513572751049
 30
0.0
 11
86.869809439297384
 21
66.180550001664614
 31
0.0
  0
ARC
  5
2D7
  8
0
 10
86.515979866153543
 20
66.367110000509214
 30
0.0
 40
0.4000000000000568
 50
187.18365794406429
 51
332.19913485626847
  0
LINE
  5
2D8
  8
0
 10
86.119119702617525
 20
66.317089898567815
 30
0.0
 11
86.062840029689625
 21
66.763613582746274
 31
0.0
  0
ARC
  5
2D9
  8
0
 10
85.665979866153634
 20
66.713593480804803
 30
0.0
 40
0.4000000000000601
 50
7.1836579440728459
 51
154.728265464385
  0
LINE
  5
2DA
  8
0
 10
85.304262559699325
 20
66.884358202605029
 30
0.0
 11
85.177697172607878
 21
66.616264825785862
 31
0.0
  0
ARC
  5
2DB
  8
0
 10
84.815979866153668
 20
66.787029547586144
 30
0.0
 40
0.4000000000000207
 50
188.04839352183151
 51
334.72826546437238
  0
LINE
  5
2DC
  8
0
 10
84.419919799645683
 20
66.731025764519899
 30
0.0
 11
84.362039932661702
 21
67.140353540467345
 31
0.0
  0
ARC
  5
2DD
  8
0
 10
83.965979866153745
 20
67.084349757401185
 30
0.0
 40
0.4000000000000249
 50
8.0483935218194471
 51
157.16386740012729
  0
LINE
  5
2DE
  8
0
 10
83.597332430857591
 20
67.239588504012943
 30
0.0
 11
83.484627301450047
 21
66.971946193007312
 31
0.0
  0
ARC
  5
2DF
  8
0
 10
83.11597986615385
 20
67.127184939619013
 30
0.0
 40
0.4000000000000443
 50
189.03442593147039
 51
337.16386740013797
  0
LINE
  5
2E0
  8
0
 10
82.720942198427508
 20
67.064373785535153
 30
0.0
 11
82.661017533880369
 21
67.44125747868199
 31
0.0
  0
ARC
  5
2E1
  8
0
 10
82.265979866153998
 20
67.378446324598073
 30
0.0
 40
0.4000000000000527
 50
9.0344259314777826
 51
159.47886685264641
  0
LINE
  5
2E2
  8
0
 10
81.891362684556157
 20
67.518667461563069
 30
0.0
 11
81.790597047751845
 21
67.249460267280398
 31
0.0
  0
ARC
  5
2E3
  8
0
 10
81.415979866154075
 20
67.38968140424555
 30
0.0
 40
0.4000000000000579
 50
190.1595011187845
 51
339.47886685261932
  0
LINE
  5
2E4
  8
0
 10
81.022251653167856
 20
67.319125792854692
 30
0.0
 11
80.959708079140256
 21
67.668143668969634
 31
0.0
  0
ARC
  5
2E5
  8
0
 10
80.565979866154095
 20
67.597588057578832
 30
0.0
 40
0.4000000000000074
 50
10.15950111877792
 51
161.6477389558392
  0
LINE
  5
2E6
  8
0
 10
80.186324393496619
 20
67.723531386426544
 30
0.0
 11
80.095635338811718
 21
67.450149729483854
 31
0.0
  0
ARC
  5
2E7
  8
0
 10
79.715979866154186
 20
67.576093058331423
 30
0.0
 40
0.4000000000000265
 50
191.4410212201507
 51
341.6477389558612
  0
LINE
  5
2E8
  8
0
 10
79.323928102328964
 20
67.496749410308595
 30
0.0
 11
79.25803162997957
 21
67.822356171003918
 31
0.0
  0
ARC
  5
2E9
  8
0
 10
78.865979866154305
 20
67.743012522981218
 30
0.0
 40
0.4000000000000642
 50
11.44102122013317
 51
167.2464480869761
  0
LINE
  5
2EB
  8
1
 10
76.315979866154635
 20
53.224580861246913
 30
0.0
 11
76.315979866154635
 21
73.138213356852702
 31
0.0
  0
LINE
  5
2EC
  8
1
 10
76.315979866154763
 20
82.489238310450148
 30
0.0
 11
76.315979866154791
 21
117.48923831045011
 31
0.0
  0
TEXT
  5
3DF
  8
0
 62
     3
 10
0.0
 20
0.0
 30
0.0
 40
10.0
  1
L6-RGC
  7
STANDARD1
  0
ENDSEC
  0
EOF
