  0
SECTION
  2
HEADER
  9
$ACADVER
  1
AC1009
  9
$INSBASE
 10
7.37824081052986
 20
15.90864369846679
 30
0.0
  9
$EXTMIN
 10
0.0
 20
-2.960436562073669
 30
0.0
  9
$EXTMAX
 10
252.5861561566511
 20
194.8806396754743
 30
0.0
  9
$LIMMIN
 10
0.0
 20
0.0
  9
$LIMMAX
 10
385.0
 20
270.0
  9
$ORTHOMODE
 70
     1
  9
$REGENMODE
 70
     1
  9
$FILLMODE
 70
     1
  9
$QTEXTMODE
 70
     0
  9
$MIRRTEXT
 70
     0
  9
$DRAGMODE
 70
     2
  9
$LTSCALE
 40
10.0
  9
$OSMODE
 70
  3071
  9
$ATTMODE
 70
     1
  9
$TEXTSIZE
 40
4.0
  9
$TRACEWID
 40
0.05
  9
$TEXTSTYLE
  7
STANDARD
  9
$CLAYER
  8
0
  9
$CELTYPE
  6
BYLAYER
  9
$CECOLOR
 62
   256
  9
$DIMSCALE
 40
1.0
  9
$DIMASZ
 40
3.0
  9
$DIMEXO
 40
2.0
  9
$DIMDLI
 40
10.0
  9
$DIMRND
 40
0.0
  9
$DIMDLE
 40
0.0
  9
$DIMEXE
 40
2.0
  9
$DIMTP
 40
0.0
  9
$DIMTM
 40
0.0
  9
$DIMTXT
 40
3.0
  9
$DIMCEN
 40
0.09
  9
$DIMTSZ
 40
0.0
  9
$DIMTOL
 70
     0
  9
$DIMLIM
 70
     0
  9
$DIMTIH
 70
     0
  9
$DIMTOH
 70
     0
  9
$DIMSE1
 70
     0
  9
$DIMSE2
 70
     0
  9
$DIMTAD
 70
     1
  9
$DIMZIN
 70
     0
  9
$DIMBLK
  1

  9
$DIMASO
 70
     0
  9
$DIMSHO
 70
     0
  9
$DIMPOST
  1

  9
$DIMAPOST
  1

  9
$DIMALT
 70
     0
  9
$DIMALTD
 70
     2
  9
$DIMALTF
 40
25.399999999999999
  9
$DIMLFAC
 40
1.0
  9
$DIMTOFL
 70
     1
  9
$DIMTVP
 40
1.6000000000000001
  9
$DIMTIX
 70
     1
  9
$DIMSOXD
 70
     0
  9
$DIMSAH
 70
     0
  9
$DIMBLK1
  1

  9
$DIMBLK2
  1

  9
$DIMSTYLE
  2
STANDARD
  9
$DIMCLRD
 70
     0
  9
$DIMCLRE
 70
     0
  9
$DIMCLRT
 70
     0
  9
$DIMTFAC
 40
1.0
  9
$DIMGAP
 40
1.0
  9
$LUNITS
 70
     2
  9
$LUPREC
 70
     2
  9
$SKETCHINC
 40
0.1
  9
$FILLETRAD
 40
2.0
  9
$AUNITS
 70
     0
  9
$AUPREC
 70
     2
  9
$MENU
  1
E:\r13\win\SUPPORT\ACAD
  9
$ELEVATION
 40
0.0
  9
$PELEVATION
 40
0.0
  9
$THICKNESS
 40
0.0
  9
$LIMCHECK
 70
     0
  9
$BLIPMODE
 70
     0
  9
$CHAMFERA
 40
1.0
  9
$CHAMFERB
 40
1.0
  9
$SKPOLY
 70
     0
  9
$TDCREATE
 40
2450252.6853964119
  9
$TDUPDATE
 40
2456597.5621737852
  9
$TDINDWG
 40
0.187376794
  9
$TDUSRTIMER
 40
0.187376794
  9
$USRTIMER
 70
     1
  9
$ANGBASE
 50
0.0
  9
$ANGDIR
 70
     0
  9
$PDMODE
 70
     0
  9
$PDSIZE
 40
0.0
  9
$PLINEWID
 40
0.0
  9
$COORDS
 70
     1
  9
$SPLFRAME
 70
     0
  9
$SPLINETYPE
 70
     6
  9
$SPLINESEGS
 70
     8
  9
$ATTDIA
 70
     0
  9
$ATTREQ
 70
     1
  9
$HANDLING
 70
     1
  9
$HANDSEED
  5
3AFB
  9
$SURFTAB1
 70
     6
  9
$SURFTAB2
 70
     6
  9
$SURFTYPE
 70
     6
  9
$SURFU
 70
     6
  9
$SURFV
 70
     6
  9
$UCSNAME
  2

  9
$UCSORG
 10
0.0
 20
0.0
 30
0.0
  9
$UCSXDIR
 10
1.0
 20
0.0
 30
0.0
  9
$UCSYDIR
 10
0.0
 20
1.0
 30
0.0
  9
$PUCSNAME
  2

  9
$PUCSORG
 10
0.0
 20
0.0
 30
0.0
  9
$PUCSXDIR
 10
1.0
 20
0.0
 30
0.0
  9
$PUCSYDIR
 10
0.0
 20
1.0
 30
0.0
  9
$USERI1
 70
     3
  9
$USERI2
 70
     1
  9
$USERI3
 70
     0
  9
$USERI4
 70
     1
  9
$USERI5
 70
     0
  9
$USERR1
 40
1.0
  9
$USERR2
 40
3.0
  9
$USERR3
 40
3.0
  9
$USERR4
 40
3.0
  9
$USERR5
 40
10.0
  9
$WORLDVIEW
 70
     1
  9
$SHADEDGE
 70
     3
  9
$SHADEDIF
 70
    70
  9
$TILEMODE
 70
     1
  9
$MAXACTVP
 70
    16
  9
$PLIMCHECK
 70
     0
  9
$PEXTMIN
 10
1.0000000000000000E+020
 20
1.0000000000000000E+020
 30
1.0000000000000000E+020
  9
$PEXTMAX
 10
-1.0000000000000000E+020
 20
-1.0000000000000000E+020
 30
-1.0000000000000000E+020
  9
$PLIMMIN
 10
0.0
 20
0.0
  9
$PLIMMAX
 10
12.0
 20
9.0
  9
$UNITMODE
 70
     0
  9
$VISRETAIN
 70
     0
  9
$PLINEGEN
 70
     0
  9
$PSLTSCALE
 70
     0
  0
ENDSEC
  0
SECTION
  2
TABLES
  0
TABLE
  2
VPORT
 70
     1
  0
VPORT
  2
*ACTIVE
 70
     0
 10
0.0
 20
0.0
 11
1.0
 21
1.0
 12
192.49412581440311
 22
162.8616388594717
 13
0.0
 23
0.0
 14
5.0
 24
5.0
 15
5.0
 25
5.0
 16
0.0
 26
0.0
 36
1.0
 17
0.0
 27
0.0
 37
0.0
 40
334.81001162774987
 41
1.9089595375722539
 42
50.0
 43
0.0
 44
0.0
 50
0.0
 51
0.0
 71
     0
 72
  1000
 73
     1
 74
     0
 75
     0
 76
     0
 77
     0
 78
     1
  0
ENDTAB
  0
TABLE
  2
LTYPE
 70
     3
  0
LTYPE
  2
CONTINUOUS
 70
     0
  3
Solid Line
 72
    65
 73
     0
 40
0.0
  0
LTYPE
  2
CENTER
 70
     0
  3
____ _ ____ _ ____ _ ____ _ ____ _ ____ _ ____
 72
    65
 73
     4
 40
2.0
 49
1.25
 49
-0.25
 49
0.25
 49
-0.25
  0
LTYPE
  2
PHANTOM2
 70
     0
  3
___ _ _ ___ _ _ ___ _ _ ___ _ _
 72
    65
 73
     6
 40
1.25
 49
0.625
 49
-0.125
 49
0.125
 49
-0.125
 49
0.125
 49
-0.125
  0
ENDTAB
  0
TABLE
  2
LAYER
 70
     3
  0
LAYER
  2
0
 70
     0
 62
     7
  6
CONTINUOUS
  0
LAYER
  2
1
 70
     0
 62
     1
  6
CENTER
  0
LAYER
  2
3
 70
     0
 62
     3
  6
CONTINUOUS
  0
ENDTAB
  0
TABLE
  2
STYLE
 70
     2
  0
STYLE
  2
STANDARD
 70
     0
 40
0.0
 41
1.0
 50
0.0
 71
     0
 42
4.0
  3
simplex
  4
bigfont
  0
STYLE
  2
STANDARD1
 70
     0
 40
0.0
 41
1.0
 50
0.0
 71
     0
 42
3.0
  3
txt
  4

  0
ENDTAB
  0
TABLE
  2
VIEW
 70
     0
  0
ENDTAB
  0
TABLE
  2
UCS
 70
     0
  0
ENDTAB
  0
TABLE
  2
APPID
 70
     9
  0
APPID
  2
ACAD
 70
     0
  0
APPID
  2
GENIUS_GENODEF_13
 70
     0
  0
APPID
  2
GENIUS_GENOENT_13
 70
     0
  0
APPID
  2
GENIUS_GENOBJ_13
 70
     0
  0
APPID
  2
GENIUS_GENOLIS_13
 70
     0
  0
APPID
  2
GENIUS_GENOREF_13
 70
     0
  0
APPID
  2
GENIUS_GENOBJ-N-FIL_13
 70
     0
  0
APPID
  2
ACAD_MLEADERVER
 70
     0
  0
APPID
  2
ACAD_NAV_VCDISPLAY
 70
     0
  0
ENDTAB
  0
TABLE
  2
DIMSTYLE
 70
     1
  0
DIMSTYLE
  2
STANDARD
 70
     0
  3

  4

  5

  6

  7

 40
1.0
 41
0.18
 42
0.0625
 43
0.38
 44
0.18
 45
0.0
 46
0.0
 47
0.0
 48
0.0
140
0.18
141
0.09
142
0.0
143
25.399999999999999
144
1.0
145
0.0
146
1.0
147
0.09
 71
     0
 72
     0
 73
     1
 74
     1
 75
     0
 76
     0
 77
     0
 78
     0
170
     0
171
     2
172
     0
173
     0
174
     0
175
     0
176
     0
177
     0
178
     0
  0
ENDTAB
  0
ENDSEC
  0
SECTION
  2
BLOCKS
  0
BLOCK
  8
0
  2
$MODEL_SPACE
 70
     0
 10
0.0
 20
0.0
 30
0.0
  3
$MODEL_SPACE
  1

  0
ENDBLK
  5
39BA
  8
0
  0
BLOCK
 67
     1
  8
0
  2
$PAPER_SPACE
 70
     0
 10
0.0
 20
0.0
 30
0.0
  3
$PAPER_SPACE
  1

  0
ENDBLK
  5
39B8
 67
     1
  8
0
  0
ENDSEC
  0
SECTION
  2
ENTITIES
  0
LINE
  5
3864
  8
1
 10
184.68443230828839
 20
129.31216108581239
 30
0.0
 11
184.68443230828839
 21
143.5617421179204
 31
0.0
  0
LINE
  5
3865
  8
1
 10
245.0861561566509
 20
143.65486430108501
 30
0.0
 11
245.0861561566509
 21
115.56955875561231
 31
0.0
  0
LINE
  5
3866
  8
0
 10
248.18615615665081
 20
139.02919752963459
 30
0.0
 11
248.18615615665101
 21
131.67919752963459
 31
0.0
  0
LINE
  5
3867
  8
0
 10
241.98615615665099
 20
139.02919752963459
 30
0.0
 11
241.98615615665099
 21
131.67919752963459
 31
0.0
  0
LINE
  5
3868
  8
0
 10
181.58443230845879
 20
130.97844014514371
 30
0.0
 11
181.58443230845879
 21
133.97844014510841
 31
0.0
  0
LINE
  5
3869
  8
0
 10
187.78443230845889
 20
130.97844014514371
 30
0.0
 11
187.78443230845889
 21
133.97844014510841
 31
0.0
  0
LINE
  5
386A
  8
0
 10
128.50183057297329
 20
139.02919752963459
 30
0.0
 11
128.50183057297329
 21
131.67919752963459
 31
0.0
  0
LINE
  5
386B
  8
0
 10
134.70183057297331
 20
139.02919752963459
 30
0.0
 11
134.70183057297331
 21
131.67919752963459
 31
0.0
  0
LINE
  5
386C
  8
1
 10
131.60183057297331
 20
143.46861993475579
 30
0.0
 11
131.60183057297331
 21
115.56955875561231
 31
0.0
  0
ARC
  5
386D
  8
0
 10
125.3018305729732
 20
129.7791975296345
 30
0.0
 40
1.1999999999999991
 50
90.0
 51
180.0
  0
LINE
  5
386E
  8
0
 10
124.1018305729733
 20
120.4791975296334
 30
0.0
 11
124.6018305729732
 21
120.4791975296327
 31
0.0
  0
ARC
  5
386F
  8
0
 10
124.6018305729732
 20
120.9791975296327
 30
0.0
 40
0.5
 50
180.00000000000011
 51
270.0
  0
LINE
  5
3870
  8
0
 10
124.1018305729733
 20
115.9791975296334
 30
0.0
 11
139.10183057297331
 21
115.9791975296334
 31
0.0
  0
ARC
  5
3871
  8
0
 10
251.386156156651
 20
117.1791975296334
 30
0.0
 40
1.1999999999999991
 50
270.0
 51
359.9999999999992
  0
ARC
  5
3872
  8
0
 10
238.78615615665089
 20
117.1791975296334
 30
0.0
 40
1.1999999999999991
 50
180.0
 51
270.0
  0
LINE
  5
3873
  8
0
 10
124.1018305729733
 20
115.9791975296334
 30
0.0
 11
124.1018305729733
 21
120.4791975296334
 31
0.0
  0
LINE
  5
3874
  8
0
 10
238.78615615665089
 20
115.9791975296334
 30
0.0
 11
251.386156156651
 21
115.9791975296334
 31
0.0
  0
ARC
  5
3875
  8
0
 10
245.0861561566509
 20
122.47919752963411
 30
0.0
 40
2.6499999999999768
 50
180.0000000000006
 51
0.0
  0
ARC
  5
3876
  8
0
 10
245.0861561566509
 20
125.47919752963411
 30
0.0
 40
2.6499999999999768
 50
0.0
 51
180.0
  0
LINE
  5
3877
  8
0
 10
251.386156156651
 20
130.9791975296346
 30
0.0
 11
238.78615615665089
 21
130.9791975296346
 31
0.0
  0
LINE
  5
3878
  8
0
 10
237.5861561566509
 20
117.1791975296334
 30
0.0
 11
237.5861561566509
 21
129.7791975296345
 31
0.0
  0
LINE
  5
3879
  8
0
 10
242.43615615665101
 20
125.47919752963411
 30
0.0
 11
242.43615615665101
 21
122.47919752963411
 31
0.0
  0
ARC
  5
387B
  8
0
 10
238.78615615665089
 20
129.7791975296345
 30
0.0
 40
1.1999999999999991
 50
90.0
 51
180.0
  0
ARC
  5
387C
  8
0
 10
241.28615615665089
 20
131.67919752963459
 30
0.0
 40
0.7
 50
270.0
 51
0.0
  0
LINE
  5
387D
  8
0
 10
124.1018305729732
 20
120.9791975296327
 30
0.0
 11
124.1018305729732
 21
129.7791975296345
 31
0.0
  0
LINE
  5
387E
  8
0
 10
252.5861561566511
 20
117.1791975296334
 30
0.0
 11
252.5861561566511
 21
129.7791975296345
 31
0.0
  0
LINE
  5
387F
  8
0
 10
247.73615615665099
 20
125.47919752963411
 30
0.0
 11
247.73615615665099
 21
122.47919752963411
 31
0.0
  0
ARC
  5
3880
  8
0
 10
251.386156156651
 20
129.7791975296345
 30
0.0
 40
1.1999999999999991
 50
0.0
 51
90.000000000000469
  0
ARC
  5
3881
  8
0
 10
248.8861561566508
 20
131.67919752963459
 30
0.0
 40
0.7
 50
180.0
 51
270.0
  0
LINE
  5
3882
  8
0
 10
139.10183057297331
 20
115.9791975296334
 30
0.0
 11
139.10183057297331
 21
120.4791975296334
 31
0.0
  0
CIRCLE
  5
3883
  8
0
 10
131.601830572974
 20
123.97919752963411
 30
0.0
 40
2.0670000000000002
  0
LINE
  5
3884
  8
0
 10
135.60183057297331
 20
127.9791975296348
 30
0.0
 11
135.60183057297331
 21
119.9791975296348
 31
0.0
  0
LINE
  5
3885
  8
0
 10
139.10183057297331
 20
120.9791975296327
 30
0.0
 11
139.1018305729734
 21
129.7791975296345
 31
0.0
  0
LINE
  5
3886
  8
0
 10
135.75183057297329
 20
129.77919752963371
 30
0.0
 11
135.75183057297329
 21
117.6791975296328
 31
0.0
  0
LINE
  5
3887
  8
0
 10
127.6018305729733
 20
127.9791975296348
 30
0.0
 11
127.6018305729733
 21
119.9791975296348
 31
0.0
  0
LINE
  5
3888
  8
0
 10
127.45183057297319
 20
129.77919752963371
 30
0.0
 11
127.45183057297319
 21
117.6791975296328
 31
0.0
  0
CIRCLE
  5
3889
  8
3
 10
131.60183057297331
 20
123.97919752963411
 30
0.0
 40
2.5
  0
LINE
  5
388A
  8
0
 10
135.60183057297331
 20
119.9791975296348
 30
0.0
 11
127.6018305729733
 21
119.9791975296348
 31
0.0
  0
LINE
  5
388B
  8
1
 10
137.60183057297331
 20
123.97919752963411
 30
0.0
 11
125.6018305729733
 21
123.97919752963411
 31
0.0
  0
LINE
  5
388C
  8
0
 10
125.3018305729732
 20
117.679197529633
 30
0.0
 11
137.90183057297321
 21
117.679197529633
 31
0.0
  0
LINE
  5
388D
  8
0
 10
126.3018305729732
 20
120.4791975296327
 30
0.0
 11
126.3018305729732
 21
118.9791975296326
 31
0.0
  0
LINE
  5
388E
  8
0
 10
126.3018305729732
 20
118.9791975296326
 30
0.0
 11
125.3018305729732
 21
118.9791975296326
 31
0.0
  0
LINE
  5
388F
  8
0
 10
125.3018305729732
 20
118.9791975296326
 30
0.0
 11
125.3018305729732
 21
117.679197529633
 31
0.0
  0
LINE
  5
3890
  8
0
 10
124.6018305729732
 20
120.4791975296327
 30
0.0
 11
126.3018305729732
 21
120.4791975296327
 31
0.0
  0
LINE
  5
3891
  8
0
 10
139.10183057297331
 20
120.4791975296334
 30
0.0
 11
138.60183057297331
 21
120.4791975296327
 31
0.0
  0
LINE
  5
3892
  8
0
 10
137.90183057297341
 20
118.9791975296326
 30
0.0
 11
137.90183057297341
 21
117.679197529633
 31
0.0
  0
ARC
  5
3893
  8
0
 10
138.60183057297331
 20
120.9791975296327
 30
0.0
 40
0.5
 50
270.0
 51
359.99999999999977
  0
LINE
  5
3894
  8
0
 10
136.90183057297341
 20
120.4791975296327
 30
0.0
 11
136.90183057297341
 21
118.9791975296326
 31
0.0
  0
LINE
  5
3895
  8
0
 10
136.90183057297341
 20
118.9791975296326
 30
0.0
 11
137.90183057297341
 21
118.9791975296326
 31
0.0
  0
LINE
  5
3896
  8
0
 10
138.60183057297331
 20
120.4791975296327
 30
0.0
 11
136.90183057297321
 21
120.4791975296327
 31
0.0
  0
LINE
  5
3897
  8
0
 10
127.6018305729733
 20
127.9791975296348
 30
0.0
 11
135.60183057297331
 21
127.9791975296348
 31
0.0
  0
LINE
  5
3898
  8
0
 10
127.45183057297319
 20
129.77919752963371
 30
0.0
 11
135.75183057297329
 21
129.77919752963371
 31
0.0
  0
ARC
  5
389A
  8
0
 10
127.8018305729733
 20
131.67919752963459
 30
0.0
 40
0.7
 50
270.0
 51
0.0
  0
LINE
  5
389B
  8
0
 10
127.8018305729733
 20
130.9791975296346
 30
0.0
 11
125.3018305729732
 21
130.9791975296346
 31
0.0
  0
ARC
  5
389C
  8
0
 10
137.90183057297341
 20
129.7791975296345
 30
0.0
 40
1.1999999999999991
 50
0.0
 51
90.000000000000469
  0
ARC
  5
389D
  8
0
 10
135.4018305729733
 20
131.67919752963459
 30
0.0
 40
0.7
 50
180.0
 51
270.0
  0
LINE
  5
389E
  8
0
 10
137.90183057297341
 20
130.9791975296346
 30
0.0
 11
135.4018305729733
 21
130.9791975296346
 31
0.0
  0
LINE
  5
389F
  8
0
 10
199.6844323084579
 20
130.47844014514189
 30
0.0
 11
199.6844323084579
 21
116.47844014514069
 31
0.0
  0
LINE
  5
38A0
  8
0
 10
178.6844323084581
 20
116.47844014514089
 30
0.0
 11
178.6844323084581
 21
117.4784401451393
 31
0.0
  0
LINE
  5
38A1
  8
0
 10
179.1844323084581
 20
115.97844014514089
 30
0.0
 11
199.18443230845801
 21
115.97844014514069
 31
0.0
  0
ARC
  5
38A2
  8
0
 10
179.1844323084581
 20
116.47844014514089
 30
0.0
 40
0.5
 50
179.9999999999977
 51
270.0
  0
ARC
  5
38A3
  8
0
 10
199.18443230845801
 20
116.47844014514069
 30
0.0
 40
0.5
 50
270.0
 51
0.0000000000000127
  0
LINE
  5
38A4
  8
0
 10
196.6844323084579
 20
117.4784401451394
 30
0.0
 11
178.6844323084581
 21
117.4784401451393
 31
0.0
  0
LINE
  5
38A5
  8
0
 10
196.68443230845901
 20
130.97844014514169
 30
0.0
 11
178.68443230845901
 21
130.97844014514169
 31
0.0
  0
LINE
  5
38A6
  8
0
 10
178.68443230845901
 20
117.4784401451406
 30
0.0
 11
178.68443230845901
 21
130.97844014514169
 31
0.0
  0
LINE
  5
38A8
  8
0
 10
196.68443230845881
 20
117.4784401451406
 30
0.0
 11
196.68443230845901
 21
130.97844014514169
 31
0.0
  0
ARC
  5
38AA
  8
0
 10
199.18443230845801
 20
130.47844014514189
 30
0.0
 40
0.5
 50
0.0000000000000127
 51
90.0
  0
ARC
  5
38AB
  8
0
 10
197.18443230845801
 20
130.47844014514189
 30
0.0
 40
0.5
 50
90.0
 51
180.0
  0
LINE
  5
38AC
  8
0
 10
197.18443230845801
 20
130.97844014514189
 30
0.0
 11
199.18443230845801
 21
130.97844014514189
 31
0.0
  0
LINE
  5
38AD
  8
0
 10
247.48615615665071
 20
139.72919752963449
 30
0.0
 11
242.68615615665101
 21
139.72919752963449
 31
0.0
  0
LINE
  5
38AE
  8
0
 10
241.98615615665099
 20
134.07919752960311
 30
0.0
 11
248.18615615665101
 21
134.07919752960311
 31
0.0
  0
LINE
  5
38AF
  8
0
 10
241.98615615665099
 20
135.26082091120489
 30
0.0
 11
248.18615615665101
 21
135.26082091120489
 31
0.0
  0
ARC
  5
38B0
  8
0
 10
245.0861561566509
 20
134.1791975295998
 30
0.0
 40
0.5
 50
191.53695903282451
 51
348.46304096716841
  0
ARC
  5
38B2
  8
0
 10
242.68615615665101
 20
139.02919752963459
 30
0.0
 40
0.7
 50
90.0
 51
180.0
  0
ARC
  5
38B3
  8
0
 10
247.48615615665071
 20
139.02919752963459
 30
0.0
 40
0.7
 50
0.0
 51
90.000000000000185
  0
LINE
  5
38B4
  8
0
 10
134.00183057297309
 20
139.72919752963449
 30
0.0
 11
129.20183057297331
 21
139.72919752963449
 31
0.0
  0
LINE
  5
38B5
  8
0
 10
128.50183057297329
 20
135.26082091120489
 30
0.0
 11
134.70183057297331
 21
135.26082091120489
 31
0.0
  0
LINE
  5
38B6
  8
0
 10
128.50183057297329
 20
134.07919752960311
 30
0.0
 11
134.70183057297331
 21
134.07919752960311
 31
0.0
  0
ARC
  5
38B8
  8
0
 10
129.20183057297331
 20
139.02919752963459
 30
0.0
 40
0.7
 50
90.0
 51
180.0
  0
ARC
  5
38B9
  8
0
 10
131.6018305729732
 20
134.1791975295998
 30
0.0
 40
0.5
 50
191.53695903282451
 51
348.46304096716841
  0
ARC
  5
38BA
  8
0
 10
134.00183057297309
 20
139.02919752963459
 30
0.0
 40
0.7
 50
0.0
 51
90.000000000000185
  0
LINE
  5
38BB
  8
0
 10
182.25280892685669
 20
139.72844014510841
 30
0.0
 11
187.1160556900609
 21
139.72844014510821
 31
0.0
  0
LINE
  5
38BC
  8
0
 10
177.68443230845881
 20
133.97844014510821
 30
0.0
 11
191.68443230845901
 21
133.97844014510821
 31
0.0
  0
LINE
  5
38BE
  8
0
 10
177.68443230845881
 20
135.1600635267103
 30
0.0
 11
177.68443230845881
 21
133.97844014510821
 31
0.0
  0
LINE
  5
38BF
  8
0
 10
177.68443230845881
 20
135.1600635267103
 30
0.0
 11
182.25280892685669
 21
139.72844014510841
 31
0.0
  0
LINE
  5
38C0
  8
0
 10
191.68443230845901
 20
135.1600635267103
 30
0.0
 11
191.68443230845901
 21
133.97844014510821
 31
0.0
  0
LINE
  5
38C1
  8
0
 10
191.68443230845901
 20
135.1600635267103
 30
0.0
 11
187.1160556900609
 21
139.72844014510821
 31
0.0
  0
LINE
  5
38C2
  8
0
 10
178.68443230845901
 20
179.28063967547419
 30
0.0
 11
178.68443230845901
 21
183.68063967547431
 31
0.0
  0
LINE
  5
38C3
  8
0
 10
195.7767367319029
 20
179.28063967547419
 30
0.0
 11
195.7767367319029
 21
194.28063967547439
 31
0.0
  0
LINE
  5
38C4
  8
0
 10
199.6844323084579
 20
179.78063967547419
 30
0.0
 11
199.6844323084579
 21
193.78063967547439
 31
0.0
  0
LINE
  5
38C5
  8
0
 10
199.18443230845801
 20
179.28063967547419
 30
0.0
 11
196.2767367319029
 21
179.28063967547419
 31
0.0
  0
LINE
  5
38C6
  8
0
 10
199.18443230845801
 20
194.28063967547439
 30
0.0
 11
196.2767367319029
 21
194.28063967547439
 31
0.0
  0
LINE
  5
38C7
  8
1
 10
173.68443230845901
 20
186.7806396754743
 30
0.0
 11
204.68443230845801
 21
186.7806396754743
 31
0.0
  0
ARC
  5
38C8
  8
0
 10
199.18443230845801
 20
193.78063967547439
 30
0.0
 40
0.5
 50
0.0
 51
90.0
  0
ARC
  5
38C9
  8
0
 10
199.18443230845801
 20
179.78063967547419
 30
0.0
 40
0.5
 50
270.0
 51
0.0
  0
ARC
  5
38CA
  8
0
 10
196.2767367319029
 20
179.78063967547419
 30
0.0
 40
0.5
 50
180.0
 51
270.00000000000011
  0
ARC
  5
38CB
  8
0
 10
196.2767367319029
 20
193.78063967547439
 30
0.0
 40
0.5
 50
90.0
 51
180.0
  0
LINE
  5
38CC
  8
0
 10
195.7767367319029
 20
194.28063967547439
 30
0.0
 11
178.68443230845901
 21
194.28063967547439
 31
0.0
  0
LINE
  5
38CD
  8
0
 10
195.7767367319029
 20
179.28063967547419
 30
0.0
 11
178.68443230845901
 21
179.28063967547419
 31
0.0
  0
LINE
  5
38CE
  8
0
 10
178.18443230811789
 20
189.8806396754743
 30
0.0
 11
191.18443230845901
 21
189.8806396754743
 31
0.0
  0
LINE
  5
38CF
  8
0
 10
178.18443230811789
 20
183.68063967547431
 30
0.0
 11
191.18443230845901
 21
183.68063967547431
 31
0.0
  0
LINE
  5
38D0
  8
1
 10
184.68443230828839
 20
194.8806396754743
 30
0.0
 11
184.68443230828839
 21
178.68063967547431
 31
0.0
  0
ARC
  5
38D1
  8
0
 10
177.25605569006069
 20
186.7806396754743
 30
0.0
 40
9.8600000000001362
 50
341.67530590855682
 51
18.324694091442979
  0
ARC
  5
38D2
  8
0
 10
181.8244323084582
 20
186.78063967547419
 30
0.0
 40
9.8600000000007295
 50
341.67530590855841
 51
18.3246940914423
  0
ARC
  5
38D3
  8
0
 10
187.5444323081187
 20
186.78063967547419
 30
0.0
 40
9.8600000000007295
 50
161.6753059085577
 51
198.32469409144159
  0
ARC
  5
38D4
  8
0
 10
192.11280892651621
 20
186.7806396754743
 30
0.0
 40
9.8600000000001362
 50
161.67530590855699
 51
198.32469409144309
  0
LINE
  5
38D5
  8
0
 10
178.68443230845901
 20
189.8806396754743
 30
0.0
 11
178.68443230845901
 21
194.28063967547439
 31
0.0
  0
LINE
  5
38EC
  8
1
 10
250.23615615665079
 20
125.47919752963411
 30
0.0
 11
239.9361561566509
 21
125.47919752963411
 31
0.0
  0
LINE
  5
38ED
  8
1
 10
250.23615615665079
 20
122.47919752963411
 30
0.0
 11
239.9361561566509
 21
122.47919752963411
 31
0.0
  0
TEXT
  5
3A6D
  8
0
 62
     3
 10
0.0
 20
0.0
 30
0.0
 40
10.0
  1
L6-MBP1515
  7
STANDARD1
  0
ENDSEC
  0
EOF
