  0
SECTION
  2
HEADER
  9
$ACADVER
  1
AC1009
  9
$INSBASE
 10
0.0
 20
0.0
 30
0.0
  9
$EXTMIN
 10
0.0
 20
-2.960436562073669
 30
0.0
  9
$EXTMAX
 10
267.73361181382393
 20
198.52874178082419
 30
0.0
  9
$LIMMIN
 10
0.0
 20
0.0
  9
$LIMMAX
 10
375.0
 20
278.0
  9
$ORTHOMODE
 70
     1
  9
$REGENMODE
 70
     1
  9
$FILLMODE
 70
     1
  9
$QTEXTMODE
 70
     0
  9
$MIRRTEXT
 70
     0
  9
$DRAGMODE
 70
     2
  9
$LTSCALE
 40
6.0
  9
$OSMODE
 70
  3071
  9
$ATTMODE
 70
     1
  9
$TEXTSIZE
 40
0.2
  9
$TRACEWID
 40
0.05
  9
$TEXTSTYLE
  7
STANDARD
  9
$CLAYER
  8
0
  9
$CELTYPE
  6
BYLAYER
  9
$CECOLOR
 62
   256
  9
$DIMSCALE
 40
1.0
  9
$DIMASZ
 40
3.0
  9
$DIMEXO
 40
1.0
  9
$DIMDLI
 40
6.0
  9
$DIMRND
 40
0.0
  9
$DIMDLE
 40
0.0
  9
$DIMEXE
 40
1.0
  9
$DIMTP
 40
495.0
  9
$DIMTM
 40
0.0
  9
$DIMTXT
 40
3.0
  9
$DIMCEN
 40
0.0
  9
$DIMTSZ
 40
0.0
  9
$DIMTOL
 70
     0
  9
$DIMLIM
 70
     0
  9
$DIMTIH
 70
     0
  9
$DIMTOH
 70
     0
  9
$DIMSE1
 70
     0
  9
$DIMSE2
 70
     0
  9
$DIMTAD
 70
     1
  9
$DIMZIN
 70
     0
  9
$DIMBLK
  1

  9
$DIMASO
 70
     0
  9
$DIMSHO
 70
     0
  9
$DIMPOST
  1

  9
$DIMAPOST
  1

  9
$DIMALT
 70
     0
  9
$DIMALTD
 70
     2
  9
$DIMALTF
 40
25.399999999999999
  9
$DIMLFAC
 40
1.0
  9
$DIMTOFL
 70
     1
  9
$DIMTVP
 40
0.0
  9
$DIMTIX
 70
     1
  9
$DIMSOXD
 70
     0
  9
$DIMSAH
 70
     0
  9
$DIMBLK1
  1

  9
$DIMBLK2
  1

  9
$DIMSTYLE
  2
STANDARD
  9
$DIMCLRD
 70
     0
  9
$DIMCLRE
 70
     0
  9
$DIMCLRT
 70
     4
  9
$DIMTFAC
 40
1.0
  9
$DIMGAP
 40
1.0
  9
$LUNITS
 70
     2
  9
$LUPREC
 70
     4
  9
$SKETCHINC
 40
0.1
  9
$FILLETRAD
 40
0.5
  9
$AUNITS
 70
     0
  9
$AUPREC
 70
     0
  9
$MENU
  1
C:\R13\WIN\SUPPORT\ACAD-I
  9
$ELEVATION
 40
0.0
  9
$PELEVATION
 40
0.0
  9
$THICKNESS
 40
0.0
  9
$LIMCHECK
 70
     0
  9
$BLIPMODE
 70
     0
  9
$CHAMFERA
 40
0.0
  9
$CHAMFERB
 40
0.0
  9
$SKPOLY
 70
     0
  9
$TDCREATE
 40
2450834.4199027782
  9
$TDUPDATE
 40
2456597.5621657521
  9
$TDINDWG
 40
0.0670890972
  9
$TDUSRTIMER
 40
0.0670890972
  9
$USRTIMER
 70
     1
  9
$ANGBASE
 50
0.0
  9
$ANGDIR
 70
     0
  9
$PDMODE
 70
     0
  9
$PDSIZE
 40
0.0
  9
$PLINEWID
 40
0.0
  9
$COORDS
 70
     1
  9
$SPLFRAME
 70
     0
  9
$SPLINETYPE
 70
     6
  9
$SPLINESEGS
 70
     8
  9
$ATTDIA
 70
     0
  9
$ATTREQ
 70
     1
  9
$HANDLING
 70
     1
  9
$HANDSEED
  5
FD4
  9
$SURFTAB1
 70
     6
  9
$SURFTAB2
 70
     6
  9
$SURFTYPE
 70
     6
  9
$SURFU
 70
     6
  9
$SURFV
 70
     6
  9
$UCSNAME
  2

  9
$UCSORG
 10
0.0
 20
0.0
 30
0.0
  9
$UCSXDIR
 10
1.0
 20
0.0
 30
0.0
  9
$UCSYDIR
 10
0.0
 20
1.0
 30
0.0
  9
$PUCSNAME
  2

  9
$PUCSORG
 10
0.0
 20
0.0
 30
0.0
  9
$PUCSXDIR
 10
1.0
 20
0.0
 30
0.0
  9
$PUCSYDIR
 10
0.0
 20
1.0
 30
0.0
  9
$USERI1
 70
     4
  9
$USERI2
 70
     1
  9
$USERI3
 70
     0
  9
$USERI4
 70
     0
  9
$USERI5
 70
     0
  9
$USERR1
 40
1.0
  9
$USERR2
 40
3.0
  9
$USERR3
 40
3.0
  9
$USERR4
 40
3.0
  9
$USERR5
 40
10.0
  9
$WORLDVIEW
 70
     1
  9
$SHADEDGE
 70
     3
  9
$SHADEDIF
 70
    70
  9
$TILEMODE
 70
     1
  9
$MAXACTVP
 70
    16
  9
$PLIMCHECK
 70
     0
  9
$PEXTMIN
 10
1.0000000000000000E+020
 20
1.0000000000000000E+020
 30
1.0000000000000000E+020
  9
$PEXTMAX
 10
-1.0000000000000000E+020
 20
-1.0000000000000000E+020
 30
-1.0000000000000000E+020
  9
$PLIMMIN
 10
0.0
 20
0.0
  9
$PLIMMAX
 10
12.0
 20
9.0
  9
$UNITMODE
 70
     0
  9
$VISRETAIN
 70
     0
  9
$PLINEGEN
 70
     0
  9
$PSLTSCALE
 70
     0
  0
ENDSEC
  0
SECTION
  2
TABLES
  0
TABLE
  2
VPORT
 70
     1
  0
VPORT
  2
*ACTIVE
 70
     0
 10
0.0
 20
0.0
 11
1.0
 21
1.0
 12
187.4942783906524
 22
167.7204668657281
 13
0.0
 23
0.0
 14
10.0
 24
10.0
 15
10.0
 25
10.0
 16
0.0
 26
0.0
 36
1.0
 17
0.0
 27
0.0
 37
0.0
 40
344.62625130655709
 41
1.9089595375722539
 42
50.0
 43
0.0
 44
0.0
 50
0.0
 51
0.0
 71
     0
 72
   100
 73
     1
 74
     0
 75
     0
 76
     0
 77
     0
 78
     0
  0
ENDTAB
  0
TABLE
  2
LTYPE
 70
     3
  0
LTYPE
  2
CONTINUOUS
 70
     0
  3
Solid Line
 72
    65
 73
     0
 40
0.0
  0
LTYPE
  2
CENTER
 70
     0
  3
____ _ ____ _ ____ _ ____ _ ____ _ ____ _ ____
 72
    65
 73
     4
 40
2.0
 49
1.25
 49
-0.25
 49
0.25
 49
-0.25
  0
LTYPE
  2
PHANTOM2
 70
     0
  3
___ _ _ ___ _ _ ___ _ _ ___ _ _
 72
    65
 73
     6
 40
1.25
 49
0.625
 49
-0.125
 49
0.125
 49
-0.125
 49
0.125
 49
-0.125
  0
ENDTAB
  0
TABLE
  2
LAYER
 70
     2
  0
LAYER
  2
0
 70
     0
 62
     7
  6
CONTINUOUS
  0
LAYER
  2
1
 70
     0
 62
     1
  6
CENTER
  0
ENDTAB
  0
TABLE
  2
STYLE
 70
     2
  0
STYLE
  2
STANDARD
 70
     0
 40
0.0
 41
1.0
 50
0.0
 71
     0
 42
0.2
  3
SIMPLEX
  4
BIGFONT
  0
STYLE
  2
STANDARD1
 70
     0
 40
0.0
 41
1.0
 50
0.0
 71
     0
 42
3.0
  3
txt
  4

  0
ENDTAB
  0
TABLE
  2
VIEW
 70
     0
  0
ENDTAB
  0
TABLE
  2
UCS
 70
     0
  0
ENDTAB
  0
TABLE
  2
APPID
 70
    28
  0
APPID
  2
ACAD
 70
     0
  0
APPID
  2
GENIUS_GENOBJ_13
 70
     0
  0
APPID
  2
GENIUS_GENODEF_13
 70
     0
  0
APPID
  2
GENIUS_GENOENT_13
 70
     0
  0
APPID
  2
GENIUS_GENOLIS_13
 70
     0
  0
APPID
  2
GENIUS_GENOREF_13
 70
     0
  0
APPID
  2
GENIUS_GENOBJ-N-TIT_13
 70
     0
  0
APPID
  2
GENIUS_GENTITLE_13
 70
     0
  0
APPID
  2
GENIUS_GENZVEED_13
 70
     0
  0
APPID
  2
GENIUS_GENOBJ-N-FIL_13
 70
     0
  0
APPID
  2
GENIUS_GENOBJ-N-CRS_13
 70
     0
  0
APPID
  2
GENIUS_GEFINERT_13
 70
     0
  0
APPID
  2
GENIUS_GENOBJ-F-INER_13
 70
     0
  0
APPID
  2
GENIUS_GENOBJ-N-ZOO_13
 70
     0
  0
APPID
  2
GENIUS_GENZOO_13
 70
     0
  0
APPID
  2
GENIUS_GENOBJ-F-TOL_13
 70
     0
  0
APPID
  2
GENIUS_GENOBJ-N-RSSYM_13
 70
     0
  0
APPID
  2
GENIUS_GENSYMENT_13
 70
     0
  0
APPID
  2
GENIUS_GENBH_13
 70
     0
  0
APPID
  2
GENIUS_GENOBJ-NBEHI-BHF_13
 70
     0
  0
APPID
  2
GENIUS_GENOBJ-NBEHI-BHB_13
 70
     0
  0
APPID
  2
GENIUS_GENOBJ-F-PART_13
 70
     0
  0
APPID
  2
GENIUS_GEFSTDP_13
 70
     0
  0
APPID
  2
GENIUS_GENOBJ-N-LEADER_13
 70
     0
  0
APPID
  2
GENIUS_GENOBJ-F-FEM_13
 70
     0
  0
APPID
  2
GENIUS_GEFFEM_13
 70
     0
  0
APPID
  2
ACAD_MLEADERVER
 70
     0
  0
APPID
  2
ACAD_NAV_VCDISPLAY
 70
     0
  0
ENDTAB
  0
TABLE
  2
DIMSTYLE
 70
     1
  0
DIMSTYLE
  2
STANDARD
 70
     0
  3

  4

  5

  6

  7

 40
1.0
 41
0.18
 42
0.0625
 43
0.38
 44
0.18
 45
0.0
 46
0.0
 47
0.0
 48
0.0
140
0.18
141
0.09
142
0.0
143
25.399999999999999
144
1.0
145
0.0
146
1.0
147
0.09
 71
     0
 72
     0
 73
     1
 74
     1
 75
     0
 76
     0
 77
     0
 78
     0
170
     0
171
     2
172
     0
173
     0
174
     0
175
     0
176
     0
177
     0
178
     0
  0
ENDTAB
  0
ENDSEC
  0
SECTION
  2
BLOCKS
  0
BLOCK
  8
0
  2
$MODEL_SPACE
 70
     0
 10
0.0
 20
0.0
 30
0.0
  3
$MODEL_SPACE
  1

  0
ENDBLK
  5
E95
  8
0
  0
BLOCK
 67
     1
  8
0
  2
$PAPER_SPACE
 70
     0
 10
0.0
 20
0.0
 30
0.0
  3
$PAPER_SPACE
  1

  0
ENDBLK
  5
E93
 67
     1
  8
0
  0
BLOCK
  8
0
  2
STDGX5
 70
     0
 10
0.0
 20
0.0
 30
0.0
  3
STDGX5
  1

  0
ENDBLK
  5
4F
  8
0
  0
ENDSEC
  0
SECTION
  2
ENTITIES
  0
INSERT
  5
DE
  8
0
  2
STDGX5
 10
0.0
 20
0.0
 30
0.0
  0
INSERT
  5
DF
  8
0
  2
STDGX5
 10
0.0
 20
0.0
 30
0.0
  0
INSERT
  5
15C
  8
0
  2
STDGX5
 10
275.0
 20
0.0
 30
0.0
  0
INSERT
  5
15D
  8
0
  2
STDGX5
 10
275.0
 20
0.0
 30
0.0
  0
INSERT
  5
314
  8
0
  2
STDGX5
 10
0.0
 20
0.0
 30
0.0
  0
INSERT
  5
315
  8
0
  2
STDGX5
 10
0.0
 20
0.0
 30
0.0
  0
INSERT
  5
316
  8
0
  2
STDGX5
 10
275.0
 20
0.0
 30
0.0
  0
INSERT
  5
317
  8
0
  2
STDGX5
 10
275.0
 20
0.0
 30
0.0
  0
LINE
  5
A09
  8
0
 10
120.775226786388
 20
138.83259629885151
 30
0.0
 11
116.775226786388
 21
138.83259629885151
 31
0.0
  0
LINE
  5
A0C
  8
0
 10
117.775226786388
 20
124.63259629881991
 30
0.0
 11
131.775226786388
 21
124.63259629881991
 31
0.0
  0
LINE
  5
A0D
  8
0
 10
132.2752267863882
 20
139.63259629882029
 30
0.0
 11
117.2752267863878
 21
139.63259629882029
 31
0.0
  0
LINE
  5
A0E
  8
0
 10
116.775226786388
 20
138.83259629881681
 30
0.0
 11
120.7752267863879
 21
138.83259629881681
 31
0.0
  0
ARC
  5
A10
  8
0
 10
115.97522678638801
 20
125.8325962988194
 30
0.0
 40
1.1999999999999991
 50
180.0
 51
270.0
1001
GENIUS_GENODEF_13
1002
{
1000
HIER
1070
     0
1002
}
1002
{
1000
MANEDIT
1070
     0
1002
}
1002
{
1000
NOSEL
1070
     0
1002
}
1002
{
1000
BEHIND
1070
     0
1002
}
1002
{
1000
REACTOR
1002
}
1001
GENIUS_GENOBJ-N-FIL_13
1002
{
1000
OWNER
1000
GEN
1002
}
  0
LINE
  5
A11
  8
0
 10
114.775226786388
 20
134.43259629881999
 30
0.0
 11
114.775226786388
 21
127.63259629882
 31
0.0
  0
LINE
  5
A12
  8
0
 10
114.775226786388
 20
127.63259629882
 30
0.0
 11
114.775226786388
 21
125.8325962988194
 31
0.0
  0
LINE
  5
A13
  8
0
 10
115.97522678638801
 20
124.63259629881939
 30
0.0
 11
117.775226786388
 21
124.63259629881939
 31
0.0
  0
ARC
  5
A14
  8
0
  6
CONTINUOUS
 10
115.97522678638801
 20
134.43259629881999
 30
0.0
 40
1.1999999999999991
 50
89.999999999999915
 51
180.0
  0
ARC
  5
A19
  8
0
 10
117.2752267863878
 20
139.13259629882029
 30
0.0
 40
0.5
 50
90.0
 51
180.0
1001
GENIUS_GENODEF_13
1002
{
1000
HIER
1070
     0
1002
}
1002
{
1000
MANEDIT
1070
     0
1002
}
1002
{
1000
NOSEL
1070
     0
1002
}
1002
{
1000
BEHIND
1070
     0
1002
}
1002
{
1000
REACTOR
1002
}
1001
GENIUS_GENOBJ-N-FIL_13
1002
{
1000
OWNER
1000
GEN
1002
}
  0
LINE
  5
A1A
  8
0
 10
116.775226786388
 20
139.13259629882029
 30
0.0
 11
116.775226786388
 21
138.83259629885151
 31
0.0
  0
ARC
  5
A2C
  8
0
 10
232.4420833916829
 20
127.63259629881991
 30
0.0
 40
3.0
 50
270.0
 51
0.0
1001
GENIUS_GENODEF_13
1002
{
1000
HIER
1070
     0
1002
}
1002
{
1000
MANEDIT
1070
     0
1002
}
1002
{
1000
NOSEL
1070
     0
1002
}
1002
{
1000
BEHIND
1070
     0
1002
}
1002
{
1000
REACTOR
1002
}
1001
GENIUS_GENOBJ-N-FIL_13
1002
{
1000
OWNER
1000
GEN
1002
}
  0
LINE
  5
A2D
  8
0
 10
128.77522678638789
 20
138.83259629885191
 30
0.0
 11
128.77522678638789
 21
135.63259629882
 31
0.0
  0
LINE
  5
A2E
  8
0
 10
120.7752267863879
 20
138.83259629885151
 30
0.0
 11
120.7752267863879
 21
135.63259629882
 31
0.0
  0
LINE
  5
A34
  8
0
 10
159.14814278987109
 20
136.13259629881989
 30
0.0
 11
159.14814278987109
 21
139.1325962988204
 31
0.0
  0
LINE
  5
A36
  8
0
 10
160.64814278987109
 20
124.63259629881949
 30
0.0
 11
171.6481427900425
 21
124.63259629881939
 31
0.0
  0
LINE
  5
A37
  8
0
 10
169.6481427900423
 20
126.1325962988177
 30
0.0
 11
162.64814278987109
 21
126.1325962988181
 31
0.0
  0
LINE
  5
A39
  8
0
 10
175.1481427902136
 20
135.63259629882029
 30
0.0
 11
159.64814278987109
 21
135.63259629882
 31
0.0
  0
LINE
  5
A3A
  8
0
 10
169.64814279004241
 20
134.13259629882049
 30
0.0
 11
162.6481427898712
 21
134.1325962988204
 31
0.0
  0
ARC
  5
A6E
  8
0
 10
133.5752267863879
 20
125.8325962988194
 30
0.0
 40
1.1999999999999991
 50
270.0
 51
0.0
1001
GENIUS_GENODEF_13
1002
{
1000
HIER
1070
     0
1002
}
1002
{
1000
MANEDIT
1070
     0
1002
}
1002
{
1000
NOSEL
1070
     0
1002
}
1002
{
1000
BEHIND
1070
     0
1002
}
1002
{
1000
REACTOR
1002
}
1001
GENIUS_GENOBJ-N-FIL_13
1002
{
1000
OWNER
1000
GEN
1002
}
  0
LINE
  5
A6F
  8
0
 10
134.775226786388
 20
134.43259629881999
 30
0.0
 11
134.775226786388
 21
127.63259629882
 31
0.0
  0
LINE
  5
A70
  8
0
 10
131.775226786388
 20
124.63259629881939
 30
0.0
 11
133.5752267863879
 21
124.63259629881939
 31
0.0
  0
LINE
  5
A71
  8
0
 10
134.775226786388
 20
127.63259629882
 30
0.0
 11
134.775226786388
 21
125.8325962988194
 31
0.0
  0
ARC
  5
A73
  8
0
  6
CONTINUOUS
 10
133.57522678638799
 20
134.43259629881999
 30
0.0
 40
1.1999999999999991
 50
0.0
 51
89.999999999999943
  0
ARC
  5
A74
  8
0
 10
160.64814278987109
 20
125.13259629881949
 30
0.0
 40
0.5
 50
179.9999999999996
 51
269.99999999999932
1001
GENIUS_GENODEF_13
1002
{
1000
HIER
1070
     0
1002
}
1002
{
1000
MANEDIT
1070
     0
1002
}
1002
{
1000
NOSEL
1070
     0
1002
}
1002
{
1000
BEHIND
1070
     0
1002
}
1002
{
1000
REACTOR
1002
}
1001
GENIUS_GENOBJ-N-FIL_13
1002
{
1000
OWNER
1000
GEN
1002
}
  0
LINE
  5
A75
  8
0
 10
160.14814278987109
 20
135.63259629882
 30
0.0
 11
160.14814278987109
 21
125.13259629881949
 31
0.0
  0
ARC
  5
A76
  8
0
 10
159.64814278987109
 20
136.13259629881989
 30
0.0
 40
0.5
 50
180.00000000000239
 51
270.00000000000028
1001
GENIUS_GENODEF_13
1002
{
1000
HIER
1070
     0
1002
}
1002
{
1000
MANEDIT
1070
     0
1002
}
1002
{
1000
NOSEL
1070
     0
1002
}
1002
{
1000
BEHIND
1070
     0
1002
}
1002
{
1000
REACTOR
1002
}
1001
GENIUS_GENOBJ-N-FIL_13
1002
{
1000
OWNER
1000
GEN
1002
}
  0
LINE
  5
A77
  8
0
 10
161.6481427898712
 20
133.1325962988204
 30
0.0
 11
161.64814278987109
 21
127.1325962988181
 31
0.0
  0
ARC
  5
A78
  8
0
 10
162.64814278987109
 20
127.1325962988181
 30
0.0
 40
1.0
 50
179.9999999999992
 51
269.99999999999761
1001
GENIUS_GENODEF_13
1002
{
1000
HIER
1070
     0
1002
}
1002
{
1000
MANEDIT
1070
     0
1002
}
1002
{
1000
NOSEL
1070
     0
1002
}
1002
{
1000
BEHIND
1070
     0
1002
}
1002
{
1000
REACTOR
1002
}
1001
GENIUS_GENOBJ-N-FIL_13
1002
{
1000
OWNER
1000
GEN
1002
}
  0
ARC
  5
A79
  8
0
 10
162.6481427898712
 20
133.1325962988204
 30
0.0
 40
1.0
 50
90.000000000001606
 51
179.99999999999909
1001
GENIUS_GENODEF_13
1002
{
1000
HIER
1070
     0
1002
}
1002
{
1000
MANEDIT
1070
     0
1002
}
1002
{
1000
NOSEL
1070
     0
1002
}
1002
{
1000
BEHIND
1070
     0
1002
}
1002
{
1000
REACTOR
1002
}
1001
GENIUS_GENOBJ-N-FIL_13
1002
{
1000
OWNER
1000
GEN
1002
}
  0
ARC
  5
A88
  8
0
 10
218.4420833916829
 20
127.63259629881991
 30
0.0
 40
3.0
 50
180.0
 51
270.0
1001
GENIUS_GENODEF_13
1002
{
1000
HIER
1070
     0
1002
}
1002
{
1000
MANEDIT
1070
     0
1002
}
1002
{
1000
NOSEL
1070
     0
1002
}
1002
{
1000
BEHIND
1070
     0
1002
}
1002
{
1000
REACTOR
1002
}
1001
GENIUS_GENOBJ-N-FIL_13
1002
{
1000
OWNER
1000
GEN
1002
}
  0
ARC
  5
A8B
  8
0
 10
171.6481427900425
 20
125.13259629881939
 30
0.0
 40
0.5
 50
269.99999999999937
 51
0.0000000000003053
1001
GENIUS_GENODEF_13
1002
{
1000
HIER
1070
     0
1002
}
1002
{
1000
MANEDIT
1070
     0
1002
}
1002
{
1000
NOSEL
1070
     0
1002
}
1002
{
1000
BEHIND
1070
     0
1002
}
1002
{
1000
REACTOR
1002
}
1001
GENIUS_GENOBJ-N-FIL_13
1002
{
1000
OWNER
1000
GEN
1002
}
  0
LINE
  5
A8C
  8
0
 10
170.6481427900425
 20
133.13259629882049
 30
0.0
 11
170.6481427900423
 21
127.1325962988177
 31
0.0
  0
LINE
  5
A8D
  8
0
 10
172.1481427900423
 20
135.63259629882029
 30
0.0
 11
172.14814279004241
 21
125.13259629881939
 31
0.0
  0
ARC
  5
A8F
  8
0
 10
169.6481427900423
 20
127.1325962988177
 30
0.0
 40
1.0
 50
269.99999999999778
 51
0.0
1001
GENIUS_GENODEF_13
1002
{
1000
HIER
1070
     0
1002
}
1002
{
1000
MANEDIT
1070
     0
1002
}
1002
{
1000
NOSEL
1070
     0
1002
}
1002
{
1000
BEHIND
1070
     0
1002
}
1002
{
1000
REACTOR
1002
}
1001
GENIUS_GENOBJ-N-FIL_13
1002
{
1000
OWNER
1000
GEN
1002
}
  0
ARC
  5
A93
  8
0
 10
169.64814279004241
 20
133.13259629882049
 30
0.0
 40
1.0
 50
0.0
 51
90.000000000001421
1001
GENIUS_GENODEF_13
1002
{
1000
HIER
1070
     0
1002
}
1002
{
1000
MANEDIT
1070
     0
1002
}
1002
{
1000
NOSEL
1070
     0
1002
}
1002
{
1000
BEHIND
1070
     0
1002
}
1002
{
1000
REACTOR
1002
}
1001
GENIUS_GENOBJ-N-FIL_13
1002
{
1000
OWNER
1000
GEN
1002
}
  0
LINE
  5
A97
  8
0
 10
218.4420833916829
 20
124.63259629881991
 30
0.0
 11
232.4420833916829
 21
124.63259629881991
 31
0.0
  0
POLYLINE
  5
A98
  8
0
  6
CONTINUOUS
 66
     1
 10
0.0
 20
0.0
 30
0.0
 70
     8
  0
VERTEX
  5
E43
  8
0
  6
CONTINUOUS
 10
127.8752267863877
 20
182.88657809397171
 30
0.0
 70
    32
1001
ACAD
1000
R13OBJECT
1002
{
1005
A98
1002
}
  0
VERTEX
  5
E44
  8
0
  6
CONTINUOUS
 10
127.3831127381644
 20
184.20121294674519
 30
0.0
 70
    32
1001
ACAD
1000
R13OBJECT
1002
{
1005
A98
1002
}
  0
VERTEX
  5
E45
  8
0
  6
CONTINUOUS
 10
126.06301332669371
 20
185.09846052252911
 30
0.0
 70
    32
1001
ACAD
1000
R13OBJECT
1002
{
1005
A98
1002
}
  0
VERTEX
  5
E46
  8
0
  6
CONTINUOUS
 10
124.33405078774069
 20
185.29345105566051
 30
0.0
 70
    32
1001
ACAD
1000
R13OBJECT
1002
{
1005
A98
1002
}
  0
VERTEX
  5
E47
  8
0
  6
CONTINUOUS
 10
122.7451585111576
 20
184.7242764296073
 30
0.0
 70
    32
1001
ACAD
1000
R13OBJECT
1002
{
1005
A98
1002
}
  0
VERTEX
  5
E48
  8
0
  6
CONTINUOUS
 10
121.8007985681831
 20
183.5716455665459
 30
0.0
 70
    32
1001
ACAD
1000
R13OBJECT
1002
{
1005
A98
1002
}
  0
VERTEX
  5
E49
  8
0
  6
CONTINUOUS
 10
121.8007985681831
 20
182.20151062139749
 30
0.0
 70
    32
1001
ACAD
1000
R13OBJECT
1002
{
1005
A98
1002
}
  0
VERTEX
  5
E4A
  8
0
  6
CONTINUOUS
 10
122.7451585111577
 20
181.048879758336
 30
0.0
 70
    32
1001
ACAD
1000
R13OBJECT
1002
{
1005
A98
1002
}
  0
VERTEX
  5
E4B
  8
0
  6
CONTINUOUS
 10
124.33405078774079
 20
180.4797051322829
 30
0.0
 70
    32
1001
ACAD
1000
R13OBJECT
1002
{
1005
A98
1002
}
  0
VERTEX
  5
E4C
  8
0
  6
CONTINUOUS
 10
126.06301332669371
 20
180.6746956654143
 30
0.0
 70
    32
1001
ACAD
1000
R13OBJECT
1002
{
1005
A98
1002
}
  0
VERTEX
  5
E4D
  8
0
  6
CONTINUOUS
 10
127.3831127381644
 20
181.5719432411982
 30
0.0
 70
    32
1001
ACAD
1000
R13OBJECT
1002
{
1005
A98
1002
}
  0
VERTEX
  5
E4E
  8
0
  6
CONTINUOUS
 10
127.8752267863877
 20
182.88657809397171
 30
0.0
 70
    32
1001
ACAD
1000
R13OBJECT
1002
{
1005
A98
1002
}
  0
SEQEND
  5
E4F
  8
0
  6
CONTINUOUS
  0
LINE
  5
A99
  8
0
  6
CONTINUOUS
 10
121.67522678638809
 20
176.5865780939717
 30
0.0
 11
121.67522678638809
 21
189.18657809397169
 31
0.0
  0
LINE
  5
A9A
  8
0
  6
CONTINUOUS
 10
127.8752267863879
 20
176.5865780939717
 30
0.0
 11
127.8752267863879
 21
189.18657809397169
 31
0.0
  0
LINE
  5
A9B
  8
0
  6
CONTINUOUS
 10
134.77522678638789
 20
175.38657809380041
 30
0.0
 11
134.77522678638789
 21
186.38657809397159
 31
0.0
  0
LINE
  5
A9C
  8
0
  6
CONTINUOUS
 10
114.7752267863879
 20
175.38657809380041
 30
0.0
 11
114.7752267863879
 21
186.38657809397159
 31
0.0
  0
LINE
  5
A9D
  8
0
 10
116.7752267863879
 20
189.88657809414281
 30
0.0
 11
116.7752267863879
 21
174.3865780938003
 31
0.0
  0
LINE
  5
A9E
  8
0
 10
132.77522678638789
 20
189.88657809414281
 30
0.0
 11
132.77522678638789
 21
174.38657809380041
 31
0.0
  0
LINE
  5
A9F
  8
0
 10
170.57976617164451
 20
148.38259629878519
 30
0.0
 11
165.7165194084404
 21
148.3825962987849
 31
0.0
  0
LINE
  5
AA1
  8
0
 10
175.14814279004241
 20
142.6325962987849
 30
0.0
 11
161.14814279004241
 21
142.6325962987849
 31
0.0
  0
LINE
  5
AA2
  8
0
 10
175.14814279021371
 20
139.6325962988204
 30
0.0
 11
159.64814278987109
 21
139.6325962988204
 31
0.0
  0
LINE
  5
AA3
  8
0
  6
CONTINUOUS
 10
132.27522678638789
 20
173.88657809380041
 30
0.0
 11
117.2752267863879
 21
173.8865780938003
 31
0.0
  0
ARC
  5
AA4
  8
0
 10
128.57522678638799
 20
140.33259629882059
 30
0.0
 40
0.7
 50
180.0
 51
270.0
  0
LINE
  5
AA5
  8
0
 10
121.675226786388
 20
147.6825962988205
 30
0.0
 11
121.675226786388
 21
140.33259629882059
 31
0.0
  0
LINE
  5
AA6
  8
0
 10
127.875226786388
 20
147.6825962988205
 30
0.0
 11
127.8752267863881
 21
140.33259629882059
 31
0.0
  0
LINE
  5
AA7
  8
0
 10
121.675226786388
 20
142.63259629882049
 30
0.0
 11
127.8752267863881
 21
142.63259629882049
 31
0.0
  0
LINE
  5
AA8
  8
0
 10
121.675226786388
 20
143.81421968042261
 30
0.0
 11
127.8752267863881
 21
143.81421968042261
 31
0.0
  0
ARC
  5
AA9
  8
0
 10
120.97522678638811
 20
140.33259629882059
 30
0.0
 40
0.7
 50
270.0
 51
0.0
  0
LINE
  5
AAA
  8
0
 10
120.7752267863879
 20
138.83259629881681
 30
0.0
 11
120.7752267863879
 21
138.332596298818
 31
0.0
  0
ARC
  5
AAB
  8
0
 10
124.7752267863879
 20
142.73259629881721
 30
0.0
 40
0.5
 50
191.53695903282451
 51
348.46304096716841
  0
LINE
  5
AAC
  8
0
 10
127.1752267863879
 20
148.38259629882029
 30
0.0
 11
122.3752267863881
 21
148.38259629882029
 31
0.0
  0
ARC
  5
AAD
  8
0
 10
122.3752267863881
 20
147.6825962988205
 30
0.0
 40
0.7
 50
90.0
 51
180.0
  0
ARC
  5
AAE
  8
0
 10
127.1752267863879
 20
147.6825962988205
 30
0.0
 40
0.7
 50
0.0
 51
90.000000000000256
  0
LINE
  5
AAF
  8
0
 10
132.7752267863882
 20
138.83259629885191
 30
0.0
 11
128.77522678638789
 21
138.83259629885191
 31
0.0
  0
ARC
  5
AB1
  8
0
 10
132.2752267863882
 20
139.13259629882009
 30
0.0
 40
0.5
 50
359.99999999999949
 51
89.999999999999474
1001
GENIUS_GENODEF_13
1002
{
1000
HIER
1070
     0
1002
}
1002
{
1000
MANEDIT
1070
     0
1002
}
1002
{
1000
NOSEL
1070
     0
1002
}
1002
{
1000
BEHIND
1070
     0
1002
}
1002
{
1000
REACTOR
1002
}
1001
GENIUS_GENOBJ-N-FIL_13
1002
{
1000
OWNER
1000
GEN
1002
}
  0
LINE
  5
AB2
  8
0
 10
132.77522678638809
 20
138.83259629881681
 30
0.0
 11
128.77522678638789
 21
138.83259629881681
 31
0.0
  0
LINE
  5
AB3
  8
0
 10
128.77522678638789
 20
138.83259629881681
 30
0.0
 11
128.77522678638789
 21
138.332596298818
 31
0.0
  0
LINE
  5
AB6
  8
0
 10
132.775226786388
 20
139.13259629882009
 30
0.0
 11
132.77522678638789
 21
138.83259629885191
 31
0.0
  0
LINE
  5
AB8
  8
0
 10
161.09814278987409
 20
138.83259629881331
 30
0.0
 11
161.19814278987431
 21
138.83259629881331
 31
0.0
  0
LINE
  5
AB9
  8
0
 10
160.14814278988229
 20
138.83259629881331
 30
0.0
 11
160.84814278987409
 21
138.1325962988214
 31
0.0
  0
LINE
  5
ABA
  8
0
 10
159.14814278987109
 20
138.7825962988212
 30
0.0
 11
159.79814278987101
 21
138.1325962988214
 31
0.0
  0
LINE
  5
ABB
  8
0
 10
160.04814278987101
 20
138.0325962988164
 30
0.0
 11
160.04814278987101
 21
138.83259629881641
 31
0.0
  0
LINE
  5
ABC
  8
0
 10
160.84814278987409
 20
138.1325962988214
 30
0.0
 11
160.84814278987409
 21
138.0325962988164
 31
0.0
  0
ARC
  5
ABD
  8
0
 10
160.94814278987431
 20
138.0325962988164
 30
0.0
 40
0.1
 50
179.99999999999591
 51
270.0
  0
LINE
  5
ABE
  8
0
 10
159.79814278987101
 20
138.1325962988214
 30
0.0
 11
159.79814278987101
 21
138.0325962988164
 31
0.0
  0
LINE
  5
ABF
  8
0
 10
159.89814278987089
 20
137.93259629881641
 30
0.0
 11
159.9481427898711
 21
137.93259629881641
 31
0.0
  0
ARC
  5
AC0
  8
0
 10
159.9481427898711
 20
138.0325962988164
 30
0.0
 40
0.1
 50
270.0
 51
0.0
  0
ARC
  5
AC1
  8
0
 10
159.89814278987089
 20
138.0325962988164
 30
0.0
 40
0.1
 50
179.99999999999591
 51
270.0
  0
ARC
  5
AC2
  8
0
 10
159.64814278987109
 20
139.1325962988204
 30
0.0
 40
0.5
 50
89.999999999999645
 51
180.00000000000171
1001
GENIUS_GENODEF_13
1002
{
1000
HIER
1070
     0
1002
}
1002
{
1000
MANEDIT
1070
     0
1002
}
1002
{
1000
NOSEL
1070
     0
1002
}
1002
{
1000
BEHIND
1070
     0
1002
}
1002
{
1000
REACTOR
1002
}
1001
GENIUS_GENOBJ-N-FIL_13
1002
{
1000
OWNER
1000
GEN
1002
}
  0
LINE
  5
AC3
  8
0
 10
160.04814278987101
 20
138.83259629881331
 30
0.0
 11
160.14814278987089
 21
138.83259629881331
 31
0.0
  0
LINE
  5
AC4
  8
0
 10
161.09814278987409
 20
138.0325962988164
 30
0.0
 11
161.09814278987409
 21
138.83259629881641
 31
0.0
  0
LINE
  5
AC5
  8
0
 10
161.09814278987409
 20
138.53259629881319
 30
0.0
 11
161.09814278987409
 21
138.83259629881331
 31
0.0
  0
ARC
  5
AC6
  8
0
 10
160.99814278987421
 20
138.0325962988164
 30
0.0
 40
0.1
 50
270.0
 51
0.0
  0
LINE
  5
AC7
  8
0
 10
160.94814278987431
 20
137.93259629881641
 30
0.0
 11
160.99814278987421
 21
137.93259629881641
 31
0.0
  0
LINE
  5
AC8
  8
0
 10
161.14814279004241
 20
143.814219680387
 30
0.0
 11
165.7165194084404
 21
148.3825962987849
 31
0.0
  0
LINE
  5
AC9
  8
0
 10
170.54814279020101
 20
138.8325962988163
 30
0.0
 11
164.24814278988379
 21
138.8325962988163
 31
0.0
  0
LINE
  5
ACA
  8
0
 10
164.24814278988379
 20
138.03259629881941
 30
0.0
 11
164.24814278988379
 21
138.8325962988163
 31
0.0
  0
LINE
  5
ACB
  8
0
 10
162.24814278988879
 20
138.83259629881331
 30
0.0
 11
162.94814278988039
 21
138.1325962988214
 31
0.0
  0
LINE
  5
ACC
  8
0
 10
162.14814278987731
 20
138.0325962988164
 30
0.0
 11
162.14814278987731
 21
138.83259629881641
 31
0.0
  0
LINE
  5
ACD
  8
0
 10
161.19814278988559
 20
138.83259629881331
 30
0.0
 11
161.89814278987731
 21
138.1325962988214
 31
0.0
  0
LINE
  5
ACE
  8
0
 10
163.19814278988039
 20
138.0325962988164
 30
0.0
 11
163.19814278988039
 21
138.83259629881641
 31
0.0
  0
LINE
  5
ACF
  8
0
 10
163.19814278988039
 20
138.53259629881319
 30
0.0
 11
163.19814278988039
 21
138.83259629881331
 31
0.0
  0
LINE
  5
AD0
  8
0
 10
163.2981427898919
 20
138.83259629881331
 30
0.0
 11
163.99814278988379
 21
138.1325962988214
 31
0.0
  0
LINE
  5
AD1
  8
0
 10
161.89814278987731
 20
138.1325962988214
 30
0.0
 11
161.89814278987731
 21
138.0325962988164
 31
0.0
  0
LINE
  5
AD2
  8
0
 10
161.99814278987739
 20
137.93259629881641
 30
0.0
 11
162.0481427898774
 21
137.93259629881641
 31
0.0
  0
ARC
  5
AD3
  8
0
 10
161.99814278987739
 20
138.0325962988164
 30
0.0
 40
0.1
 50
179.99999999999591
 51
270.0
  0
ARC
  5
AD4
  8
0
 10
162.0481427898774
 20
138.0325962988164
 30
0.0
 40
0.1
 50
270.0
 51
0.0
  0
LINE
  5
AD5
  8
0
 10
162.94814278988039
 20
138.1325962988214
 30
0.0
 11
162.94814278988039
 21
138.0325962988164
 31
0.0
  0
LINE
  5
AD6
  8
0
 10
163.0481427898805
 20
137.93259629881641
 30
0.0
 11
163.09814278988051
 21
137.93259629881641
 31
0.0
  0
ARC
  5
AD7
  8
0
 10
163.0481427898805
 20
138.0325962988164
 30
0.0
 40
0.1
 50
179.99999999999591
 51
270.0
  0
ARC
  5
AD8
  8
0
 10
163.09814278988051
 20
138.0325962988164
 30
0.0
 40
0.1
 50
270.0
 51
0.0
  0
LINE
  5
AD9
  8
0
 10
161.14814279004241
 20
143.814219680387
 30
0.0
 11
161.14814279004241
 21
142.6325962987849
 31
0.0
  0
LINE
  5
ADA
  8
0
 10
162.14814278987731
 20
138.83259629881331
 30
0.0
 11
162.24814278987739
 21
138.83259629881331
 31
0.0
  0
LINE
  5
ADB
  8
0
 10
163.19814278988039
 20
138.83259629881331
 30
0.0
 11
163.2981427898805
 21
138.83259629881331
 31
0.0
  0
LINE
  5
ADC
  8
0
 10
165.0481427900425
 20
139.6325962988204
 30
0.0
 11
165.0481427900425
 21
142.63259629878519
 31
0.0
  0
ARC
  5
ADD
  8
0
  6
CONTINUOUS
 10
134.27522678638789
 20
175.38657809380041
 30
0.0
 40
0.5
 50
270.0
 51
0.0000000000000799
  0
LINE
  5
ADE
  8
0
  6
CONTINUOUS
 10
134.27522678638789
 20
174.88657809380041
 30
0.0
 11
132.775226786388
 21
174.88657809380041
 31
0.0
  0
ARC
  5
ADF
  8
0
  6
CONTINUOUS
 10
132.27522678638789
 20
174.38657809380041
 30
0.0
 40
0.5
 50
270.00000000000011
 51
0.0000000000000799
  0
ARC
  5
AE2
  8
0
  6
CONTINUOUS
 10
127.1752267863879
 20
176.5865780939717
 30
0.0
 40
0.7
 50
270.00000000000028
 51
0.0
  0
ARC
  5
AE3
  8
0
  6
CONTINUOUS
 10
122.3752267863881
 20
176.5865780939717
 30
0.0
 40
0.7
 50
180.00000000000011
 51
270.0
  0
LINE
  5
AE4
  8
0
  6
CONTINUOUS
 10
127.1752267863879
 20
175.88657809397171
 30
0.0
 11
122.3752267863881
 21
175.88657809397171
 31
0.0
  0
ARC
  5
AE5
  8
0
  6
CONTINUOUS
 10
115.2752267863879
 20
175.38657809380041
 30
0.0
 40
0.5
 50
180.00000000000011
 51
270.0
  0
LINE
  5
AE6
  8
0
  6
CONTINUOUS
 10
116.7752267863879
 20
174.88657809380041
 30
0.0
 11
115.2752267863879
 21
174.88657809380041
 31
0.0
  0
ARC
  5
AE7
  8
0
  6
CONTINUOUS
 10
117.2752267863879
 20
174.3865780938003
 30
0.0
 40
0.5
 50
180.0
 51
270.00000000000011
  0
LINE
  5
AEB
  8
0
  6
CONTINUOUS
 10
132.27522678638789
 20
190.38657809414281
 30
0.0
 11
117.2752267863879
 21
190.38657809414281
 31
0.0
  0
LINE
  5
AF1
  8
0
 10
175.14814279004241
 20
143.814219680387
 30
0.0
 11
170.57976617164451
 21
148.38259629878519
 31
0.0
  0
LINE
  5
AF3
  8
0
 10
171.24814279004261
 20
139.6325962988204
 30
0.0
 11
171.24814279004261
 21
142.63259629878519
 31
0.0
  0
LINE
  5
AF4
  8
0
 10
175.14814279004241
 20
143.814219680387
 30
0.0
 11
175.14814279004241
 21
142.6325962987849
 31
0.0
  0
ARC
  5
AF9
  8
0
  6
CONTINUOUS
 10
132.27522678638789
 20
189.88657809414281
 30
0.0
 40
0.5
 50
0.0000000000000799
 51
90.0
  0
LINE
  5
B0F
  8
0
  6
CONTINUOUS
 10
127.1752267863879
 20
189.88657809397171
 30
0.0
 11
122.3752267863881
 21
189.88657809397171
 31
0.0
  0
ARC
  5
B11
  8
0
  6
CONTINUOUS
 10
127.1752267863879
 20
189.18657809397169
 30
0.0
 40
0.7
 50
0.0
 51
90.0
  0
ARC
  5
B14
  8
0
  6
CONTINUOUS
 10
122.3752267863881
 20
189.18657809397169
 30
0.0
 40
0.7
 50
90.000000000000298
 51
180.0000000000002
  0
ARC
  5
B17
  8
0
  6
CONTINUOUS
 10
117.2752267863879
 20
189.88657809414281
 30
0.0
 40
0.5
 50
90.0
 51
179.99999999999989
  0
LINE
  5
BDC
  8
0
  6
CONTINUOUS
 10
234.4420833916829
 20
193.52874178082419
 30
0.0
 11
216.4420833916829
 21
193.52874178082411
 31
0.0
  0
LINE
  5
BE0
  8
0
 10
221.4420833916829
 20
138.83259629885151
 30
0.0
 11
217.4420833916829
 21
138.83259629885151
 31
0.0
  0
LINE
  5
BE1
  8
0
  6
CONTINUOUS
 10
221.4420833916829
 20
137.63259629882
 30
0.0
 11
217.44208339168279
 21
137.63259629882
 31
0.0
  0
LINE
  5
BE4
  8
0
 10
217.4420833916829
 20
138.83259629881681
 30
0.0
 11
233.4420833916831
 21
138.83259629881681
 31
0.0
  0
LINE
  5
BE5
  8
0
  6
CONTINUOUS
 10
215.4420833916829
 20
178.22874178082409
 30
0.0
 11
215.4420833916829
 21
192.52874178082411
 31
0.0
  0
LINE
  5
BE6
  8
0
 10
217.44208339168279
 20
193.52874178082411
 30
0.0
 11
217.4420833916829
 21
177.22874178082409
 31
0.0
  0
ARC
  5
BE7
  8
0
  6
CONTINUOUS
 10
216.4420833916829
 20
178.22874178082409
 30
0.0
 40
1.0
 50
180.0
 51
270.0
  0
LINE
  5
BE8
  8
0
 10
215.4420833916829
 20
138.63259629881611
 30
0.0
 11
215.4420833916829
 21
127.63259629882
 31
0.0
  0
LINE
  5
BEC
  8
0
 10
217.4420833916829
 20
139.63259629881611
 30
0.0
 11
217.4420833916829
 21
138.3325962988186
 31
0.0
  0
ARC
  5
BED
  8
0
 10
216.4420833916829
 20
138.63259629881611
 30
0.0
 40
1.0
 50
90.0
 51
179.99999999999989
1001
GENIUS_GENODEF_13
1002
{
1000
HIER
1070
     0
1002
}
1002
{
1000
MANEDIT
1070
     0
1002
}
1002
{
1000
NOSEL
1070
     0
1002
}
1002
{
1000
BEHIND
1070
     0
1002
}
1002
{
1000
REACTOR
1002
}
1001
GENIUS_GENOBJ-N-FIL_13
1002
{
1000
OWNER
1000
GEN
1002
}
  0
LINE
  5
BEE
  8
0
 10
217.44208339168279
 20
139.13259629882029
 30
0.0
 11
217.44208339168279
 21
137.63259629882
 31
0.0
  0
LINE
  5
BF2
  8
0
 10
216.4420833916829
 20
139.63259629881611
 30
0.0
 11
217.4420833916829
 21
139.63259629881611
 31
0.0
  0
LINE
  5
BF4
  8
0
  6
CONTINUOUS
 10
221.4420833916829
 20
177.22874178082421
 30
0.0
 11
216.4420833916829
 21
177.22874178082409
 31
0.0
  0
ARC
  5
BF8
  8
0
  6
CONTINUOUS
 10
216.4420833916829
 20
192.52874178082411
 30
0.0
 40
1.0
 50
90.000000000000171
 51
180.0
  0
LINE
  5
BF9
  8
0
  6
CONTINUOUS
 10
235.4420833916829
 20
178.22874178082409
 30
0.0
 11
235.4420833916829
 21
192.52874178082419
 31
0.0
  0
LINE
  5
BFA
  8
0
 10
233.4420833916829
 20
193.52874178082419
 30
0.0
 11
233.4420833916829
 21
177.22874178082409
 31
0.0
  0
ARC
  5
BFB
  8
0
  6
CONTINUOUS
 10
234.4420833916829
 20
178.22874178082409
 30
0.0
 40
1.0
 50
270.0
 51
0.0
  0
LINE
  5
BFE
  8
0
 10
264.1710320418976
 20
137.1325962988202
 30
0.0
 11
261.56572158368471
 21
137.1325962988204
 31
0.0
  0
LINE
  5
BFF
  8
0
 10
261.29829516339811
 20
139.63259629881551
 30
0.0
 11
266.44045885028652
 21
139.63259629881611
 31
0.0
  0
LINE
  5
C07
  8
0
 10
235.4420833916829
 20
138.63259629881611
 30
0.0
 11
235.4420833916829
 21
127.63259629882
 31
0.0
  0
LINE
  5
C10
  8
0
 10
221.4420833916829
 20
138.83259629881681
 30
0.0
 11
221.4420833916829
 21
138.332596298818
 31
0.0
  0
LINE
  5
C11
  8
0
 10
221.4420833916829
 20
138.83259629885151
 30
0.0
 11
221.4420833916829
 21
124.63259629881991
 31
0.0
  0
LINE
  5
C14
  8
0
 10
233.4420833916829
 20
139.63259629881611
 30
0.0
 11
233.4420833916829
 21
138.3325962988159
 31
0.0
  0
ARC
  5
C15
  8
0
 10
234.4420833916829
 20
138.63259629881611
 30
0.0
 40
1.0
 50
0.0000000000000763
 51
90.0
1001
GENIUS_GENODEF_13
1002
{
1000
HIER
1070
     0
1002
}
1002
{
1000
MANEDIT
1070
     0
1002
}
1002
{
1000
NOSEL
1070
     0
1002
}
1002
{
1000
BEHIND
1070
     0
1002
}
1002
{
1000
REACTOR
1002
}
1001
GENIUS_GENOBJ-N-FIL_13
1002
{
1000
OWNER
1000
GEN
1002
}
  0
LINE
  5
C16
  8
0
 10
233.4420833916831
 20
139.13259629882009
 30
0.0
 11
233.4420833916831
 21
137.63259629882
 31
0.0
  0
LINE
  5
C17
  8
0
 10
229.4420833916829
 20
138.83259629881681
 30
0.0
 11
229.4420833916829
 21
138.332596298818
 31
0.0
  0
LINE
  5
C18
  8
0
 10
229.4420833916829
 20
138.83259629885191
 30
0.0
 11
229.4420833916829
 21
124.63259629881991
 31
0.0
  0
LINE
  5
C19
  8
0
 10
233.4420833916831
 20
138.83259629885191
 30
0.0
 11
229.4420833916829
 21
138.83259629885191
 31
0.0
  0
LINE
  5
C1A
  8
0
  6
CONTINUOUS
 10
233.4420833916831
 20
137.63259629882
 30
0.0
 11
229.4420833916829
 21
137.63259629882
 31
0.0
  0
LINE
  5
C1F
  8
0
 10
233.4420833916829
 20
139.63259629881611
 30
0.0
 11
234.4420833916829
 21
139.63259629881611
 31
0.0
  0
LINE
  5
C2D
  8
0
 10
253.2175582698197
 20
138.20587837324359
 30
0.0
 11
261.29829516339811
 21
139.63259629881551
 31
0.0
  0
LINE
  5
C2E
  8
0
 10
261.56572158368471
 20
137.1325962988204
 30
0.0
 11
252.184371563197
 21
135.63577347702159
 31
0.0
  0
ARC
  5
C44
  8
0
 10
252.10559150492551
 20
136.12952817565119
 30
0.0
 40
0.5000000000000118
 50
182.3590924001218
 51
279.06530492830331
  0
ARC
  5
C45
  8
0
 10
253.60151231679279
 20
136.24307953235009
 30
0.0
 40
1.999999999999976
 50
101.06818356208051
 51
183.84549967268359
  0
LINE
  5
C5F
  8
0
  6
CONTINUOUS
 10
234.4420833916829
 20
177.22874178082409
 30
0.0
 11
229.4420833916829
 21
177.22874178082409
 31
0.0
  0
LINE
  5
C63
  8
0
 10
264.4415359177392
 20
125.43548657994251
 30
0.0
 11
265.15583979490992
 21
135.95894812115341
 31
0.0
  0
LINE
  5
C64
  8
0
 10
267.73361181382393
 20
138.19934686018729
 30
0.0
 11
266.40848138480919
 21
125.339282615353
 31
0.0
  0
ARC
  5
C65
  8
0
 10
265.61269494570939
 20
125.42128226989369
 30
0.0
 40
0.8000000000000216
 50
276.1168749997139
 51
354.11687499971458
  0
LINE
  5
C66
  8
0
 10
265.69794048444243
 20
124.6258369869696
 30
0.0
 11
265.32494487064798
 21
124.585864140659
 31
0.0
  0
LINE
  5
C67
  8
0
 10
265.69794048444243
 20
124.6258369869696
 30
0.0
 11
265.32494487064798
 21
124.585864140659
 31
0.0
  0
ARC
  5
C68
  8
0
 10
265.23969933191501
 20
125.38130942358301
 30
0.0
 40
0.7999999999999475
 50
176.11687499971441
 51
276.11687499971453
  0
ARC
  5
C69
  8
0
 10
266.44045885028669
 20
138.3325962988161
 30
0.0
 40
1.3000000000000109
 50
354.11687499971441
 51
90.000000000006224
  0
ARC
  5
C6C
  8
0
 10
264.1710320418976
 20
136.1325962988202
 30
0.0
 40
0.999999999999988
 50
350.00000000000301
 51
90.0
  0
ARC
  5
C6F
  8
0
  6
CONTINUOUS
 10
228.4420833916829
 20
190.9287417808242
 30
0.0
 40
1.0
 50
0.0
 51
90.000000000000213
  0
LINE
  5
C72
  8
0
  6
CONTINUOUS
 10
228.4420833916829
 20
191.9287417808242
 30
0.0
 11
222.4420833916829
 21
191.92874178082411
 31
0.0
  0
LINE
  5
C74
  8
0
 10
221.4420833916829
 20
190.9287417808242
 30
0.0
 11
221.44208339168279
 21
177.22874178082421
 31
0.0
  0
ARC
  5
C75
  8
0
  6
CONTINUOUS
 10
222.4420833916829
 20
190.9287417808242
 30
0.0
 40
1.0
 50
90.000000000000398
 51
180.0
  0
LINE
  5
C77
  8
0
 10
229.4420833916829
 20
190.9287417808242
 30
0.0
 11
229.4420833916829
 21
177.22874178082409
 31
0.0
  0
ARC
  5
C78
  8
0
  6
CONTINUOUS
 10
234.4420833916829
 20
192.52874178082419
 30
0.0
 40
1.0
 50
0.0
 51
90.000000000000171
  0
LINE
  5
C79
  8
0
  6
CONTINUOUS
 10
134.27522678638789
 20
186.88657809397159
 30
0.0
 11
132.77522678638789
 21
186.88657809397159
 31
0.0
  0
ARC
  5
C7A
  8
0
  6
CONTINUOUS
 10
134.27522678638789
 20
186.38657809397159
 30
0.0
 40
0.5
 50
0.0000000000001018
 51
90.0
  0
ARC
  5
C7B
  8
0
  6
CONTINUOUS
 10
115.2752267863879
 20
186.38657809397159
 30
0.0
 40
0.5
 50
89.999999999999915
 51
180.00000000000011
  0
LINE
  5
C7C
  8
0
  6
CONTINUOUS
 10
116.7752267863879
 20
186.88657809397159
 30
0.0
 11
115.2752267863879
 21
186.88657809397159
 31
0.0
  0
LINE
  5
C7E
  8
1
 10
116.67522678638809
 20
182.88657809397171
 30
0.0
 11
132.87522678638771
 21
182.88657809397171
 31
0.0
  0
LINE
  5
C7F
  8
1
 10
124.775226786388
 20
153.38259629882029
 30
0.0
 11
124.775226786388
 21
119.63259629881991
 31
0.0
  0
LINE
  5
C80
  8
0
 10
115.97522678638801
 20
135.63259629882
 30
0.0
 11
133.57522678638799
 21
135.63259629882
 31
0.0
  0
ARC
  5
C81
  8
0
 10
175.1481427902136
 20
136.13259629881989
 30
0.0
 40
0.5
 50
269.99999999999972
 51
359.99999999999761
1001
GENIUS_GENODEF_13
1002
{
1000
HIER
1070
     0
1002
}
1002
{
1000
MANEDIT
1070
     0
1002
}
1002
{
1000
NOSEL
1070
     0
1002
}
1002
{
1000
BEHIND
1070
     0
1002
}
1002
{
1000
REACTOR
1002
}
1001
GENIUS_GENOBJ-N-FIL_13
1002
{
1000
OWNER
1000
GEN
1002
}
  0
LINE
  5
C82
  8
0
 10
175.64814279021351
 20
136.13259629881989
 30
0.0
 11
175.64814279021351
 21
139.1325962988204
 31
0.0
  0
ARC
  5
C83
  8
0
 10
175.1481427902136
 20
139.1325962988204
 30
0.0
 40
0.5
 50
359.99999999999829
 51
90.000000000000355
1001
GENIUS_GENODEF_13
1002
{
1000
HIER
1070
     0
1002
}
1002
{
1000
MANEDIT
1070
     0
1002
}
1002
{
1000
NOSEL
1070
     0
1002
}
1002
{
1000
BEHIND
1070
     0
1002
}
1002
{
1000
REACTOR
1002
}
1001
GENIUS_GENOBJ-N-FIL_13
1002
{
1000
OWNER
1000
GEN
1002
}
  0
LINE
  5
C84
  8
0
 10
163.99814278988379
 20
138.13259629882441
 30
0.0
 11
163.99814278988379
 21
138.03259629881941
 31
0.0
  0
LINE
  5
C85
  8
0
 10
164.09814278988389
 20
137.93259629881931
 30
0.0
 11
164.14814278988379
 21
137.93259629881931
 31
0.0
  0
ARC
  5
C86
  8
0
 10
164.09814278988389
 20
138.03259629881941
 30
0.0
 40
0.1
 50
179.99999999999591
 51
270.0
  0
ARC
  5
C87
  8
0
 10
164.14814278988379
 20
138.03259629881941
 30
0.0
 40
0.1
 50
270.0
 51
0.0
  0
LINE
  5
C88
  8
0
 10
175.6481427902136
 20
138.7825962988212
 30
0.0
 11
174.99814279021379
 21
138.1325962988214
 31
0.0
  0
LINE
  5
C89
  8
0
 10
170.54814279020101
 20
138.03259629881941
 30
0.0
 11
170.54814279020101
 21
138.8325962988163
 31
0.0
  0
ARC
  5
C8A
  8
0
 10
170.64814279020089
 20
138.03259629881941
 30
0.0
 40
0.1
 50
180.0
 51
270.0
  0
ARC
  5
C8B
  8
0
 10
170.6981427902009
 20
138.03259629881941
 30
0.0
 40
0.1
 50
270.0
 51
0.0000000000040711
  0
LINE
  5
C8C
  8
0
 10
170.6981427902009
 20
137.93259629881931
 30
0.0
 11
170.64814279020089
 21
137.93259629881931
 31
0.0
  0
LINE
  5
C8D
  8
0
 10
170.79814279020101
 20
138.13259629882441
 30
0.0
 11
170.79814279020101
 21
138.03259629881941
 31
0.0
  0
LINE
  5
C8E
  8
0
 10
172.54814279019601
 20
138.83259629881331
 30
0.0
 11
171.84814279020441
 21
138.1325962988214
 31
0.0
  0
LINE
  5
C8F
  8
0
 10
172.64814279020749
 20
138.0325962988164
 30
0.0
 11
172.64814279020749
 21
138.83259629881641
 31
0.0
  0
LINE
  5
C90
  8
0
 10
171.59814279020441
 20
138.0325962988164
 30
0.0
 11
171.59814279020441
 21
138.83259629881641
 31
0.0
  0
LINE
  5
C91
  8
0
 10
171.59814279020441
 20
138.53259629881319
 30
0.0
 11
171.59814279020441
 21
138.83259629881331
 31
0.0
  0
LINE
  5
C92
  8
0
 10
171.4981427901929
 20
138.83259629881331
 30
0.0
 11
170.79814279020101
 21
138.1325962988214
 31
0.0
  0
LINE
  5
C93
  8
0
 10
172.89814279020749
 20
138.1325962988214
 30
0.0
 11
172.89814279020749
 21
138.0325962988164
 31
0.0
  0
LINE
  5
C94
  8
0
 10
172.79814279020741
 20
137.93259629881641
 30
0.0
 11
172.7481427902074
 21
137.93259629881641
 31
0.0
  0
ARC
  5
C95
  8
0
 10
172.79814279020741
 20
138.0325962988164
 30
0.0
 40
0.1
 50
270.0
 51
0.0000000000040711
  0
ARC
  5
C96
  8
0
 10
172.7481427902074
 20
138.0325962988164
 30
0.0
 40
0.1
 50
180.0
 51
270.0
  0
LINE
  5
C97
  8
0
 10
171.84814279020441
 20
138.1325962988214
 30
0.0
 11
171.84814279020441
 21
138.0325962988164
 31
0.0
  0
LINE
  5
C98
  8
0
 10
171.74814279020421
 20
137.93259629881641
 30
0.0
 11
171.69814279020429
 21
137.93259629881641
 31
0.0
  0
ARC
  5
C99
  8
0
 10
171.74814279020421
 20
138.0325962988164
 30
0.0
 40
0.1
 50
270.0
 51
0.0000000000040711
  0
ARC
  5
C9A
  8
0
 10
171.69814279020429
 20
138.0325962988164
 30
0.0
 40
0.1
 50
180.0
 51
270.0
  0
LINE
  5
C9B
  8
0
 10
172.64814279020749
 20
138.83259629881331
 30
0.0
 11
172.54814279020741
 21
138.83259629881331
 31
0.0
  0
LINE
  5
C9C
  8
0
 10
171.59814279020441
 20
138.83259629881331
 30
0.0
 11
171.49814279020421
 21
138.83259629881331
 31
0.0
  0
LINE
  5
C9D
  8
0
 10
173.6981427902106
 20
138.83259629881331
 30
0.0
 11
173.59814279021049
 21
138.83259629881331
 31
0.0
  0
LINE
  5
C9E
  8
0
 10
174.64814279020251
 20
138.83259629881331
 30
0.0
 11
173.94814279021071
 21
138.1325962988214
 31
0.0
  0
LINE
  5
C9F
  8
0
 10
174.74814279021379
 20
138.0325962988164
 30
0.0
 11
174.74814279021379
 21
138.83259629881641
 31
0.0
  0
LINE
  5
CA0
  8
0
 10
173.94814279021071
 20
138.1325962988214
 30
0.0
 11
173.94814279021071
 21
138.0325962988164
 31
0.0
  0
ARC
  5
CA1
  8
0
 10
173.84814279021049
 20
138.0325962988164
 30
0.0
 40
0.1
 50
270.0
 51
0.0000000000040711
  0
LINE
  5
CA2
  8
0
 10
174.99814279021379
 20
138.1325962988214
 30
0.0
 11
174.99814279021379
 21
138.0325962988164
 31
0.0
  0
LINE
  5
CA3
  8
0
 10
174.89814279021391
 20
137.93259629881641
 30
0.0
 11
174.8481427902137
 21
137.93259629881641
 31
0.0
  0
ARC
  5
CA4
  8
0
 10
174.8481427902137
 20
138.0325962988164
 30
0.0
 40
0.1
 50
180.0
 51
270.0
  0
ARC
  5
CA5
  8
0
 10
174.89814279021391
 20
138.0325962988164
 30
0.0
 40
0.1
 50
270.0
 51
0.0000000000040711
  0
LINE
  5
CA6
  8
0
 10
174.74814279021379
 20
138.83259629881331
 30
0.0
 11
174.64814279021391
 21
138.83259629881331
 31
0.0
  0
LINE
  5
CA7
  8
0
 10
173.6981427902106
 20
138.0325962988164
 30
0.0
 11
173.6981427902106
 21
138.83259629881641
 31
0.0
  0
LINE
  5
CA8
  8
0
 10
173.6981427902106
 20
138.53259629881319
 30
0.0
 11
173.6981427902106
 21
138.83259629881331
 31
0.0
  0
ARC
  5
CA9
  8
0
 10
173.79814279021059
 20
138.0325962988164
 30
0.0
 40
0.1
 50
180.0
 51
270.0
  0
LINE
  5
CAA
  8
0
 10
173.84814279021049
 20
137.93259629881641
 30
0.0
 11
173.79814279021059
 21
137.93259629881641
 31
0.0
  0
LINE
  5
CAB
  8
0
 10
173.5981427901992
 20
138.83259629881331
 30
0.0
 11
172.89814279020749
 21
138.1325962988214
 31
0.0
  0
LINE
  5
CAC
  8
1
 10
168.14814279004241
 20
153.3825962987851
 30
0.0
 11
168.14814279004241
 21
134.6325962988204
 31
0.0
  0
LINE
  5
CAE
  8
1
 10
225.44208339168301
 20
143.83259629881681
 30
0.0
 11
225.44208339168301
 21
119.63259629881991
 31
0.0
  0
LINE
  5
E29
  8
0
 10
233.4420833916829
 20
189.4865780941422
 30
0.0
 11
229.4420833916829
 21
189.4865780941422
 31
0.0
  0
LINE
  5
E2A
  8
0
 10
233.4420833916829
 20
188.33657809412759
 30
0.0
 11
229.4420833916829
 21
188.33657809412759
 31
0.0
  0
LINE
  5
E2B
  8
0
 10
233.4420833916829
 20
187.28657809412451
 30
0.0
 11
229.4420833916829
 21
187.28657809412451
 31
0.0
  0
LINE
  5
E2C
  8
0
 10
233.4420833916829
 20
186.23657809412131
 30
0.0
 11
229.4420833916829
 21
186.23657809412131
 31
0.0
  0
LINE
  5
E2D
  8
0
 10
233.4420833916829
 20
185.2865780941294
 30
0.0
 11
229.4420833916829
 21
185.2865780941294
 31
0.0
  0
LINE
  5
E2E
  8
0
 10
221.4420833916829
 20
189.4865780941422
 30
0.0
 11
217.44208339168279
 21
189.4865780941422
 31
0.0
  0
LINE
  5
E2F
  8
0
 10
221.4420833916829
 20
188.33657809412759
 30
0.0
 11
217.44208339168279
 21
188.3365780941275
 31
0.0
  0
LINE
  5
E30
  8
0
 10
221.4420833916829
 20
187.28657809412451
 30
0.0
 11
217.44208339168279
 21
187.28657809412439
 31
0.0
  0
LINE
  5
E31
  8
0
 10
221.4420833916829
 20
186.23657809412131
 30
0.0
 11
217.44208339168279
 21
186.23657809412131
 31
0.0
  0
LINE
  5
E32
  8
0
 10
221.4420833916829
 20
185.2865780941294
 30
0.0
 11
217.4420833916829
 21
185.2865780941294
 31
0.0
  0
LINE
  5
E33
  8
0
 10
233.4420833916829
 20
183.28657809413431
 30
0.0
 11
229.4420833916829
 21
183.28657809413431
 31
0.0
  0
LINE
  5
E34
  8
0
 10
233.4420833916829
 20
184.2365780941262
 30
0.0
 11
229.4420833916829
 21
184.2365780941262
 31
0.0
  0
LINE
  5
E35
  8
0
 10
221.4420833916829
 20
183.28657809413431
 30
0.0
 11
217.4420833916829
 21
183.28657809413431
 31
0.0
  0
LINE
  5
E36
  8
0
 10
221.4420833916829
 20
184.2365780941262
 30
0.0
 11
217.44208339168279
 21
184.2365780941262
 31
0.0
  0
LINE
  5
E37
  8
1
 10
225.4420833916829
 20
198.52874178082419
 30
0.0
 11
225.4420833916829
 21
172.22874178082421
 31
0.0
  0
LINE
  5
E39
  8
1
 10
124.7752267863879
 20
195.38657809414281
 30
0.0
 11
124.775226786388
 21
168.88657809380041
 31
0.0
  0
TEXT
  5
F46
  8
0
 62
     3
 10
0.0
 20
0.0
 30
0.0
 40
10.0
  1
L6-MBC2012
  7
STANDARD1
  0
ENDSEC
  0
EOF
