  0
SECTION
  2
HEADER
  9
$ACADVER
  1
AC1009
  9
$INSBASE
 10
0.0
 20
0.0
 30
0.0
  9
$EXTMIN
 10
0.0
 20
-2.960436562073669
 30
0.0
  9
$EXTMAX
 10
210.15294027368279
 20
182.22147746845059
 30
0.0
  9
$LIMMIN
 10
0.0
 20
0.0
  9
$LIMMAX
 10
375.0
 20
270.0
  9
$ORTHOMODE
 70
     1
  9
$REGENMODE
 70
     1
  9
$FILLMODE
 70
     1
  9
$QTEXTMODE
 70
     0
  9
$MIRRTEXT
 70
     0
  9
$DRAGMODE
 70
     2
  9
$LTSCALE
 40
10.0
  9
$OSMODE
 70
  3071
  9
$ATTMODE
 70
     1
  9
$TEXTSIZE
 40
0.2
  9
$TRACEWID
 40
0.05
  9
$TEXTSTYLE
  7
STANDARD
  9
$CLAYER
  8
0
  9
$CELTYPE
  6
BYLAYER
  9
$CECOLOR
 62
   256
  9
$DIMSCALE
 40
1.0
  9
$DIMASZ
 40
3.0
  9
$DIMEXO
 40
0.0625
  9
$DIMDLI
 40
0.38
  9
$DIMRND
 40
0.0
  9
$DIMDLE
 40
0.0
  9
$DIMEXE
 40
0.18
  9
$DIMTP
 40
0.0
  9
$DIMTM
 40
0.0
  9
$DIMTXT
 40
3.0
  9
$DIMCEN
 40
0.09
  9
$DIMTSZ
 40
0.0
  9
$DIMTOL
 70
     0
  9
$DIMLIM
 70
     0
  9
$DIMTIH
 70
     1
  9
$DIMTOH
 70
     1
  9
$DIMSE1
 70
     0
  9
$DIMSE2
 70
     0
  9
$DIMTAD
 70
     0
  9
$DIMZIN
 70
     0
  9
$DIMBLK
  1

  9
$DIMASO
 70
     1
  9
$DIMSHO
 70
     1
  9
$DIMPOST
  1

  9
$DIMAPOST
  1

  9
$DIMALT
 70
     0
  9
$DIMALTD
 70
     2
  9
$DIMALTF
 40
25.399999999999999
  9
$DIMLFAC
 40
1.0
  9
$DIMTOFL
 70
     0
  9
$DIMTVP
 40
0.0
  9
$DIMTIX
 70
     0
  9
$DIMSOXD
 70
     0
  9
$DIMSAH
 70
     0
  9
$DIMBLK1
  1

  9
$DIMBLK2
  1

  9
$DIMSTYLE
  2
STANDARD
  9
$DIMCLRD
 70
     0
  9
$DIMCLRE
 70
     0
  9
$DIMCLRT
 70
     0
  9
$DIMTFAC
 40
1.0
  9
$DIMGAP
 40
0.09
  9
$LUNITS
 70
     2
  9
$LUPREC
 70
     4
  9
$SKETCHINC
 40
0.1
  9
$FILLETRAD
 40
0.0
  9
$AUNITS
 70
     0
  9
$AUPREC
 70
     0
  9
$MENU
  1
E:\r13\win\SUPPORT\ACAD
  9
$ELEVATION
 40
0.0
  9
$PELEVATION
 40
0.0
  9
$THICKNESS
 40
0.0
  9
$LIMCHECK
 70
     0
  9
$BLIPMODE
 70
     0
  9
$CHAMFERA
 40
0.0
  9
$CHAMFERB
 40
0.0
  9
$SKPOLY
 70
     0
  9
$TDCREATE
 40
2450359.4747812501
  9
$TDUPDATE
 40
2456597.5620240169
  9
$TDINDWG
 40
0.0002108565
  9
$TDUSRTIMER
 40
0.0002108565
  9
$USRTIMER
 70
     1
  9
$ANGBASE
 50
0.0
  9
$ANGDIR
 70
     0
  9
$PDMODE
 70
     0
  9
$PDSIZE
 40
0.0
  9
$PLINEWID
 40
0.0
  9
$COORDS
 70
     1
  9
$SPLFRAME
 70
     0
  9
$SPLINETYPE
 70
     6
  9
$SPLINESEGS
 70
     8
  9
$ATTDIA
 70
     0
  9
$ATTREQ
 70
     1
  9
$HANDLING
 70
     1
  9
$HANDSEED
  5
5C5
  9
$SURFTAB1
 70
     6
  9
$SURFTAB2
 70
     6
  9
$SURFTYPE
 70
     6
  9
$SURFU
 70
     6
  9
$SURFV
 70
     6
  9
$UCSNAME
  2

  9
$UCSORG
 10
0.0
 20
0.0
 30
0.0
  9
$UCSXDIR
 10
1.0
 20
0.0
 30
0.0
  9
$UCSYDIR
 10
0.0
 20
1.0
 30
0.0
  9
$PUCSNAME
  2

  9
$PUCSORG
 10
0.0
 20
0.0
 30
0.0
  9
$PUCSXDIR
 10
1.0
 20
0.0
 30
0.0
  9
$PUCSYDIR
 10
0.0
 20
1.0
 30
0.0
  9
$USERI1
 70
     4
  9
$USERI2
 70
     1
  9
$USERI3
 70
     0
  9
$USERI4
 70
     0
  9
$USERI5
 70
     0
  9
$USERR1
 40
1.0
  9
$USERR2
 40
3.0
  9
$USERR3
 40
3.0
  9
$USERR4
 40
3.0
  9
$USERR5
 40
10.0
  9
$WORLDVIEW
 70
     1
  9
$SHADEDGE
 70
     3
  9
$SHADEDIF
 70
    70
  9
$TILEMODE
 70
     1
  9
$MAXACTVP
 70
    16
  9
$PLIMCHECK
 70
     0
  9
$PEXTMIN
 10
1.0000000000000000E+020
 20
1.0000000000000000E+020
 30
1.0000000000000000E+020
  9
$PEXTMAX
 10
-1.0000000000000000E+020
 20
-1.0000000000000000E+020
 30
-1.0000000000000000E+020
  9
$PLIMMIN
 10
0.0
 20
0.0
  9
$PLIMMAX
 10
12.0
 20
9.0
  9
$UNITMODE
 70
     0
  9
$VISRETAIN
 70
     0
  9
$PLINEGEN
 70
     0
  9
$PSLTSCALE
 70
     1
  0
ENDSEC
  0
SECTION
  2
TABLES
  0
TABLE
  2
VPORT
 70
     1
  0
VPORT
  2
*ACTIVE
 70
     0
 10
0.0
 20
0.0
 11
1.0
 21
1.0
 12
187.49427839065231
 22
162.8616388594717
 13
0.0
 23
0.0
 14
5.0
 24
5.0
 15
0.0
 25
0.0
 16
0.0
 26
0.0
 36
1.0
 17
0.0
 27
0.0
 37
0.0
 40
334.81001162774987
 41
1.9089595375722539
 42
50.0
 43
0.0
 44
0.0
 50
0.0
 51
0.0
 71
     0
 72
   100
 73
     1
 74
     0
 75
     0
 76
     0
 77
     0
 78
     0
  0
ENDTAB
  0
TABLE
  2
LTYPE
 70
     4
  0
LTYPE
  2
CONTINUOUS
 70
     0
  3
Solid Line
 72
    65
 73
     0
 40
0.0
  0
LTYPE
  2
CENTER
 70
     0
  3
____ _ ____ _ ____ _ ____ _ ____ _ ____ _ ____
 72
    65
 73
     4
 40
2.0
 49
1.25
 49
-0.25
 49
0.25
 49
-0.25
  0
LTYPE
  2
HIDDEN
 70
     0
  3
_ _ _ _ _ _ _ _ _ _ _ _ _ _ _ _ _ _ _ _ _ _ _
 72
    65
 73
     2
 40
0.375
 49
0.25
 49
-0.125
  0
LTYPE
  2
PHANTOM2
 70
     0
  3
___ _ _ ___ _ _ ___ _ _ ___ _ _
 72
    65
 73
     6
 40
1.25
 49
0.625
 49
-0.125
 49
0.125
 49
-0.125
 49
0.125
 49
-0.125
  0
ENDTAB
  0
TABLE
  2
LAYER
 70
     3
  0
LAYER
  2
0
 70
     0
 62
     7
  6
CONTINUOUS
  0
LAYER
  2
1
 70
     0
 62
     1
  6
CENTER
  0
LAYER
  2
2
 70
     0
 62
     2
  6
HIDDEN
  0
ENDTAB
  0
TABLE
  2
STYLE
 70
     2
  0
STYLE
  2
STANDARD
 70
     0
 40
0.0
 41
1.0
 50
0.0
 71
     0
 42
0.2
  3
simplex
  4
bigfont
  0
STYLE
  2
STANDARD1
 70
     0
 40
0.0
 41
1.0
 50
0.0
 71
     0
 42
3.0
  3
txt
  4

  0
ENDTAB
  0
TABLE
  2
VIEW
 70
     0
  0
ENDTAB
  0
TABLE
  2
UCS
 70
     0
  0
ENDTAB
  0
TABLE
  2
APPID
 70
     3
  0
APPID
  2
ACAD
 70
     0
  0
APPID
  2
ACAD_MLEADERVER
 70
     0
  0
APPID
  2
ACAD_NAV_VCDISPLAY
 70
     0
  0
ENDTAB
  0
TABLE
  2
DIMSTYLE
 70
     1
  0
DIMSTYLE
  2
STANDARD
 70
     0
  3

  4

  5

  6

  7

 40
1.0
 41
0.18
 42
0.0625
 43
0.38
 44
0.18
 45
0.0
 46
0.0
 47
0.0
 48
0.0
140
0.18
141
0.09
142
0.0
143
25.399999999999999
144
1.0
145
0.0
146
1.0
147
0.09
 71
     0
 72
     0
 73
     1
 74
     1
 75
     0
 76
     0
 77
     0
 78
     0
170
     0
171
     2
172
     0
173
     0
174
     0
175
     0
176
     0
177
     0
178
     0
  0
ENDTAB
  0
ENDSEC
  0
SECTION
  2
BLOCKS
  0
BLOCK
  8
0
  2
$MODEL_SPACE
 70
     0
 10
0.0
 20
0.0
 30
0.0
  3
$MODEL_SPACE
  1

  0
ENDBLK
  5
484
  8
0
  0
BLOCK
 67
     1
  8
0
  2
$PAPER_SPACE
 70
     0
 10
0.0
 20
0.0
 30
0.0
  3
$PAPER_SPACE
  1

  0
ENDBLK
  5
482
 67
     1
  8
0
  0
ENDSEC
  0
SECTION
  2
ENTITIES
  0
LINE
  5
2F5
  8
0
  6
CONTINUOUS
 62
     7
 10
205.50294027368281
 20
177.22147746845059
 30
0.0
 11
163.5029402736827
 21
177.22147746845059
 31
0.0
  0
CIRCLE
  5
2F6
  8
0
  6
CONTINUOUS
 62
     7
 10
199.65294027368279
 20
162.22147746845059
 30
0.0
 40
5.5
  0
LINE
  5
2F7
  8
0
  6
CONTINUOUS
 62
     7
 10
163.5029402736827
 20
147.2214774684505
 30
0.0
 11
205.50294027368281
 21
147.2214774684505
 31
0.0
  0
LINE
  5
2F8
  8
0
  6
CONTINUOUS
 62
     7
 10
162.50294027368261
 20
103.5125785023543
 30
0.0
 11
178.08032398435009
 21
103.5125785023543
 31
0.0
  0
LINE
  5
2F9
  8
0
  6
CONTINUOUS
 62
     7
 10
160.50294027368261
 20
98.512578502354302
 30
0.0
 11
184.5029402736827
 21
98.512578502354302
 31
0.0
  0
LINE
  5
2FB
  8
0
  6
CONTINUOUS
 62
     7
 10
191.5029402736825
 20
103.5125785023543
 30
0.0
 11
206.5029402736827
 21
103.5125785023543
 31
0.0
  0
LINE
  5
2FC
  8
0
  6
CONTINUOUS
 62
     7
 10
184.5029402736827
 20
98.512578502354302
 30
0.0
 11
208.5029402736827
 21
98.512578502354302
 31
0.0
  0
ARC
  5
2FD
  8
0
  6
CONTINUOUS
 62
     7
 10
206.5029402736827
 20
101.5125785023543
 30
0.0
 40
2.0
 50
359.99999999999989
 51
90.0
  0
LINE
  5
2FE
  8
0
  6
CONTINUOUS
 62
     7
 10
208.5029402736827
 20
98.512578502354302
 30
0.0
 11
208.5029402736827
 21
101.5125785023543
 31
0.0
  0
ARC
  5
302
  8
0
  6
CONTINUOUS
 62
     7
 10
184.5029402736827
 20
104.5125785023543
 30
0.0
 40
6.0
 50
0.0
 51
270.0
  0
ARC
  5
303
  8
0
  6
CONTINUOUS
 62
     7
 10
191.5029402736825
 20
104.5125785023543
 30
0.0
 40
1.0
 50
180.0
 51
270.0
  0
ARC
  5
304
  8
0
  6
CONTINUOUS
 62
     7
 10
184.5029402736827
 20
104.5125785023543
 30
0.0
 40
6.5
 50
188.84988309842899
 51
230.28486276817389
  0
ARC
  5
305
  8
0
  6
CONTINUOUS
 62
     7
 10
177.5029402736829
 20
104.5125785023543
 30
0.0
 40
1.0
 50
270.0
 51
0.0
  0
LINE
  5
306
  8
0
  6
CONTINUOUS
 62
     7
 10
180.3496283422237
 20
99.512578502354302
 30
0.0
 11
180.34962834222361
 21
98.512578502354302
 31
0.0
  0
CIRCLE
  5
309
  8
0
  6
CONTINUOUS
 62
     7
 10
169.3529402736828
 20
162.22147746845059
 30
0.0
 40
5.5
  0
LINE
  5
30A
  8
0
  6
CONTINUOUS
 62
     7
 10
160.5029402736827
 20
174.22147746845059
 30
0.0
 11
160.5029402736827
 21
150.2214774684505
 31
0.0
  0
ARC
  5
30B
  8
0
  6
CONTINUOUS
 62
     7
 10
163.5029402736827
 20
150.2214774684505
 30
0.0
 40
3.0
 50
179.99999999999989
 51
270.0
  0
ARC
  5
30D
  8
0
  6
CONTINUOUS
 62
     7
 10
163.5029402736827
 20
174.22147746845059
 30
0.0
 40
3.0
 50
89.999999999999943
 51
179.99999999999989
  0
LINE
  5
30E
  8
0
  6
CONTINUOUS
 62
     7
 10
178.0803239843502
 20
162.97147746845059
 30
0.0
 11
178.08032398435029
 21
147.2214774684505
 31
0.0
  0
LINE
  5
310
  8
0
  6
CONTINUOUS
 62
     7
 10
190.50294027368281
 20
177.22147746845059
 30
0.0
 11
190.50294027368281
 21
147.22147746845059
 31
0.0
  0
LINE
  5
311
  8
0
  6
CONTINUOUS
 62
     7
 10
178.50294027368281
 20
177.22147746845059
 30
0.0
 11
178.50294027368281
 21
147.2214774684505
 31
0.0
  0
LINE
  5
312
  8
0
  6
CONTINUOUS
 62
     7
 10
190.92555656301531
 20
161.47147746845059
 30
0.0
 11
178.50294027368281
 21
161.47147746845059
 31
0.0
  0
LINE
  5
313
  8
0
  6
CONTINUOUS
 62
     7
 10
190.50294027368281
 20
162.97147746845059
 30
0.0
 11
178.0803239843502
 21
162.97147746845059
 31
0.0
  0
LINE
  5
314
  8
0
  6
CONTINUOUS
 62
     7
 10
190.50294027368281
 20
162.9714774684505
 30
0.0
 11
187.0029402736827
 21
162.9714774684505
 31
0.0
  0
LINE
  5
315
  8
0
  6
CONTINUOUS
 62
     7
 10
190.92555656301531
 20
161.47147746845059
 30
0.0
 11
190.92555656301531
 21
177.22147746845059
 31
0.0
  0
ARC
  5
317
  8
0
  6
CONTINUOUS
 62
     7
 10
162.50294027368261
 20
101.5125785023543
 30
0.0
 40
2.0
 50
90.0
 51
180.00000000000011
  0
LINE
  5
318
  8
0
  6
CONTINUOUS
 62
     7
 10
160.50294027368261
 20
98.512578502354302
 30
0.0
 11
160.50294027368261
 21
101.5125785023543
 31
0.0
  0
LINE
  5
319
  8
0
  6
CONTINUOUS
 62
     7
 10
208.5029402736827
 20
174.22147746845059
 30
0.0
 11
208.50294027368281
 21
150.2214774684505
 31
0.0
  0
LINE
  5
31B
  8
0
  6
CONTINUOUS
 62
     7
 10
121.4807917621342
 20
147.2214774684505
 30
0.0
 11
121.4807917621342
 21
177.2214774684505
 31
0.0
  0
LINE
  5
31C
  8
0
  6
CONTINUOUS
 62
     7
 10
109.4807917621341
 20
177.2214774684505
 30
0.0
 11
109.4807917621342
 21
147.2214774684505
 31
0.0
  0
LINE
  5
31D
  8
0
  6
CONTINUOUS
 62
     7
 10
114.4807917621319
 20
175.2214774684507
 30
0.0
 11
114.4807917621339
 21
149.22147746845059
 31
0.0
  0
ARC
  5
31E
  8
0
  6
CONTINUOUS
 62
     7
 10
205.50294027368281
 20
150.2214774684505
 30
0.0
 40
3.0
 50
270.0
 51
0.0
  0
LINE
  5
31F
  8
0
  6
CONTINUOUS
 62
     7
 10
112.4807917621339
 20
147.2214774684505
 30
0.0
 11
121.4807917621342
 21
147.2214774684505
 31
0.0
  0
ARC
  5
320
  8
0
  6
CONTINUOUS
 62
     7
 10
112.4807917621339
 20
149.2214774684505
 30
0.0
 40
2.0
 50
269.9999999999992
 51
0.0000000000060049
  0
LINE
  5
321
  8
0
  6
CONTINUOUS
 62
     7
 10
112.4807917621339
 20
147.2214774684505
 30
0.0
 11
109.4807917621341
 21
147.2214774684505
 31
0.0
  0
ARC
  5
322
  8
0
  6
CONTINUOUS
 62
     7
 10
205.50294027368281
 20
174.22147746845059
 30
0.0
 40
3.0
 50
0.0
 51
90.0
  0
LINE
  5
323
  8
0
  6
CONTINUOUS
 62
     7
 10
114.4807917621328
 20
163.0059363657449
 30
0.0
 11
121.4807917621342
 21
163.0059363657449
 31
0.0
  0
LINE
  5
324
  8
0
  6
CONTINUOUS
 62
     7
 10
114.4807917621329
 20
161.5059363657449
 30
0.0
 11
121.4807917621342
 21
161.5059363657449
 31
0.0
  0
LINE
  5
325
  8
0
  6
CONTINUOUS
 62
     7
 10
112.4807917621319
 20
177.2214774684505
 30
0.0
 11
121.4807917621342
 21
177.2214774684505
 31
0.0
  0
ARC
  5
326
  8
0
  6
CONTINUOUS
 62
     7
 10
112.4807917621319
 20
175.2214774684505
 30
0.0
 40
2.0
 50
0.0000000000060049
 51
90.0
  0
LINE
  5
328
  8
0
  6
CONTINUOUS
 62
     7
 10
112.4807917621319
 20
177.2214774684505
 30
0.0
 11
109.4807917621341
 21
177.2214774684505
 31
0.0
  0
LINE
  5
329
  8
0
  6
CENTER
 62
     1
 10
184.5029402736827
 20
182.22147746845059
 30
0.0
 11
184.5029402736827
 21
142.2214774684505
 31
0.0
  0
LINE
  5
32A
  8
0
  6
CENTER
 62
     1
 10
173.5029402736827
 20
104.5125785023543
 30
0.0
 11
195.5029402736827
 21
104.5125785023543
 31
0.0
  0
LINE
  5
32B
  8
0
  6
CENTER
 62
     1
 10
184.5029402736827
 20
93.512578502354302
 30
0.0
 11
184.5029402736827
 21
115.5125785023543
 31
0.0
  0
LINE
  5
32C
  8
0
  6
CENTER
 62
     1
 10
179.8529402736828
 20
162.22147746845059
 30
0.0
 11
158.8529402736828
 21
162.22147746845059
 31
0.0
  0
LINE
  5
32E
  8
0
  6
CENTER
 62
     1
 10
210.15294027368279
 20
162.22147746845059
 30
0.0
 11
189.15294027368279
 21
162.22147746845059
 31
0.0
  0
CIRCLE
  5
3C2
  8
0
 10
199.65294027368279
 20
162.22147746845059
 30
0.0
 40
3.0
  0
CIRCLE
  5
3C3
  8
0
 10
169.3529402736828
 20
162.22147746845059
 30
0.0
 40
3.0
  0
CIRCLE
  5
3C6
  8
2
 10
199.65294027368279
 20
173.22147746845059
 30
0.0
 40
3.0
  0
CIRCLE
  5
3C7
  8
2
 10
199.65294027368279
 20
151.22147746845059
 30
0.0
 40
3.0
  0
LINE
  5
3CB
  8
1
 10
205.15294027368279
 20
151.22147746845059
 30
0.0
 11
194.15294027368279
 21
151.22147746845059
 31
0.0
  0
LINE
  5
3CD
  8
1
 10
205.15294027368279
 20
173.22147746845059
 30
0.0
 11
194.15294027368279
 21
173.22147746845059
 31
0.0
  0
LINE
  5
3CF
  8
1
 10
199.65294027368279
 20
181.22147746845059
 30
0.0
 11
199.65294027368279
 21
143.22147746845059
 31
0.0
  0
CIRCLE
  5
3D0
  8
2
 10
169.35294027368269
 20
173.22147746845059
 30
0.0
 40
3.0
  0
LINE
  5
3D1
  8
1
 10
163.85294027368269
 20
173.22147746845059
 30
0.0
 11
174.85294027368269
 21
173.22147746845059
 31
0.0
  0
LINE
  5
3D2
  8
1
 10
169.35294027368269
 20
181.22147746845059
 30
0.0
 11
169.35294027368269
 21
143.22147746845059
 31
0.0
  0
CIRCLE
  5
3D3
  8
2
 10
169.35294027368269
 20
151.22147746845059
 30
0.0
 40
3.0
  0
LINE
  5
3D4
  8
1
 10
163.85294027368269
 20
151.22147746845059
 30
0.0
 11
174.85294027368269
 21
151.22147746845059
 31
0.0
  0
LINE
  5
3D7
  8
0
 10
196.65294027368259
 20
95.512578502354302
 30
0.0
 11
196.65294027368259
 21
98.512578502354316
 31
0.0
  0
LINE
  5
3D8
  8
0
 10
202.6529402736827
 20
95.512578502354302
 30
0.0
 11
202.6529402736827
 21
98.512578502354316
 31
0.0
  0
LINE
  5
3D9
  8
0
  6
CONTINUOUS
 62
     7
 10
196.65294027368259
 20
95.512578502354273
 30
0.0
 11
202.6529402736827
 21
95.512578502354316
 31
0.0
  0
LINE
  5
3DA
  8
1
 10
199.65294027368259
 20
93.012578502354302
 30
0.0
 11
199.65294027368259
 21
101.0125785023543
 31
0.0
  0
LINE
  5
3DB
  8
0
  6
CONTINUOUS
 62
     7
 10
172.3529402736828
 20
95.512578502354273
 30
0.0
 11
166.35294027368269
 21
95.512578502354316
 31
0.0
  0
LINE
  5
3DC
  8
1
 10
169.3529402736828
 20
93.012578502354302
 30
0.0
 11
169.3529402736828
 21
101.0125785023543
 31
0.0
  0
LINE
  5
3DD
  8
0
 10
172.3529402736828
 20
95.512578502354302
 30
0.0
 11
172.3529402736828
 21
98.512578502354316
 31
0.0
  0
LINE
  5
3DE
  8
0
 10
166.35294027368269
 20
95.512578502354302
 30
0.0
 11
166.3529402736828
 21
98.512578502354316
 31
0.0
  0
LINE
  5
3F7
  8
1
 10
103.9807917621341
 20
173.22147746845059
 30
0.0
 11
111.9807917621341
 21
173.22147746845059
 31
0.0
  0
LINE
  5
3F8
  8
0
  6
CONTINUOUS
 62
     7
 10
106.4807917621341
 20
170.22147746845059
 30
0.0
 11
106.4807917621342
 21
176.22147746845059
 31
0.0
  0
LINE
  5
3F9
  8
0
 10
106.4807917621341
 20
170.22147746845059
 30
0.0
 11
109.4807917621341
 21
170.22147746845059
 31
0.0
  0
LINE
  5
3FA
  8
0
 10
106.4807917621341
 20
176.22147746845059
 30
0.0
 11
109.4807917621341
 21
176.22147746845059
 31
0.0
  0
LINE
  5
3FB
  8
0
 10
106.4807917621341
 20
148.22147746845059
 30
0.0
 11
109.4807917621341
 21
148.22147746845059
 31
0.0
  0
LINE
  5
3FC
  8
0
 10
106.4807917621341
 20
154.2214774684507
 30
0.0
 11
109.4807917621341
 21
154.2214774684507
 31
0.0
  0
LINE
  5
3FD
  8
0
  6
CONTINUOUS
 62
     7
 10
106.4807917621341
 20
154.2214774684507
 30
0.0
 11
106.4807917621342
 21
148.22147746845059
 31
0.0
  0
LINE
  5
3FE
  8
1
 10
103.9807917621341
 20
151.22147746845059
 30
0.0
 11
111.9807917621341
 21
151.22147746845059
 31
0.0
  0
LINE
  5
3FF
  8
1
 10
126.4807917621342
 20
162.2214774684505
 30
0.0
 11
104.4807917621342
 21
162.2214774684505
 31
0.0
  0
TEXT
  5
537
  8
0
 62
     3
 10
0.0
 20
0.0
 30
0.0
 40
10.0
  1
L6-HLD4830R
  7
STANDARD1
  0
ENDSEC
  0
EOF
