  0
SECTION
  2
HEADER
  9
$ACADVER
  1
AC1009
  9
$INSBASE
 10
0.0
 20
0.0
 30
0.0
  9
$EXTMIN
 10
0.0
 20
-2.960436562073669
 30
0.0
  9
$EXTMAX
 10
224.99338906734079
 20
190.91465917662001
 30
0.0
  9
$LIMMIN
 10
0.0
 20
0.0
  9
$LIMMAX
 10
375.0
 20
270.0
  9
$ORTHOMODE
 70
     1
  9
$REGENMODE
 70
     1
  9
$FILLMODE
 70
     1
  9
$QTEXTMODE
 70
     0
  9
$MIRRTEXT
 70
     0
  9
$DRAGMODE
 70
     2
  9
$LTSCALE
 40
10.0
  9
$OSMODE
 70
  3071
  9
$ATTMODE
 70
     1
  9
$TEXTSIZE
 40
0.2
  9
$TRACEWID
 40
0.05
  9
$TEXTSTYLE
  7
STANDARD
  9
$CLAYER
  8
0
  9
$CELTYPE
  6
BYLAYER
  9
$CECOLOR
 62
   256
  9
$DIMSCALE
 40
1.0
  9
$DIMASZ
 40
3.0
  9
$DIMEXO
 40
0.0625
  9
$DIMDLI
 40
0.38
  9
$DIMRND
 40
0.0
  9
$DIMDLE
 40
0.0
  9
$DIMEXE
 40
0.18
  9
$DIMTP
 40
0.0
  9
$DIMTM
 40
0.0
  9
$DIMTXT
 40
3.0
  9
$DIMCEN
 40
0.09
  9
$DIMTSZ
 40
0.0
  9
$DIMTOL
 70
     0
  9
$DIMLIM
 70
     0
  9
$DIMTIH
 70
     1
  9
$DIMTOH
 70
     1
  9
$DIMSE1
 70
     0
  9
$DIMSE2
 70
     0
  9
$DIMTAD
 70
     0
  9
$DIMZIN
 70
     0
  9
$DIMBLK
  1

  9
$DIMASO
 70
     1
  9
$DIMSHO
 70
     1
  9
$DIMPOST
  1

  9
$DIMAPOST
  1

  9
$DIMALT
 70
     0
  9
$DIMALTD
 70
     2
  9
$DIMALTF
 40
25.399999999999999
  9
$DIMLFAC
 40
1.0
  9
$DIMTOFL
 70
     0
  9
$DIMTVP
 40
0.0
  9
$DIMTIX
 70
     0
  9
$DIMSOXD
 70
     0
  9
$DIMSAH
 70
     0
  9
$DIMBLK1
  1

  9
$DIMBLK2
  1

  9
$DIMSTYLE
  2
STANDARD
  9
$DIMCLRD
 70
     0
  9
$DIMCLRE
 70
     0
  9
$DIMCLRT
 70
     0
  9
$DIMTFAC
 40
1.0
  9
$DIMGAP
 40
0.09
  9
$LUNITS
 70
     2
  9
$LUPREC
 70
     4
  9
$SKETCHINC
 40
0.1
  9
$FILLETRAD
 40
0.0
  9
$AUNITS
 70
     0
  9
$AUPREC
 70
     0
  9
$MENU
  1
E:\r13\win\SUPPORT\ACAD
  9
$ELEVATION
 40
0.0
  9
$PELEVATION
 40
0.0
  9
$THICKNESS
 40
0.0
  9
$LIMCHECK
 70
     0
  9
$BLIPMODE
 70
     0
  9
$CHAMFERA
 40
0.0
  9
$CHAMFERB
 40
0.0
  9
$SKPOLY
 70
     0
  9
$TDCREATE
 40
2450359.4744608798
  9
$TDUPDATE
 40
2456597.5620153942
  9
$TDINDWG
 40
0.0029630093
  9
$TDUSRTIMER
 40
0.0029630093
  9
$USRTIMER
 70
     1
  9
$ANGBASE
 50
0.0
  9
$ANGDIR
 70
     0
  9
$PDMODE
 70
     0
  9
$PDSIZE
 40
0.0
  9
$PLINEWID
 40
0.0
  9
$COORDS
 70
     1
  9
$SPLFRAME
 70
     0
  9
$SPLINETYPE
 70
     6
  9
$SPLINESEGS
 70
     8
  9
$ATTDIA
 70
     0
  9
$ATTREQ
 70
     1
  9
$HANDLING
 70
     1
  9
$HANDSEED
  5
61D
  9
$SURFTAB1
 70
     6
  9
$SURFTAB2
 70
     6
  9
$SURFTYPE
 70
     6
  9
$SURFU
 70
     6
  9
$SURFV
 70
     6
  9
$UCSNAME
  2

  9
$UCSORG
 10
0.0
 20
0.0
 30
0.0
  9
$UCSXDIR
 10
1.0
 20
0.0
 30
0.0
  9
$UCSYDIR
 10
0.0
 20
1.0
 30
0.0
  9
$PUCSNAME
  2

  9
$PUCSORG
 10
0.0
 20
0.0
 30
0.0
  9
$PUCSXDIR
 10
1.0
 20
0.0
 30
0.0
  9
$PUCSYDIR
 10
0.0
 20
1.0
 30
0.0
  9
$USERI1
 70
     4
  9
$USERI2
 70
     1
  9
$USERI3
 70
     0
  9
$USERI4
 70
     0
  9
$USERI5
 70
     0
  9
$USERR1
 40
1.0
  9
$USERR2
 40
3.0
  9
$USERR3
 40
3.0
  9
$USERR4
 40
3.0
  9
$USERR5
 40
10.0
  9
$WORLDVIEW
 70
     1
  9
$SHADEDGE
 70
     3
  9
$SHADEDIF
 70
    70
  9
$TILEMODE
 70
     1
  9
$MAXACTVP
 70
    16
  9
$PLIMCHECK
 70
     0
  9
$PEXTMIN
 10
1.0000000000000000E+020
 20
1.0000000000000000E+020
 30
1.0000000000000000E+020
  9
$PEXTMAX
 10
-1.0000000000000000E+020
 20
-1.0000000000000000E+020
 30
-1.0000000000000000E+020
  9
$PLIMMIN
 10
0.0
 20
0.0
  9
$PLIMMAX
 10
12.0
 20
9.0
  9
$UNITMODE
 70
     0
  9
$VISRETAIN
 70
     0
  9
$PLINEGEN
 70
     0
  9
$PSLTSCALE
 70
     1
  0
ENDSEC
  0
SECTION
  2
TABLES
  0
TABLE
  2
VPORT
 70
     1
  0
VPORT
  2
*ACTIVE
 70
     0
 10
0.0
 20
0.0
 11
1.0
 21
1.0
 12
187.49427839065231
 22
162.8616388594717
 13
0.0
 23
0.0
 14
5.0
 24
5.0
 15
0.0
 25
0.0
 16
0.0
 26
0.0
 36
1.0
 17
0.0
 27
0.0
 37
0.0
 40
334.81001162774987
 41
1.9089595375722539
 42
50.0
 43
0.0
 44
0.0
 50
0.0
 51
0.0
 71
     0
 72
   100
 73
     1
 74
     0
 75
     0
 76
     0
 77
     0
 78
     0
  0
ENDTAB
  0
TABLE
  2
LTYPE
 70
     4
  0
LTYPE
  2
CONTINUOUS
 70
     0
  3
Solid Line
 72
    65
 73
     0
 40
0.0
  0
LTYPE
  2
CENTER
 70
     0
  3
____ _ ____ _ ____ _ ____ _ ____ _ ____ _ ____
 72
    65
 73
     4
 40
2.0
 49
1.25
 49
-0.25
 49
0.25
 49
-0.25
  0
LTYPE
  2
HIDDEN
 70
     0
  3
_ _ _ _ _ _ _ _ _ _ _ _ _ _ _ _ _ _ _ _ _ _ _
 72
    65
 73
     2
 40
0.375
 49
0.25
 49
-0.125
  0
LTYPE
  2
PHANTOM2
 70
     0
  3
___ _ _ ___ _ _ ___ _ _ ___ _ _
 72
    65
 73
     6
 40
1.25
 49
0.625
 49
-0.125
 49
0.125
 49
-0.125
 49
0.125
 49
-0.125
  0
ENDTAB
  0
TABLE
  2
LAYER
 70
     3
  0
LAYER
  2
0
 70
     0
 62
     7
  6
CONTINUOUS
  0
LAYER
  2
1
 70
     0
 62
     1
  6
CENTER
  0
LAYER
  2
2
 70
     0
 62
     2
  6
HIDDEN
  0
ENDTAB
  0
TABLE
  2
STYLE
 70
     2
  0
STYLE
  2
STANDARD
 70
     0
 40
0.0
 41
1.0
 50
0.0
 71
     0
 42
0.2
  3
simplex
  4
bigfont
  0
STYLE
  2
STANDARD1
 70
     0
 40
0.0
 41
1.0
 50
0.0
 71
     0
 42
3.0
  3
txt
  4

  0
ENDTAB
  0
TABLE
  2
VIEW
 70
     0
  0
ENDTAB
  0
TABLE
  2
UCS
 70
     0
  0
ENDTAB
  0
TABLE
  2
APPID
 70
     3
  0
APPID
  2
ACAD
 70
     0
  0
APPID
  2
ACAD_MLEADERVER
 70
     0
  0
APPID
  2
ACAD_NAV_VCDISPLAY
 70
     0
  0
ENDTAB
  0
TABLE
  2
DIMSTYLE
 70
     1
  0
DIMSTYLE
  2
STANDARD
 70
     0
  3

  4

  5

  6

  7

 40
1.0
 41
0.18
 42
0.0625
 43
0.38
 44
0.18
 45
0.0
 46
0.0
 47
0.0
 48
0.0
140
0.18
141
0.09
142
0.0
143
25.399999999999999
144
1.0
145
0.0
146
1.0
147
0.09
 71
     0
 72
     0
 73
     1
 74
     1
 75
     0
 76
     0
 77
     0
 78
     0
170
     0
171
     2
172
     0
173
     0
174
     0
175
     0
176
     0
177
     0
178
     0
  0
ENDTAB
  0
ENDSEC
  0
SECTION
  2
BLOCKS
  0
BLOCK
  8
0
  2
$MODEL_SPACE
 70
     0
 10
0.0
 20
0.0
 30
0.0
  3
$MODEL_SPACE
  1

  0
ENDBLK
  5
4DC
  8
0
  0
BLOCK
 67
     1
  8
0
  2
$PAPER_SPACE
 70
     0
 10
0.0
 20
0.0
 30
0.0
  3
$PAPER_SPACE
  1

  0
ENDBLK
  5
4DA
 67
     1
  8
0
  0
ENDSEC
  0
SECTION
  2
ENTITIES
  0
LINE
  5
407
  8
0
  6
CENTER
 62
     1
 10
210.34338906734089
 20
113.20576021052371
 30
0.0
 11
188.34338906734089
 21
113.20576021052371
 31
0.0
  0
LINE
  5
408
  8
0
  6
CONTINUOUS
 62
     7
 10
193.34338906734081
 20
171.66465917661989
 30
0.0
 11
196.84338906734089
 21
171.66465917661989
 31
0.0
  0
LINE
  5
409
  8
0
  6
CONTINUOUS
 62
     7
 10
193.34338906734081
 20
171.66465917662001
 30
0.0
 11
205.76600535667339
 21
171.66465917662001
 31
0.0
  0
LINE
  5
40A
  8
0
  6
CONTINUOUS
 62
     7
 10
192.92077277800831
 20
170.16465917662001
 30
0.0
 11
205.34338906734081
 21
170.16465917662001
 31
0.0
  0
ARC
  5
40B
  8
0
  6
CONTINUOUS
 62
     7
 10
199.34338906734089
 20
113.20576021052371
 30
0.0
 40
6.0
 50
270.0
 51
180.0
  0
LINE
  5
40C
  8
0
  6
CONTINUOUS
 62
     7
 10
199.34338906734089
 20
107.20576021052371
 30
0.0
 11
175.34338906734089
 21
107.20576021052371
 31
0.0
  0
LINE
  5
40D
  8
0
  6
CONTINUOUS
 62
     7
 10
220.34338906734089
 20
155.91465917661989
 30
0.0
 11
178.34338906734081
 21
155.91465917661989
 31
0.0
  0
LINE
  5
40E
  8
0
  6
CONTINUOUS
 62
     7
 10
178.34338906734089
 20
185.91465917662001
 30
0.0
 11
220.34338906734089
 21
185.91465917662001
 31
0.0
  0
LINE
  5
40F
  8
0
  6
CENTER
 62
     1
 10
199.34338906734089
 20
102.20576021052371
 30
0.0
 11
199.34338906734089
 21
124.20576021052371
 31
0.0
  0
LINE
  5
410
  8
0
  6
CONTINUOUS
 62
     7
 10
223.34338906734101
 20
107.20576021052371
 30
0.0
 11
199.34338906734089
 21
107.20576021052371
 31
0.0
  0
LINE
  5
411
  8
0
  6
CONTINUOUS
 62
     7
 10
221.34338906734101
 20
112.20576021052371
 30
0.0
 11
205.7660053566735
 21
112.20576021052371
 31
0.0
  0
ARC
  5
412
  8
0
  6
CONTINUOUS
 62
     7
 10
221.34338906734101
 20
110.20576021052371
 30
0.0
 40
2.0
 50
359.99999999999989
 51
90.0
  0
LINE
  5
413
  8
0
  6
CONTINUOUS
 62
     7
 10
223.34338906734101
 20
107.20576021052371
 30
0.0
 11
223.34338906734101
 21
110.20576021052371
 31
0.0
  0
LINE
  5
414
  8
0
 10
217.4933890673409
 20
104.20576021052371
 30
0.0
 11
217.4933890673409
 21
107.20576021052371
 31
0.0
  0
LINE
  5
415
  8
0
 10
211.49338906734079
 20
104.20576021052371
 30
0.0
 11
211.49338906734079
 21
107.20576021052371
 31
0.0
  0
LINE
  5
416
  8
1
 10
214.49338906734079
 20
101.70576021052371
 30
0.0
 11
214.49338906734079
 21
109.70576021052371
 31
0.0
  0
LINE
  5
417
  8
0
  6
CONTINUOUS
 62
     7
 10
211.49338906734079
 20
104.20576021052371
 30
0.0
 11
217.4933890673409
 21
104.20576021052371
 31
0.0
  0
ARC
  5
418
  8
0
  6
CONTINUOUS
 62
     7
 10
206.34338906734069
 20
113.20576021052371
 30
0.0
 40
1.0
 50
180.0
 51
270.0
  0
ARC
  5
419
  8
0
  6
CONTINUOUS
 62
     7
 10
199.34338906734089
 20
113.20576021052371
 30
0.0
 40
6.5
 50
309.71513723182608
 51
351.15011690157098
  0
LINE
  5
41A
  8
0
  6
CONTINUOUS
 62
     7
 10
203.49670099880001
 20
108.20576021052371
 30
0.0
 11
203.49670099880009
 21
107.20576021052371
 31
0.0
  0
ARC
  5
41B
  8
0
  6
CONTINUOUS
 62
     7
 10
127.32124055579
 20
183.91465917661989
 30
0.0
 40
2.0
 50
0.0000000000060049
 51
90.0
  0
LINE
  5
41C
  8
0
  6
CONTINUOUS
 62
     7
 10
124.3212405557923
 20
185.91465917661989
 30
0.0
 11
124.3212405557924
 21
155.91465917661989
 31
0.0
  0
LINE
  5
41D
  8
0
  6
CONTINUOUS
 62
     7
 10
136.3212405557924
 20
155.91465917661989
 30
0.0
 11
136.3212405557924
 21
185.91465917661989
 31
0.0
  0
LINE
  5
41E
  8
0
  6
CONTINUOUS
 62
     7
 10
129.32124055579001
 20
183.91465917662009
 30
0.0
 11
129.32124055579209
 21
157.91465917662001
 31
0.0
  0
ARC
  5
41F
  8
0
  6
CONTINUOUS
 62
     7
 10
127.3212405557921
 20
157.91465917661989
 30
0.0
 40
2.0
 50
269.9999999999992
 51
0.0000000000060049
  0
LINE
  5
420
  8
0
  6
CONTINUOUS
 62
     7
 10
127.3212405557921
 20
155.91465917661989
 30
0.0
 11
136.3212405557924
 21
155.91465917661989
 31
0.0
  0
LINE
  5
421
  8
1
 10
118.8212405557923
 20
159.91465917662001
 30
0.0
 11
126.8212405557924
 21
159.91465917662001
 31
0.0
  0
LINE
  5
422
  8
0
 10
121.3212405557923
 20
162.91465917662001
 30
0.0
 11
124.3212405557923
 21
162.91465917662001
 31
0.0
  0
LINE
  5
423
  8
0
 10
121.3212405557923
 20
156.91465917662001
 30
0.0
 11
124.3212405557923
 21
156.91465917662001
 31
0.0
  0
LINE
  5
424
  8
0
  6
CONTINUOUS
 62
     7
 10
121.3212405557923
 20
162.91465917662009
 30
0.0
 11
121.3212405557923
 21
156.91465917662001
 31
0.0
  0
LINE
  5
425
  8
0
  6
CONTINUOUS
 62
     7
 10
127.3212405557921
 20
155.91465917661989
 30
0.0
 11
124.3212405557923
 21
155.91465917661989
 31
0.0
  0
LINE
  5
426
  8
1
 10
141.3212405557924
 20
170.91465917661989
 30
0.0
 11
119.3212405557924
 21
170.91465917661989
 31
0.0
  0
LINE
  5
427
  8
0
 10
121.3212405557923
 20
184.91465917662001
 30
0.0
 11
124.3212405557923
 21
184.91465917662001
 31
0.0
  0
LINE
  5
428
  8
0
 10
121.3212405557923
 20
178.91465917662001
 30
0.0
 11
124.3212405557923
 21
178.91465917662001
 31
0.0
  0
LINE
  5
429
  8
1
 10
118.8212405557923
 20
181.91465917662001
 30
0.0
 11
126.8212405557924
 21
181.91465917662001
 31
0.0
  0
LINE
  5
42A
  8
0
  6
CONTINUOUS
 62
     7
 10
121.3212405557923
 20
178.91465917661989
 30
0.0
 11
121.3212405557923
 21
184.91465917662001
 31
0.0
  0
LINE
  5
42B
  8
0
  6
CONTINUOUS
 62
     7
 10
129.32124055579109
 20
170.19911807391429
 30
0.0
 11
136.3212405557924
 21
170.19911807391429
 31
0.0
  0
LINE
  5
42C
  8
0
  6
CONTINUOUS
 62
     7
 10
129.32124055579089
 20
171.69911807391429
 30
0.0
 11
136.3212405557924
 21
171.69911807391429
 31
0.0
  0
LINE
  5
42D
  8
0
  6
CONTINUOUS
 62
     7
 10
127.32124055579
 20
185.91465917661989
 30
0.0
 11
136.3212405557924
 21
185.91465917661989
 31
0.0
  0
LINE
  5
42E
  8
0
  6
CONTINUOUS
 62
     7
 10
127.32124055579
 20
185.91465917661989
 30
0.0
 11
124.3212405557923
 21
185.91465917661989
 31
0.0
  0
LINE
  5
430
  8
1
 10
214.4933890673409
 20
189.91465917662001
 30
0.0
 11
214.4933890673409
 21
151.91465917662001
 31
0.0
  0
LINE
  5
431
  8
0
  6
CENTER
 62
     1
 10
199.34338906734089
 20
190.91465917662001
 30
0.0
 11
199.34338906734089
 21
150.91465917661989
 31
0.0
  0
LINE
  5
432
  8
0
  6
CONTINUOUS
 62
     7
 10
205.34338906734081
 20
185.91465917662001
 30
0.0
 11
205.34338906734081
 21
155.91465917661989
 31
0.0
  0
ARC
  5
433
  8
0
  6
CONTINUOUS
 62
     7
 10
220.34338906734089
 20
182.91465917662001
 30
0.0
 40
3.0
 50
0.0000000000000509
 51
90.000000000000057
  0
LINE
  5
434
  8
0
  6
CONTINUOUS
 62
     7
 10
205.76600535667339
 20
171.66465917662001
 30
0.0
 11
205.7660053566733
 21
155.91465917661989
 31
0.0
  0
LINE
  5
435
  8
0
  6
CONTINUOUS
 62
     7
 10
223.34338906734089
 20
182.91465917662001
 30
0.0
 11
223.34338906734089
 21
158.91465917661989
 31
0.0
  0
LINE
  5
436
  8
1
 10
219.9933890673409
 20
159.91465917662001
 30
0.0
 11
208.9933890673409
 21
159.91465917662001
 31
0.0
  0
ARC
  5
437
  8
0
  6
CONTINUOUS
 62
     7
 10
220.34338906734089
 20
158.91465917661989
 30
0.0
 40
3.0
 50
270.0
 51
0.0000000000000509
  0
CIRCLE
  5
438
  8
2
 10
214.4933890673409
 20
159.91465917662001
 30
0.0
 40
3.0
  0
LINE
  5
439
  8
1
 10
219.9933890673409
 20
181.91465917662001
 30
0.0
 11
208.9933890673409
 21
181.91465917662001
 31
0.0
  0
LINE
  5
43A
  8
0
  6
CENTER
 62
     1
 10
203.99338906734079
 20
170.91465917662001
 30
0.0
 11
224.99338906734079
 21
170.91465917662001
 31
0.0
  0
CIRCLE
  5
43B
  8
0
  6
CONTINUOUS
 62
     7
 10
214.49338906734079
 20
170.91465917662001
 30
0.0
 40
5.5
  0
CIRCLE
  5
43C
  8
0
 10
214.49338906734079
 20
170.91465917662001
 30
0.0
 40
3.0
  0
CIRCLE
  5
43E
  8
2
 10
214.4933890673409
 20
181.91465917662001
 30
0.0
 40
3.0
  0
LINE
  5
43F
  8
0
  6
CONTINUOUS
 62
     7
 10
187.193389067341
 20
104.20576021052371
 30
0.0
 11
181.19338906734089
 21
104.20576021052371
 31
0.0
  0
LINE
  5
440
  8
0
  6
CONTINUOUS
 62
     7
 10
192.34338906734109
 20
112.20576021052371
 30
0.0
 11
177.34338906734089
 21
112.20576021052371
 31
0.0
  0
ARC
  5
441
  8
0
  6
CONTINUOUS
 62
     7
 10
192.34338906734109
 20
113.20576021052371
 30
0.0
 40
1.0
 50
270.0
 51
0.0
  0
LINE
  5
442
  8
1
 10
184.193389067341
 20
101.70576021052371
 30
0.0
 11
184.193389067341
 21
109.70576021052371
 31
0.0
  0
LINE
  5
443
  8
0
 10
187.193389067341
 20
104.20576021052371
 30
0.0
 11
187.193389067341
 21
107.20576021052371
 31
0.0
  0
ARC
  5
444
  8
0
  6
CONTINUOUS
 62
     7
 10
177.34338906734089
 20
110.20576021052371
 30
0.0
 40
2.0
 50
90.0
 51
180.00000000000011
  0
LINE
  5
445
  8
0
 10
181.19338906734089
 20
104.20576021052371
 30
0.0
 11
181.193389067341
 21
107.20576021052371
 31
0.0
  0
LINE
  5
446
  8
0
  6
CONTINUOUS
 62
     7
 10
175.34338906734089
 20
107.20576021052371
 30
0.0
 11
175.34338906734089
 21
110.20576021052371
 31
0.0
  0
LINE
  5
447
  8
1
 10
184.1933890673408
 20
189.91465917662001
 30
0.0
 11
184.1933890673408
 21
151.91465917662001
 31
0.0
  0
ARC
  5
448
  8
0
  6
CONTINUOUS
 62
     7
 10
178.34338906734089
 20
182.91465917662001
 30
0.0
 40
3.0
 50
90.0
 51
180.0
  0
LINE
  5
449
  8
0
  6
CONTINUOUS
 62
     7
 10
192.92077277800831
 20
170.16465917662001
 30
0.0
 11
192.92077277800831
 21
185.91465917662001
 31
0.0
  0
LINE
  5
44A
  8
0
  6
CONTINUOUS
 62
     7
 10
193.34338906734081
 20
185.91465917662001
 30
0.0
 11
193.34338906734081
 21
155.91465917661989
 31
0.0
  0
LINE
  5
44B
  8
0
  6
CONTINUOUS
 62
     7
 10
175.34338906734089
 20
182.91465917662001
 30
0.0
 11
175.34338906734081
 21
158.91465917661989
 31
0.0
  0
LINE
  5
44C
  8
1
 10
178.6933890673408
 20
159.91465917662001
 30
0.0
 11
189.6933890673408
 21
159.91465917662001
 31
0.0
  0
CIRCLE
  5
44D
  8
2
 10
184.1933890673408
 20
159.91465917662001
 30
0.0
 40
3.0
  0
ARC
  5
44E
  8
0
  6
CONTINUOUS
 62
     7
 10
178.34338906734081
 20
158.91465917661989
 30
0.0
 40
3.0
 50
180.0
 51
270.0
  0
LINE
  5
44F
  8
1
 10
178.6933890673408
 20
181.91465917662001
 30
0.0
 11
189.6933890673408
 21
181.91465917662001
 31
0.0
  0
CIRCLE
  5
450
  8
2
 10
184.1933890673408
 20
181.91465917662001
 30
0.0
 40
3.0
  0
CIRCLE
  5
451
  8
0
 10
184.1933890673408
 20
170.91465917662001
 30
0.0
 40
3.0
  0
LINE
  5
452
  8
0
  6
CENTER
 62
     1
 10
173.6933890673408
 20
170.91465917662001
 30
0.0
 11
194.6933890673408
 21
170.91465917662001
 31
0.0
  0
CIRCLE
  5
453
  8
0
  6
CONTINUOUS
 62
     7
 10
184.1933890673408
 20
170.91465917662001
 30
0.0
 40
5.5
  0
TEXT
  5
58F
  8
0
 62
     3
 10
0.0
 20
0.0
 30
0.0
 40
10.0
  1
L6-HLD4830L
  7
STANDARD1
  0
ENDSEC
  0
EOF
