  0
SECTION
  2
HEADER
  9
$ACADVER
  1
AC1009
  9
$INSBASE
 10
0.0
 20
0.0
 30
0.0
  9
$EXTMIN
 10
0.0
 20
-2.960436562073669
 30
0.0
  9
$EXTMAX
 10
370.11353156298151
 20
225.2251347938284
 30
0.0
  9
$LIMMIN
 10
0.0
 20
0.0
  9
$LIMMAX
 10
195.0
 20
135.0
  9
$ORTHOMODE
 70
     0
  9
$REGENMODE
 70
     1
  9
$FILLMODE
 70
     1
  9
$QTEXTMODE
 70
     0
  9
$MIRRTEXT
 70
     0
  9
$DRAGMODE
 70
     2
  9
$LTSCALE
 40
5.0
  9
$OSMODE
 70
  3071
  9
$ATTMODE
 70
     1
  9
$TEXTSIZE
 40
0.2
  9
$TRACEWID
 40
0.05
  9
$TEXTSTYLE
  7
KANJI104
  9
$CLAYER
  8
0
  9
$CELTYPE
  6
BYLAYER
  9
$CECOLOR
 62
   256
  9
$DIMSCALE
 40
0.5
  9
$DIMASZ
 40
3.0
  9
$DIMEXO
 40
2.0
  9
$DIMDLI
 40
0.38
  9
$DIMRND
 40
0.0
  9
$DIMDLE
 40
0.0
  9
$DIMEXE
 40
2.0
  9
$DIMTP
 40
0.0
  9
$DIMTM
 40
0.0
  9
$DIMTXT
 40
3.0
  9
$DIMCEN
 40
0.0
  9
$DIMTSZ
 40
0.0
  9
$DIMTOL
 70
     0
  9
$DIMLIM
 70
     0
  9
$DIMTIH
 70
     0
  9
$DIMTOH
 70
     0
  9
$DIMSE1
 70
     0
  9
$DIMSE2
 70
     0
  9
$DIMTAD
 70
     1
  9
$DIMZIN
 70
     0
  9
$DIMBLK
  1

  9
$DIMASO
 70
     0
  9
$DIMSHO
 70
     0
  9
$DIMPOST
  1

  9
$DIMAPOST
  1

  9
$DIMALT
 70
     0
  9
$DIMALTD
 70
     2
  9
$DIMALTF
 40
25.399999999999999
  9
$DIMLFAC
 40
1.0
  9
$DIMTOFL
 70
     1
  9
$DIMTVP
 40
0.0
  9
$DIMTIX
 70
     1
  9
$DIMSOXD
 70
     0
  9
$DIMSAH
 70
     0
  9
$DIMBLK1
  1

  9
$DIMBLK2
  1

  9
$DIMSTYLE
  2
STANDARD
  9
$DIMCLRD
 70
     0
  9
$DIMCLRE
 70
     0
  9
$DIMCLRT
 70
     0
  9
$DIMTFAC
 40
1.0
  9
$DIMGAP
 40
0.09
  9
$LUNITS
 70
     2
  9
$LUPREC
 70
     4
  9
$SKETCHINC
 40
0.1
  9
$FILLETRAD
 40
0.5
  9
$AUNITS
 70
     0
  9
$AUPREC
 70
     0
  9
$MENU
  1
E:\r13\win\SUPPORT\ACAD
  9
$ELEVATION
 40
0.0
  9
$PELEVATION
 40
0.0
  9
$THICKNESS
 40
0.0
  9
$LIMCHECK
 70
     0
  9
$BLIPMODE
 70
     0
  9
$CHAMFERA
 40
0.0
  9
$CHAMFERB
 40
0.0
  9
$SKPOLY
 70
     0
  9
$TDCREATE
 40
2449840.6489120368
  9
$TDUPDATE
 40
2456597.5619997568
  9
$TDINDWG
 40
0.0831174306
  9
$TDUSRTIMER
 40
0.0831174306
  9
$USRTIMER
 70
     1
  9
$ANGBASE
 50
0.0
  9
$ANGDIR
 70
     0
  9
$PDMODE
 70
     0
  9
$PDSIZE
 40
0.0
  9
$PLINEWID
 40
0.0
  9
$COORDS
 70
     1
  9
$SPLFRAME
 70
     0
  9
$SPLINETYPE
 70
     6
  9
$SPLINESEGS
 70
     8
  9
$ATTDIA
 70
     0
  9
$ATTREQ
 70
     1
  9
$HANDLING
 70
     1
  9
$HANDSEED
  5
1166
  9
$SURFTAB1
 70
     6
  9
$SURFTAB2
 70
     6
  9
$SURFTYPE
 70
     6
  9
$SURFU
 70
     6
  9
$SURFV
 70
     6
  9
$UCSNAME
  2

  9
$UCSORG
 10
0.0
 20
0.0
 30
0.0
  9
$UCSXDIR
 10
1.0
 20
0.0
 30
0.0
  9
$UCSYDIR
 10
0.0
 20
1.0
 30
0.0
  9
$PUCSNAME
  2

  9
$PUCSORG
 10
0.0
 20
0.0
 30
0.0
  9
$PUCSXDIR
 10
1.0
 20
0.0
 30
0.0
  9
$PUCSYDIR
 10
0.0
 20
1.0
 30
0.0
  9
$USERI1
 70
     3
  9
$USERI2
 70
     1
  9
$USERI3
 70
     1
  9
$USERI4
 70
     0
  9
$USERI5
 70
     0
  9
$USERR1
 40
0.5
  9
$USERR2
 40
3.0
  9
$USERR3
 40
3.0
  9
$USERR4
 40
3.0
  9
$USERR5
 40
10.0
  9
$WORLDVIEW
 70
     1
  9
$SHADEDGE
 70
     3
  9
$SHADEDIF
 70
    70
  9
$TILEMODE
 70
     1
  9
$MAXACTVP
 70
    16
  9
$PLIMCHECK
 70
     0
  9
$PEXTMIN
 10
1.0000000000000000E+020
 20
1.0000000000000000E+020
 30
1.0000000000000000E+020
  9
$PEXTMAX
 10
-1.0000000000000000E+020
 20
-1.0000000000000000E+020
 30
-1.0000000000000000E+020
  9
$PLIMMIN
 10
0.0
 20
0.0
  9
$PLIMMAX
 10
12.0
 20
9.0
  9
$UNITMODE
 70
     0
  9
$VISRETAIN
 70
     0
  9
$PLINEGEN
 70
     0
  9
$PSLTSCALE
 70
     0
  0
ENDSEC
  0
SECTION
  2
TABLES
  0
TABLE
  2
VPORT
 70
     1
  0
VPORT
  2
*ACTIVE
 70
     0
 10
0.0
 20
0.0
 11
1.0
 21
1.0
 12
185.0567666432286
 22
135.66917038030289
 13
0.0
 23
0.0
 14
5.0
 24
5.0
 15
5.0
 25
5.0
 16
0.0
 26
0.0
 36
1.0
 17
0.0
 27
0.0
 37
0.0
 40
279.88607069609191
 41
1.9089595375722539
 42
50.0
 43
0.0
 44
0.0
 50
0.0
 51
0.0
 71
     0
 72
   100
 73
     1
 74
     0
 75
     0
 76
     0
 77
     0
 78
     0
  0
ENDTAB
  0
TABLE
  2
LTYPE
 70
     4
  0
LTYPE
  2
CONTINUOUS
 70
     0
  3
Solid Line
 72
    65
 73
     0
 40
0.0
  0
LTYPE
  2
CENTER
 70
     0
  3
____ _ ____ _ ____ _ ____ _ ____ _ ____ _ ____
 72
    65
 73
     4
 40
2.0
 49
1.25
 49
-0.25
 49
0.25
 49
-0.25
  0
LTYPE
  2
HIDDEN
 70
     0
  3
_ _ _ _ _ _ _ _ _ _ _ _ _ _ _ _ _ _ _ _ _ _ _
 72
    65
 73
     2
 40
0.375
 49
0.25
 49
-0.125
  0
LTYPE
  2
PHANTOM2
 70
     0
  3
___ _ _ ___ _ _ ___ _ _ ___ _ _
 72
    65
 73
     6
 40
1.25
 49
0.625
 49
-0.125
 49
0.125
 49
-0.125
 49
0.125
 49
-0.125
  0
ENDTAB
  0
TABLE
  2
LAYER
 70
     4
  0
LAYER
  2
0
 70
     0
 62
     7
  6
CONTINUOUS
  0
LAYER
  2
1
 70
     0
 62
     1
  6
CENTER
  0
LAYER
  2
3
 70
     0
 62
     3
  6
CONTINUOUS
  0
LAYER
  2
2
 70
     0
 62
     2
  6
HIDDEN
  0
ENDTAB
  0
TABLE
  2
STYLE
 70
     3
  0
STYLE
  2
STANDARD
 70
     0
 40
0.0
 41
1.0
 50
0.0
 71
     0
 42
5.0
  3
TXT
  4
BIGFONT
  0
STYLE
  2
KANJI104
 70
     0
 40
6.0
 41
0.7
 50
0.0
 71
     0
 42
0.2
  3
TXT
  4
BIGFONT
  0
STYLE
  2
STANDARD1
 70
     0
 40
0.0
 41
1.0
 50
0.0
 71
     0
 42
3.0
  3
txt
  4

  0
ENDTAB
  0
TABLE
  2
VIEW
 70
     1
  0
VIEW
  2
ALL
 70
     0
 40
175.0
 10
143.23529400000001
 20
87.5
 41
0.0
 11
0.0
 21
0.0
 31
1.0
 12
0.0
 22
0.0
 32
0.0
 42
0.0
 43
0.0
 44
0.0
 50
0.0
 71
     0
  0
ENDTAB
  0
TABLE
  2
UCS
 70
     0
  0
ENDTAB
  0
TABLE
  2
APPID
 70
     5
  0
APPID
  2
ACAD
 70
     0
  0
APPID
  2
GENIUS_GENODEF_13
 70
     0
  0
APPID
  2
GENIUS_GENOBJ-N-FIL_13
 70
     0
  0
APPID
  2
ACAD_MLEADERVER
 70
     0
  0
APPID
  2
ACAD_NAV_VCDISPLAY
 70
     0
  0
ENDTAB
  0
TABLE
  2
DIMSTYLE
 70
     1
  0
DIMSTYLE
  2
STANDARD
 70
     0
  3

  4

  5

  6

  7

 40
1.0
 41
0.18
 42
0.0625
 43
0.38
 44
0.18
 45
0.0
 46
0.0
 47
0.0
 48
0.0
140
0.18
141
0.09
142
0.0
143
25.399999999999999
144
1.0
145
0.0
146
1.0
147
0.09
 71
     0
 72
     0
 73
     1
 74
     1
 75
     0
 76
     0
 77
     0
 78
     0
170
     0
171
     2
172
     0
173
     0
174
     0
175
     0
176
     0
177
     0
178
     0
  0
ENDTAB
  0
ENDSEC
  0
SECTION
  2
BLOCKS
  0
BLOCK
  8
0
  2
$MODEL_SPACE
 70
     0
 10
0.0
 20
0.0
 30
0.0
  3
$MODEL_SPACE
  1

  0
ENDBLK
  5
118
  8
0
  0
BLOCK
 67
     1
  8
0
  2
$PAPER_SPACE
 70
     0
 10
0.0
 20
0.0
 30
0.0
  3
$PAPER_SPACE
  1

  0
ENDBLK
  5
116
 67
     1
  8
0
  0
ENDSEC
  0
SECTION
  2
ENTITIES
  0
CIRCLE
  5
BBC
  8
0
 10
180.6135315629819
 20
198.7251347938286
 30
0.0
 40
5.2000000000000002
  0
LINE
  5
BBD
  8
1
 10
188.1135315629819
 20
198.7251347938286
 30
0.0
 11
173.1135315629819
 21
198.7251347938286
 31
0.0
  0
LINE
  5
BBE
  8
0
 10
179.1135315629819
 20
197.8591093900443
 30
0.0
 11
180.6135315629819
 21
196.99308398625971
 31
0.0
  0
LINE
  5
BBF
  8
0
 10
180.6135315629819
 20
196.99308398625971
 30
0.0
 11
182.1135315629819
 21
197.8591093900443
 31
0.0
  0
LINE
  5
BC0
  8
0
 10
182.1135315629819
 20
197.8591093900443
 30
0.0
 11
182.1135315629819
 21
199.59116019761331
 31
0.0
  0
LINE
  5
BC1
  8
0
 10
182.1135315629819
 20
199.59116019761331
 30
0.0
 11
180.6135315629819
 21
200.45718560139741
 31
0.0
  0
LINE
  5
BC2
  8
0
 10
180.6135315629819
 20
200.45718560139741
 30
0.0
 11
179.11353156298171
 21
199.59116019761291
 31
0.0
  0
LINE
  5
BC3
  8
0
 10
179.11353156298171
 20
199.59116019761291
 30
0.0
 11
179.1135315629819
 21
197.8591093900443
 31
0.0
  0
CIRCLE
  5
BC4
  8
0
 10
180.6135315629819
 20
198.7251347938286
 30
0.0
 40
5.0
  0
LINE
  5
BC5
  8
1
 10
180.6135315629819
 20
191.22513479382849
 30
0.0
 11
180.6135315629819
 21
206.2251347938286
 31
0.0
  0
LINE
  5
BC6
  8
0
 10
168.6135315629819
 20
178.7251347938286
 30
0.0
 11
168.6135315629819
 21
218.7251347938284
 31
0.0
  0
LINE
  5
BC7
  8
2
 10
331.11353156298168
 20
82.725134793828602
 30
0.0
 11
331.11353156298168
 21
84.725134793834513
 31
0.0
  0
LINE
  5
BC8
  8
2
 10
348.11353156298168
 20
82.725134793828602
 30
0.0
 11
348.11353156298168
 21
84.725134793834513
 31
0.0
  0
LINE
  5
BC9
  8
2
 10
341.11353156298128
 20
88.725134793828829
 30
0.0
 11
341.11353156298168
 21
80.425134793828875
 31
0.0
  0
LINE
  5
BCA
  8
2
 10
341.54653156298201
 20
87.975156794151872
 30
0.0
 11
341.5465315629815
 21
79.992134793829109
 31
0.0
  0
LINE
  5
BCB
  8
2
 10
345.68053156298203
 20
87.975156794151744
 30
0.0
 11
345.68053156298203
 21
79.992134793829109
 31
0.0
  0
LINE
  5
BCC
  8
2
 10
346.11353156298202
 20
88.725134793828829
 30
0.0
 11
346.11353156298168
 21
80.425134793828875
 31
0.0
  0
LINE
  5
BCD
  8
2
 10
346.11353156298168
 20
88.725134793828829
 30
0.0
 11
341.11353156298168
 21
88.725134793828829
 31
0.0
  0
LINE
  5
BCE
  8
2
 10
338.61353156298168
 20
91.225134793828829
 30
0.0
 11
341.11353156298168
 21
88.725134793828829
 31
0.0
  0
LINE
  5
BCF
  8
2
 10
348.61353156298168
 20
91.225134793828829
 30
0.0
 11
346.11353156298168
 21
88.725134793828829
 31
0.0
  0
LINE
  5
BD0
  8
2
 10
338.61353156298168
 20
91.525134793828784
 30
0.0
 11
348.61353156298168
 21
91.525134793828784
 31
0.0
  0
LINE
  5
BD1
  8
2
 10
338.61353156298168
 20
91.225134793828829
 30
0.0
 11
338.61353156298168
 21
91.525134793828784
 31
0.0
  0
LINE
  5
BD2
  8
2
 10
348.61353156298168
 20
91.225134793828829
 30
0.0
 11
338.61353156298168
 21
91.225134793828829
 31
0.0
  0
LINE
  5
BD3
  8
2
 10
348.61353156298168
 20
91.525134793828784
 30
0.0
 11
348.61353156298168
 21
91.225134793828829
 31
0.0
  0
LINE
  5
BD4
  8
2
 10
345.2135315629817
 20
79.525134793828784
 30
0.0
 11
344.51957603935722
 21
79.525134793828784
 31
0.0
  0
LINE
  5
BD5
  8
2
 10
346.11353156298168
 20
87.975156794151872
 30
0.0
 11
341.11353156298168
 21
87.975156794151872
 31
0.0
  0
LINE
  5
BD6
  8
2
 10
345.68053156298203
 20
87.975156794151872
 30
0.0
 11
346.11353156298168
 21
88.725134793828829
 31
0.0
  0
LINE
  5
BD7
  8
2
 10
346.11353156298168
 20
80.425134793828875
 30
0.0
 11
345.2135315629817
 21
79.525134793828784
 31
0.0
  0
LINE
  5
BD8
  8
2
 10
342.0135315629816
 20
79.525134793828784
 30
0.0
 11
341.11353156298168
 21
80.425134793828875
 31
0.0
  0
LINE
  5
BD9
  8
2
 10
346.11353156298168
 20
80.425134793828875
 30
0.0
 11
341.11353156298168
 21
80.425134793828875
 31
0.0
  0
LINE
  5
BDA
  8
2
 10
341.5465315629815
 20
87.975156794151872
 30
0.0
 11
341.11353156298168
 21
88.725134793828829
 31
0.0
  0
LINE
  5
BDB
  8
1
 10
343.61353156298168
 20
94.025134793829025
 30
0.0
 11
343.61353156298168
 21
75.483674716407336
 31
0.0
  0
LINE
  5
BDC
  8
0
 10
348.11353156298168
 20
78.316594805087334
 30
0.0
 11
348.11353156298168
 21
82.725134793828602
 31
0.0
  0
ARC
  5
BDD
  8
0
 10
343.53978014223571
 20
77.225134793832225
 30
0.0
 40
2.5
 50
25.886129447825351
 51
154.1138705522242
  0
LINE
  5
BDE
  8
0
 10
341.29062140087598
 20
78.316594805085515
 30
0.0
 11
339.08921654932652
 21
78.316594805085515
 31
0.0
  0
LINE
  5
BDF
  8
0
 10
348.11353156298168
 20
78.316594805087334
 30
0.0
 11
345.78893888359448
 21
78.316594805087334
 31
0.0
  0
LINE
  5
BE0
  8
0
 10
331.11353156298168
 20
78.316594805087334
 30
0.0
 11
331.11353156298168
 21
82.725134793828602
 31
0.0
  0
LINE
  5
BE1
  8
0
 10
335.98921654932792
 20
78.316594805087334
 30
0.0
 11
331.11353156298168
 21
78.316594805087334
 31
0.0
  0
LINE
  5
BE2
  8
2
 10
348.11353156298168
 20
84.725134793834513
 30
0.0
 11
331.11353156298168
 21
84.725134793834513
 31
0.0
  0
ARC
  5
BE3
  8
0
 10
337.53921654932651
 20
76.951006394320984
 30
0.0
 40
2.0657520924870849
 50
41.380850822949249
 51
138.6191491770507
  0
ARC
  5
BE4
  8
0
 10
337.53978014223571
 20
79.475134793832694
 30
0.0
 40
1.500000000000004
 50
215.0847230212097
 51
324.88969072531239
  0
LINE
  5
BE5
  8
2
 10
342.55998424511449
 20
79.525134793828784
 30
0.0
 11
342.0135315629816
 21
79.525134793828784
 31
0.0
  0
LINE
  5
BE6
  8
0
 10
342.55998424511449
 20
79.525134793828784
 30
0.0
 11
344.51957603935722
 21
79.525134793828784
 31
0.0
  0
LINE
  5
BE7
  8
0
 10
43.12569900832068
 20
91.525134793828457
 30
0.0
 11
83.12569900832068
 21
91.525134793828457
 31
0.0
  0
LINE
  5
BE8
  8
0
 10
43.12569900832068
 20
87.725134793828488
 30
0.0
 11
83.12569900832068
 21
87.725134793828488
 31
0.0
  0
LINE
  5
BE9
  8
0
 10
43.12569900832068
 20
85.725134793828616
 30
0.0
 11
83.12569900832068
 21
85.725134793828616
 31
0.0
  0
LINE
  5
BEA
  8
3
 10
61.058699008320218
 20
85.725134793828616
 30
0.0
 11
61.058699008320218
 21
84.7251347938344
 31
0.0
  0
LINE
  5
BEB
  8
0
 10
60.625699008320233
 20
85.725134793828616
 30
0.0
 11
60.625699008320233
 21
84.7251347938344
 31
0.0
  0
LINE
  5
BEC
  8
3
 10
65.192699008320673
 20
85.725134793828616
 30
0.0
 11
65.192699008320233
 21
84.7251347938344
 31
0.0
  0
LINE
  5
BED
  8
0
 10
65.62569900832068
 20
85.725134793828616
 30
0.0
 11
65.625699008320225
 21
84.7251347938344
 31
0.0
  0
LINE
  5
BEE
  8
2
 10
60.625699008320233
 20
84.7251347938344
 30
0.0
 11
60.625699008320233
 21
80.425134793828875
 31
0.0
  0
LINE
  5
BEF
  8
2
 10
61.058699008320218
 20
84.725134793834513
 30
0.0
 11
61.058699008320218
 21
79.992134793829109
 31
0.0
  0
LINE
  5
BF0
  8
2
 10
65.192699008320673
 20
84.725134793834513
 30
0.0
 11
65.192699008320673
 21
79.992134793829109
 31
0.0
  0
LINE
  5
BF1
  8
2
 10
65.62569900832068
 20
84.7251347938344
 30
0.0
 11
65.625699008320225
 21
80.425134793828875
 31
0.0
  0
LINE
  5
BF2
  8
0
 10
43.12569900832068
 20
96.725134793828374
 30
0.0
 11
43.125699008320233
 21
82.725134793828488
 31
0.0
  0
LINE
  5
BF3
  8
0
 10
41.62569900832068
 20
82.725134793828346
 30
0.0
 11
58.625699008320218
 21
82.725134793828374
 31
0.0
  0
LINE
  5
BF4
  8
0
 10
64.179246326187695
 20
79.525134793828784
 30
0.0
 11
62.219654531944798
 21
79.525134793828784
 31
0.0
  0
LINE
  5
BF5
  8
2
 10
64.179246326187695
 20
79.525134793828784
 30
0.0
 11
64.725699008320589
 21
79.525134793828784
 31
0.0
  0
ARC
  5
BF6
  8
0
 10
69.199450429066474
 20
79.475134793832694
 30
0.0
 40
1.500000000000004
 50
215.11030927468749
 51
324.9152769787903
  0
ARC
  5
BF7
  8
0
 10
69.200014021975676
 20
76.951006394320984
 30
0.0
 40
2.0657520924870849
 50
41.380850822949249
 51
138.6191491770507
  0
LINE
  5
BF8
  8
0
 10
58.625699008320218
 20
84.725134793834513
 30
0.0
 11
75.625699008320225
 21
84.725134793834513
 31
0.0
  0
LINE
  5
BF9
  8
0
 10
70.750014021974039
 20
78.316594805087334
 30
0.0
 11
75.625699008320225
 21
78.316594805087334
 31
0.0
  0
LINE
  5
BFA
  8
0
 10
75.625699008320225
 20
78.316594805087334
 30
0.0
 11
75.625699008320225
 21
84.725134793834513
 31
0.0
  0
LINE
  5
BFB
  8
0
 10
58.625699008320218
 20
78.316594805087334
 30
0.0
 11
60.950291687707697
 21
78.316594805087334
 31
0.0
  0
LINE
  5
BFC
  8
0
 10
65.448609170426153
 20
78.316594805085515
 30
0.0
 11
67.650014021975494
 21
78.316594805085515
 31
0.0
  0
ARC
  5
BFD
  8
0
 10
63.199450429066466
 20
77.225134793832225
 30
0.0
 40
2.5
 50
25.886129447775801
 51
154.1138705521746
  0
LINE
  5
BFE
  8
0
 10
58.625699008320218
 20
78.316594805087334
 30
0.0
 11
58.625699008320218
 21
84.725134793834513
 31
0.0
  0
LINE
  5
BFF
  8
1
 10
63.125699008320233
 20
94.025134793829025
 30
0.0
 11
63.125699008320233
 21
75.483674716407336
 31
0.0
  0
LINE
  5
C00
  8
2
 10
65.192699008320673
 20
87.975156794151872
 30
0.0
 11
65.625699008320225
 21
88.725134793828829
 31
0.0
  0
LINE
  5
C01
  8
2
 10
60.625699008320233
 20
80.425134793828875
 30
0.0
 11
65.625699008320225
 21
80.425134793828875
 31
0.0
  0
LINE
  5
C02
  8
2
 10
64.725699008320589
 20
79.525134793828784
 30
0.0
 11
65.625699008320225
 21
80.425134793828875
 31
0.0
  0
LINE
  5
C03
  8
2
 10
60.625699008320233
 20
80.425134793828875
 30
0.0
 11
61.525699008320309
 21
79.525134793828784
 31
0.0
  0
LINE
  5
C04
  8
2
 10
61.058699008320218
 20
87.975156794151872
 30
0.0
 11
60.625699008320233
 21
88.725134793828829
 31
0.0
  0
LINE
  5
C05
  8
2
 10
60.625699008320233
 20
87.975156794151872
 30
0.0
 11
65.625699008320225
 21
87.975156794151872
 31
0.0
  0
LINE
  5
C06
  8
2
 10
61.525699008320309
 20
79.525134793828784
 30
0.0
 11
62.219654531944798
 21
79.525134793828784
 31
0.0
  0
LINE
  5
C07
  8
2
 10
58.125699008320233
 20
91.525134793828784
 30
0.0
 11
58.125699008320233
 21
91.225134793828829
 31
0.0
  0
LINE
  5
C08
  8
2
 10
58.125699008320233
 20
91.225134793828829
 30
0.0
 11
68.125699008320225
 21
91.225134793828829
 31
0.0
  0
LINE
  5
C09
  8
2
 10
68.125699008320225
 20
91.225134793828829
 30
0.0
 11
68.125699008320225
 21
91.525134793828784
 31
0.0
  0
LINE
  5
C0A
  8
2
 10
68.125699008320225
 20
91.525134793828784
 30
0.0
 11
58.125699008320233
 21
91.525134793828784
 31
0.0
  0
LINE
  5
C0B
  8
2
 10
58.125699008320233
 20
91.225134793828829
 30
0.0
 11
60.625699008320233
 21
88.725134793828829
 31
0.0
  0
LINE
  5
C0C
  8
2
 10
68.125699008320225
 20
91.225134793828829
 30
0.0
 11
65.625699008320225
 21
88.725134793828829
 31
0.0
  0
LINE
  5
C0D
  8
2
 10
60.625699008320233
 20
88.725134793828829
 30
0.0
 11
65.625699008320225
 21
88.725134793828829
 31
0.0
  0
LINE
  5
C0E
  8
2
 10
60.625699008320233
 20
88.725134793828829
 30
0.0
 11
60.62569900832068
 21
85.725134793828616
 31
0.0
  0
LINE
  5
C0F
  8
2
 10
61.058699008320218
 20
87.975156794151744
 30
0.0
 11
61.058699008320218
 21
85.725134793828616
 31
0.0
  0
LINE
  5
C10
  8
2
 10
65.192699008320233
 20
87.975156794151872
 30
0.0
 11
65.192699008320233
 21
85.725134793828616
 31
0.0
  0
LINE
  5
C11
  8
2
 10
65.62569900832068
 20
88.725134793828829
 30
0.0
 11
65.62569900832068
 21
85.725134793828616
 31
0.0
  0
ARC
  5
C12
  8
0
 10
177.0135315629816
 20
87.225134793828374
 30
0.0
 40
0.5
 50
359.99999999999682
 51
90.0
  0
ARC
  5
C13
  8
0
 10
184.2135315629819
 20
87.225134793828374
 30
0.0
 40
0.5
 50
90.0
 51
179.9999999999967
  0
ARC
  5
C14
  8
0
 10
183.41353156298169
 20
86.025134793828443
 30
0.0
 40
0.3
 50
270.0
 51
359.99999999999682
  0
ARC
  5
C15
  8
0
 10
177.8135315629815
 20
86.025134793828443
 30
0.0
 40
0.3
 50
179.9999999999967
 51
270.0
  0
LINE
  5
C16
  8
0
 10
177.0135315629816
 20
87.725134793828374
 30
0.0
 11
169.11353156298151
 21
87.725134793828374
 31
0.0
  0
LINE
  5
C17
  8
0
 10
183.71353156298181
 20
87.225134793828374
 30
0.0
 11
183.71353156298181
 21
86.025134793828329
 31
0.0
  0
LINE
  5
C18
  8
0
 10
177.5135315629816
 20
87.225134793828374
 30
0.0
 11
177.5135315629816
 21
86.025134793828443
 31
0.0
  0
LINE
  5
C19
  8
0
 10
183.41353156298169
 20
85.725134793828374
 30
0.0
 11
177.8135315629815
 21
85.725134793828374
 31
0.0
  0
LINE
  5
C1A
  8
0
 10
195.69733356298161
 20
87.725134793828374
 30
0.0
 11
184.2135315629819
 21
87.725134793828374
 31
0.0
  0
LINE
  5
C1B
  8
0
 10
168.61353156298151
 20
88.225134793828374
 30
0.0
 11
168.61353156298151
 21
91.025134793828443
 31
0.0
  0
LINE
  5
C1C
  8
0
 10
169.11353156298151
 20
91.525134793828457
 30
0.0
 11
195.62028356298089
 21
91.525134793828315
 31
0.0
  0
ARC
  5
C1D
  8
0
 10
169.11353156298151
 20
88.225134793828374
 30
0.0
 40
0.5
 50
180.0
 51
270.0
  0
ARC
  5
C1E
  8
0
 10
169.11353156298151
 20
91.025134793828443
 30
0.0
 40
0.5
 50
90.0
 51
180.0
  0
LINE
  5
C21
  8
2
 10
175.61353156298151
 20
91.225134793828488
 30
0.0
 11
175.61353156298151
 21
91.525134793828457
 31
0.0
  0
LINE
  5
C22
  8
2
 10
175.61353156298151
 20
91.525134793828457
 30
0.0
 11
185.61353156298151
 21
91.525134793828457
 31
0.0
  0
LINE
  5
C23
  8
2
 10
185.61353156298151
 20
91.525134793828457
 30
0.0
 11
185.61353156298151
 21
91.225134793828488
 31
0.0
  0
LINE
  5
C24
  8
2
 10
185.61353156298151
 20
91.225134793828488
 30
0.0
 11
175.61353156298151
 21
91.225134793828488
 31
0.0
  0
LINE
  5
C25
  8
1
 10
180.61353156298151
 20
94.025134793828457
 30
0.0
 11
180.61353156298151
 21
75.483674716406881
 31
0.0
  0
LINE
  5
C26
  8
2
 10
175.61353156298151
 20
91.225134793828488
 30
0.0
 11
178.11353156298151
 21
88.725134793828374
 31
0.0
  0
LINE
  5
C27
  8
2
 10
185.61353156298151
 20
91.225134793828488
 30
0.0
 11
183.11353156298151
 21
88.725134793828374
 31
0.0
  0
LINE
  5
C28
  8
2
 10
178.5465315629815
 20
87.975156794151417
 30
0.0
 11
178.11353156298151
 21
88.725134793828374
 31
0.0
  0
LINE
  5
C29
  8
2
 10
182.68053156298191
 20
87.975156794151417
 30
0.0
 11
183.11353156298151
 21
88.725134793828374
 31
0.0
  0
LINE
  5
C2A
  8
2
 10
183.11353156298151
 20
88.725134793828374
 30
0.0
 11
183.11353156298151
 21
85.725134793828474
 31
0.0
  0
LINE
  5
C2B
  8
2
 10
178.11353156298151
 20
88.725134793828488
 30
0.0
 11
178.11353156298151
 21
85.725134793828474
 31
0.0
  0
LINE
  5
C2C
  8
2
 10
183.11353156298151
 20
88.725134793828374
 30
0.0
 11
178.11353156298151
 21
88.725134793828374
 31
0.0
  0
LINE
  5
C2D
  8
2
 10
182.68053156298191
 20
87.975156794151545
 30
0.0
 11
182.68053156298151
 21
85.725134793828474
 31
0.0
  0
LINE
  5
C2E
  8
2
 10
183.11353156298151
 20
87.975156794151417
 30
0.0
 11
178.11353156298151
 21
87.975156794151417
 31
0.0
  0
LINE
  5
C2F
  8
2
 10
178.5465315629815
 20
87.975156794151417
 30
0.0
 11
178.5465315629813
 21
85.725134793828474
 31
0.0
  0
LINE
  5
C30
  8
2
 10
183.11353156298151
 20
80.425134793828519
 30
0.0
 11
178.11353156298151
 21
80.425134793828519
 31
0.0
  0
LINE
  5
C31
  8
2
 10
179.0135315629816
 20
79.525134793828443
 30
0.0
 11
178.11353156298151
 21
80.42513479382842
 31
0.0
  0
LINE
  5
C32
  8
2
 10
183.11353156298151
 20
80.42513479382842
 30
0.0
 11
182.21353156298159
 21
79.525134793828443
 31
0.0
  0
LINE
  5
C33
  8
2
 10
182.21353156298159
 20
79.525134793828443
 30
0.0
 11
179.0135315629816
 21
79.525134793828443
 31
0.0
  0
ARC
  5
C34
  8
0
 10
171.43648654787779
 20
90.924757779517336
 30
0.0
 40
16.0
 50
309.7943651053626
 51
334.38837495678263
  0
ARC
  5
C35
  8
0
 10
185.4135315629816
 20
84.224592658733968
 30
0.0
 40
0.5
 50
334.38837495695452
 51
90.066206149556251
  0
LINE
  5
C36
  8
0
 10
185.44509768112559
 20
84.725134793834059
 30
0.0
 11
183.4379845138221
 21
84.725134793834059
 31
0.0
  0
ARC
  5
C37
  8
0
 10
183.4379845138221
 20
84.425134793833976
 30
0.0
 40
0.3
 50
90.0
 51
134.9999999998434
1001
GENIUS_GENODEF_13
1002
{
1000
HIER
1070
     0
1002
}
1002
{
1000
MANEDIT
1070
     0
1002
}
1002
{
1000
NOSEL
1070
     0
1002
}
1002
{
1000
BEHIND
1070
     0
1002
}
1002
{
1000
REACTOR
1002
}
1001
GENIUS_GENOBJ-N-FIL_13
1002
{
1000
OWNER
1000
GEN
1002
}
  0
ARC
  5
C38
  8
0
 10
175.8135315629815
 20
84.224592658733968
 30
0.0
 40
0.5
 50
89.933793850443749
 51
205.61162504304551
  0
LINE
  5
C39
  8
0
 10
178.52593141012539
 20
84.112547045663746
 30
0.0
 11
178.0013657447991
 21
84.634861319290295
 31
0.0
  0
LINE
  5
C3A
  8
0
 10
177.7900370598683
 20
84.722273370837556
 30
0.0
 11
175.80813123576971
 21
84.724563494349354
 31
0.0
  0
ARC
  5
C3B
  8
0
 10
177.78969040535731
 20
84.422273571119945
 30
0.0
 40
0.3
 50
45.123218564764528
 51
89.933793850443749
1001
GENIUS_GENODEF_13
1002
{
1000
HIER
1070
     0
1002
}
1002
{
1000
MANEDIT
1070
     0
1002
}
1002
{
1000
NOSEL
1070
     0
1002
}
1002
{
1000
BEHIND
1070
     0
1002
}
1002
{
1000
REACTOR
1002
}
1001
GENIUS_GENOBJ-N-FIL_13
1002
{
1000
OWNER
1000
GEN
1002
}
  0
ARC
  5
C3C
  8
0
 10
189.79057657808539
 20
90.924757779517336
 30
0.0
 40
16.0
 50
205.61162504321749
 51
230.20023089623641
  0
ARC
  5
C3D
  8
0
 10
180.61372044510699
 20
80.325134793834096
 30
0.0
 40
2.0
 50
237.8305670071779
 51
302.11742282722048
  0
ARC
  5
C3E
  8
0
 10
180.61409515589071
 20
79.483674676702194
 30
0.0
 40
1.500000000000004
 50
202.703529118738
 51
337.36124631451418
  0
LINE
  5
C3F
  8
2
 10
183.11353156298171
 20
84.524945911706141
 30
0.0
 11
183.11353156298151
 21
80.42513479382842
 31
0.0
  0
LINE
  5
C40
  8
2
 10
182.68053156298171
 20
84.093855151256335
 30
0.0
 11
182.68053156298171
 21
79.992134793828654
 31
0.0
  0
LINE
  5
C41
  8
2
 10
178.5465315629815
 20
84.09203530693037
 30
0.0
 11
178.5465315629815
 21
79.992134793828654
 31
0.0
  0
LINE
  5
C42
  8
2
 10
178.11353156298151
 20
84.523176907362085
 30
0.0
 11
178.11353156298151
 21
80.42513479382842
 31
0.0
  0
LINE
  5
C43
  8
0
 10
178.11353156298151
 20
85.725134793828474
 30
0.0
 11
178.11353156298151
 21
84.523176907361972
 31
0.0
  0
LINE
  5
C44
  8
0
 10
183.11353156298171
 20
85.725134793828474
 30
0.0
 11
183.11353156298151
 21
84.524945911706141
 31
0.0
  0
LINE
  5
C45
  8
3
 10
182.68053156298171
 20
85.725134793828474
 30
0.0
 11
182.68053156298191
 21
84.093855151256435
 31
0.0
  0
LINE
  5
C46
  8
3
 10
178.5465315629815
 20
85.725134793828474
 30
0.0
 11
178.5465315629815
 21
84.093855151255767
 31
0.0
  0
LINE
  5
C47
  8
0
 10
183.22585247946671
 20
84.637266828190604
 30
0.0
 11
182.70158841075059
 21
84.113002759477567
 31
0.0
  0
ARC
  5
C48
  8
0
 10
182.48945637639531
 20
84.325134793834195
 30
0.0
 40
0.3
 50
270.0
 51
314.9999999998434
1001
GENIUS_GENODEF_13
1002
{
1000
HIER
1070
     0
1002
}
1002
{
1000
MANEDIT
1070
     0
1002
}
1002
{
1000
NOSEL
1070
     0
1002
}
1002
{
1000
BEHIND
1070
     0
1002
}
1002
{
1000
REACTOR
1002
}
1001
GENIUS_GENOBJ-N-FIL_13
1002
{
1000
OWNER
1000
GEN
1002
}
  0
ARC
  5
C49
  8
0
 10
178.73760674956719
 20
84.325134793834067
 30
0.0
 40
0.3
 50
225.1232185647645
 51
270.0
1001
GENIUS_GENODEF_13
1002
{
1000
HIER
1070
     0
1002
}
1002
{
1000
MANEDIT
1070
     0
1002
}
1002
{
1000
NOSEL
1070
     0
1002
}
1002
{
1000
BEHIND
1070
     0
1002
}
1002
{
1000
REACTOR
1002
}
1001
GENIUS_GENOBJ-N-FIL_13
1002
{
1000
OWNER
1000
GEN
1002
}
  0
LINE
  5
C4A
  8
0
 10
182.48945637639531
 20
84.025134793834127
 30
0.0
 11
178.73760674956719
 21
84.025134793834127
 31
0.0
  0
LINE
  5
C52
  8
1
 10
215.11353156298151
 20
89.725134793828374
 30
0.0
 11
191.11353156298151
 21
89.725134793828374
 31
0.0
  0
LINE
  5
C53
  8
1
 10
203.11353156298151
 20
101.7251347938284
 30
0.0
 11
203.11353156298151
 21
77.725134793828374
 31
0.0
  0
CIRCLE
  5
C55
  8
2
 10
203.11353156298151
 20
89.725134793828374
 30
0.0
 40
4.0
  0
ARC
  5
C5E
  8
0
 10
115.1256990083197
 20
77.425135613452085
 30
0.0
 40
1.9999999999994309
 50
205.6079931338526
 51
334.39200686618233
  0
LINE
  5
C5F
  8
0
 10
113.0756990083209
 20
76.425135613452426
 30
0.0
 11
107.58419900832109
 21
76.425135613452426
 31
0.0
  0
ARC
  5
C60
  8
0
 10
115.12569900832089
 20
72.990382686550674
 30
0.0
 40
4.0000034586058391
 50
59.169532136227218
 51
120.8304678637744
  0
LINE
  5
C61
  8
0
 10
102.6671990083202
 20
76.425135613452426
 30
0.0
 11
98.625699008320453
 21
76.425135613452426
 31
0.0
  0
ARC
  5
C62
  8
0
 10
105.12569900832059
 20
73.269861371039823
 30
0.0
 40
3.9999972243530402
 50
52.075291847549337
 51
127.92470815245061
  0
LINE
  5
C63
  8
0
 10
121.6256990083204
 20
76.425135613452426
 30
0.0
 11
121.62569900832059
 21
82.725134793828488
 31
0.0
  0
LINE
  5
C64
  8
0
 10
98.625699008320694
 20
82.725134793828488
 30
0.0
 11
98.625699008320453
 21
76.425135613452426
 31
0.0
  0
LINE
  5
C65
  8
2
 10
121.6256990083204
 20
83.725135613452494
 30
0.0
 11
98.625699008320453
 21
83.725135613452494
 31
0.0
  0
LINE
  5
C66
  8
0
 10
121.6256990083204
 20
76.425135613452426
 30
0.0
 11
117.17569900832081
 21
76.425135613452426
 31
0.0
  0
LINE
  5
C67
  8
2
 10
121.6256990083204
 20
83.225135613452494
 30
0.0
 11
98.625699008320453
 21
83.225135613452494
 31
0.0
  0
LINE
  5
C68
  8
2
 10
108.12569900832059
 20
78.525134793828556
 30
0.0
 11
107.12569900832059
 21
77.525134793828556
 31
0.0
  0
LINE
  5
C69
  8
2
 10
103.12569900832069
 20
77.525134793828556
 30
0.0
 11
102.12569900832069
 21
78.525134793828556
 31
0.0
  0
LINE
  5
C6A
  8
2
 10
107.12569900832059
 20
77.525134793828556
 30
0.0
 11
103.12569900832069
 21
77.525134793828556
 31
0.0
  0
LINE
  5
C6B
  8
2
 10
102.66719900832069
 20
87.287229281530244
 30
0.0
 11
102.12569900832069
 21
88.225134793828815
 31
0.0
  0
LINE
  5
C6C
  8
2
 10
107.58419900832079
 20
87.287229281530244
 30
0.0
 11
108.12569900832059
 21
88.225134793828616
 31
0.0
  0
LINE
  5
C6D
  8
2
 10
102.12569900832069
 20
87.287229281530244
 30
0.0
 11
108.12569900832059
 21
87.287229281530244
 31
0.0
  0
LINE
  5
C6E
  8
2
 10
102.12569900832069
 20
78.525134793828556
 30
0.0
 11
108.12569900832059
 21
78.525134793828556
 31
0.0
  0
LINE
  5
C6F
  8
2
 10
102.12569900832069
 20
88.225134793828616
 30
0.0
 11
108.12569900832059
 21
88.225134793828616
 31
0.0
  0
LINE
  5
C70
  8
2
 10
107.58419900832079
 20
87.287229281530244
 30
0.0
 11
107.58419900832079
 21
77.983634793828742
 31
0.0
  0
LINE
  5
C71
  8
2
 10
108.12569900832059
 20
88.225134793828616
 30
0.0
 11
108.12569900832059
 21
78.525134793828556
 31
0.0
  0
LINE
  5
C72
  8
2
 10
102.66719900832091
 20
87.287229281530244
 30
0.0
 11
102.66719900832069
 21
77.983634793828742
 31
0.0
  0
LINE
  5
C73
  8
2
 10
102.12569900832069
 20
88.225134793828616
 30
0.0
 11
102.12569900832069
 21
78.525134793828556
 31
0.0
  0
LINE
  5
C74
  8
2
 10
99.12569900832068
 20
91.225134793828602
 30
0.0
 11
102.12569900832069
 21
88.225134793828616
 31
0.0
  0
LINE
  5
C75
  8
2
 10
111.12569900832059
 20
91.225134793828602
 30
0.0
 11
108.12569900832059
 21
88.225134793828616
 31
0.0
  0
LINE
  5
C76
  8
2
 10
111.12569900832059
 20
91.525134793828556
 30
0.0
 11
111.12569900832059
 21
91.225134793828602
 31
0.0
  0
LINE
  5
C77
  8
2
 10
111.12569900832059
 20
91.225134793828602
 30
0.0
 11
99.12569900832068
 21
91.225134793828602
 31
0.0
  0
LINE
  5
C78
  8
2
 10
99.12569900832068
 20
91.225134793828602
 30
0.0
 11
99.12569900832068
 21
91.525134793828556
 31
0.0
  0
LINE
  5
C79
  8
2
 10
99.12569900832068
 20
91.525134793828556
 30
0.0
 11
111.12569900832059
 21
91.525134793828556
 31
0.0
  0
LINE
  5
C7A
  8
2
 10
111.12569900832059
 20
91.525134793828556
 30
0.0
 11
111.12569900832059
 21
91.225134793828602
 31
0.0
  0
ARC
  5
C7B
  8
0
 10
291.61353156298242
 20
77.425135613451971
 30
0.0
 40
1.9999999999994309
 50
205.60799313381781
 51
334.39200686614731
  0
LINE
  5
C7C
  8
0
 10
293.66353156298118
 20
76.425135613452312
 30
0.0
 11
299.15503156298109
 21
76.425135613452312
 31
0.0
  0
ARC
  5
C7D
  8
0
 10
291.61353156298128
 20
72.990382686550561
 30
0.0
 40
4.0000034586058391
 50
59.169532136225548
 51
120.8304678637728
  0
LINE
  5
C7E
  8
0
 10
304.07203156298192
 20
76.425135613452312
 30
0.0
 11
308.11353156298179
 21
76.425135613452312
 31
0.0
  0
ARC
  5
C7F
  8
0
 10
301.61353156298151
 20
73.269861371039724
 30
0.0
 40
3.9999972243530402
 50
52.075291847549337
 51
127.92470815245061
  0
LINE
  5
C80
  8
0
 10
285.11353156298179
 20
76.425135613452312
 30
0.0
 11
285.11353156298179
 21
83.725135613452267
 31
0.0
  0
LINE
  5
C81
  8
0
 10
308.11353156298179
 20
83.725135613452267
 30
0.0
 11
308.11353156298179
 21
76.425135613452312
 31
0.0
  0
LINE
  5
C82
  8
0
 10
285.11353156298179
 20
83.725135613452267
 30
0.0
 11
308.11353156298179
 21
83.725135613452267
 31
0.0
  0
LINE
  5
C83
  8
0
 10
285.11353156298179
 20
76.425135613452312
 30
0.0
 11
289.56353156298132
 21
76.425135613452312
 31
0.0
  0
LINE
  5
C84
  8
0
 10
285.11353156298179
 20
83.225135613452366
 30
0.0
 11
308.11353156298179
 21
83.225135613452366
 31
0.0
  0
LINE
  5
C85
  8
2
 10
304.61353156298151
 20
78.525134793828443
 30
0.0
 11
303.61353156298151
 21
77.525134793828443
 31
0.0
  0
LINE
  5
C86
  8
2
 10
299.61353156298151
 20
77.525134793828443
 30
0.0
 11
298.61353156298151
 21
78.525134793828443
 31
0.0
  0
LINE
  5
C87
  8
2
 10
303.61353156298151
 20
77.525134793828443
 30
0.0
 11
299.61353156298151
 21
77.525134793828443
 31
0.0
  0
LINE
  5
C88
  8
2
 10
299.15503156298161
 20
87.287229281530244
 30
0.0
 11
298.61353156298151
 21
88.225134793828616
 31
0.0
  0
LINE
  5
C89
  8
2
 10
304.07203156298152
 20
87.287229281530244
 30
0.0
 11
304.61353156298151
 21
88.225134793828374
 31
0.0
  0
LINE
  5
C8A
  8
2
 10
298.61353156298151
 20
87.287229281530244
 30
0.0
 11
304.61353156298151
 21
87.287229281530244
 31
0.0
  0
LINE
  5
C8B
  8
2
 10
298.61353156298151
 20
78.525134793828443
 30
0.0
 11
304.61353156298151
 21
78.525134793828443
 31
0.0
  0
LINE
  5
C8C
  8
2
 10
304.61353156298151
 20
88.225134793828374
 30
0.0
 11
304.61353156298151
 21
84.42513479382842
 31
0.0
  0
LINE
  5
C8D
  8
2
 10
304.07203156298152
 20
87.287229281530244
 30
0.0
 11
304.07203156298152
 21
84.425134793828647
 31
0.0
  0
LINE
  5
C8E
  8
2
 10
299.15503156298161
 20
87.287229281530244
 30
0.0
 11
299.15503156298161
 21
84.425134793828647
 31
0.0
  0
LINE
  5
C8F
  8
2
 10
298.61353156298151
 20
88.225134793828616
 30
0.0
 11
298.61353156298151
 21
84.42513479382842
 31
0.0
  0
LINE
  5
C90
  8
2
 10
298.61353156298151
 20
88.225134793828374
 30
0.0
 11
304.61353156298151
 21
88.225134793828374
 31
0.0
  0
LINE
  5
C91
  8
2
 10
304.07203156298152
 20
83.725135613452267
 30
0.0
 11
304.07203156298152
 21
77.983634793828628
 31
0.0
  0
LINE
  5
C92
  8
2
 10
304.61353156298151
 20
83.725135613452267
 30
0.0
 11
304.61353156298151
 21
78.525134793828443
 31
0.0
  0
LINE
  5
C93
  8
2
 10
299.15503156298161
 20
83.725135613452267
 30
0.0
 11
299.15503156298161
 21
77.983634793828628
 31
0.0
  0
LINE
  5
C94
  8
2
 10
298.61353156298151
 20
83.725135613452267
 30
0.0
 11
298.61353156298151
 21
78.525134793828443
 31
0.0
  0
LINE
  5
C95
  8
3
 10
304.07203156298152
 20
84.425134793828647
 30
0.0
 11
304.07203156298169
 21
83.725135613452267
 31
0.0
  0
LINE
  5
C96
  8
0
 10
304.61353156298151
 20
84.42513479382842
 30
0.0
 11
304.61353156298151
 21
83.725135613452267
 31
0.0
  0
LINE
  5
C97
  8
3
 10
299.15503156298161
 20
84.425134793828647
 30
0.0
 11
299.15503156298161
 21
83.725135613452267
 31
0.0
  0
LINE
  5
C98
  8
0
 10
298.61353156298151
 20
84.42513479382842
 30
0.0
 11
298.61353156298151
 21
83.725135613452267
 31
0.0
  0
LINE
  5
C99
  8
2
 10
295.61353156298151
 20
91.225134793828374
 30
0.0
 11
298.61353156298151
 21
88.225134793828374
 31
0.0
  0
LINE
  5
C9A
  8
2
 10
307.61353156298151
 20
91.225134793828374
 30
0.0
 11
304.61353156298151
 21
88.225134793828374
 31
0.0
  0
LINE
  5
C9B
  8
2
 10
307.61353156298151
 20
91.525134793828556
 30
0.0
 11
307.61353156298151
 21
91.225134793828374
 31
0.0
  0
LINE
  5
C9C
  8
2
 10
307.61353156298151
 20
91.225134793828374
 30
0.0
 11
295.61353156298151
 21
91.225134793828374
 31
0.0
  0
LINE
  5
C9D
  8
2
 10
295.61353156298151
 20
91.225134793828374
 30
0.0
 11
295.61353156298151
 21
91.525134793828556
 31
0.0
  0
LINE
  5
C9E
  8
2
 10
295.61353156298151
 20
91.525134793828556
 30
0.0
 11
307.61353156298151
 21
91.525134793828556
 31
0.0
  0
LINE
  5
C9F
  8
2
 10
307.61353156298151
 20
91.525134793828556
 30
0.0
 11
307.61353156298151
 21
91.225134793828374
 31
0.0
  0
LINE
  5
CA0
  8
0
 10
281.61353156298151
 20
96.725134793828374
 30
0.0
 11
281.61353156298151
 21
82.725134793828374
 31
0.0
  0
LINE
  5
CA1
  8
0
 10
321.61353156298151
 20
96.725134793828374
 30
0.0
 11
321.61353156298151
 21
82.725134793828374
 31
0.0
  0
LINE
  5
CA2
  8
0
 10
323.61353156298151
 20
96.725134793828374
 30
0.0
 11
323.61353156298151
 21
82.725134793828374
 31
0.0
  0
LINE
  5
CA3
  8
0
 10
363.61353156298151
 20
96.725134793828374
 30
0.0
 11
363.61353156298151
 21
82.725134793828715
 31
0.0
  0
LINE
  5
CA4
  8
0
 10
280.11353156298151
 20
96.725134793828389
 30
0.0
 11
365.11353156298151
 21
96.725134793828374
 31
0.0
  0
LINE
  5
CA5
  8
0
 10
281.61353156298151
 20
91.525134793828556
 30
0.0
 11
321.61353156298128
 21
91.525134793828556
 31
0.0
  0
LINE
  5
CA6
  8
0
 10
281.61353156298151
 20
87.725134793828374
 30
0.0
 11
321.61353156298151
 21
87.725134793828374
 31
0.0
  0
LINE
  5
CA7
  8
1
 10
275.11353156298151
 20
89.725134793828374
 30
0.0
 11
370.11353156298151
 21
89.725134793828374
 31
0.0
  0
LINE
  5
CA8
  8
1
 10
301.61353156298151
 20
94.025134793828556
 30
0.0
 11
301.61353156298151
 21
72.925135613452539
 31
0.0
  0
LINE
  5
CA9
  8
0
 10
280.11353156298151
 20
82.725134793828417
 30
0.0
 11
285.11353156298179
 21
82.725134793828261
 31
0.0
  0
LINE
  5
CAA
  8
1
 10
105.12569900832059
 20
94.025134793828556
 30
0.0
 11
105.12569900832059
 21
72.925135613452539
 31
0.0
  0
LINE
  5
CAB
  8
1
 10
36.62569900832068
 20
89.725134793828374
 30
0.0
 11
131.62569900832071
 21
89.725134793828374
 31
0.0
  0
LINE
  5
CAC
  8
0
 10
41.62569900832068
 20
96.725134793828374
 30
0.0
 11
126.62569900832059
 21
96.725134793828374
 31
0.0
  0
LINE
  5
CAD
  8
0
 10
125.12569900832069
 20
96.725134793828374
 30
0.0
 11
125.1256990083204
 21
82.725134793828374
 31
0.0
  0
LINE
  5
CAE
  8
0
 10
85.125699008320666
 20
96.725134793828374
 30
0.0
 11
85.125699008320666
 21
82.725134793828374
 31
0.0
  0
LINE
  5
CAF
  8
0
 10
83.12569900832068
 20
96.725134793828374
 30
0.0
 11
83.12569900832068
 21
82.725134793828374
 31
0.0
  0
LINE
  5
CB0
  8
2
 10
227.61353156298151
 20
78.525134793828443
 30
0.0
 11
233.61353156298151
 21
78.525134793828443
 31
0.0
  0
LINE
  5
CB1
  8
2
 10
228.61353156298151
 20
77.525134793828443
 30
0.0
 11
227.61353156298151
 21
78.525134793828443
 31
0.0
  0
LINE
  5
CB2
  8
2
 10
233.61353156298151
 20
78.525134793828443
 30
0.0
 11
232.61353156298151
 21
77.525134793828443
 31
0.0
  0
LINE
  5
CB3
  8
2
 10
232.61353156298151
 20
77.525134793828443
 30
0.0
 11
228.61353156298151
 21
77.525134793828443
 31
0.0
  0
LINE
  5
CB4
  8
0
 10
237.06353155532159
 20
83.225134625307874
 30
0.0
 11
234.8635315400013
 21
83.225134962349316
 31
0.0
  0
ARC
  5
CB5
  8
0
 10
237.06353152468111
 20
83.025134625307814
 30
0.0
 40
0.2
 50
336.21279093384049
 51
89.999991222263475
  0
ARC
  5
CB6
  8
0
 10
223.3510851227295
 20
88.783135215661318
 30
0.0
 40
15.072284513215161
 50
311.15274449449521
 51
337.23534240860113
  0
ARC
  5
CB7
  8
0
 10
237.87597880876271
 20
88.783134103049406
 30
0.0
 40
15.072284513215161
 50
202.76464881364441
 51
228.84801412484791
  0
ARC
  5
CB8
  8
0
 10
226.5635315629813
 20
83.525135613452221
 30
0.0
 40
0.2
 50
90.0
 51
179.99999561112841
  0
ARC
  5
CB9
  8
0
 10
234.66353156298169
 20
83.525135613452335
 30
0.0
 40
0.2
 50
359.99999561111542
 51
90.0
  0
ARC
  5
CBA
  8
0
 10
224.1635315246815
 20
83.025135613452335
 30
0.0
 40
0.2
 50
89.99999999998046
 51
203.787200288409
  0
LINE
  5
CBB
  8
0
 10
224.1635315246815
 20
83.225135613452366
 30
0.0
 11
226.3635315400013
 21
83.225135613452267
 31
0.0
  0
LINE
  5
CBC
  8
0
 10
226.36353156298151
 20
83.525135628772318
 30
0.0
 11
226.3635315400013
 21
83.225135613452494
 31
0.0
  0
LINE
  5
CBD
  8
0
 10
234.86353156298151
 20
83.525135598132223
 30
0.0
 11
234.8635315400013
 21
83.225135613452366
 31
0.0
  0
ARC
  5
CBE
  8
0
 10
230.61353253197581
 20
80.425135613468797
 30
0.0
 40
4.0000000000006821
 50
228.3943135955457
 51
311.60569100798011
  0
LINE
  5
CBF
  8
0
 10
226.5635315629813
 20
83.725135613452267
 30
0.0
 11
234.66353156298169
 21
83.725135613452267
 31
0.0
  0
ARC
  5
CC0
  8
0
 10
230.61353157830149
 20
77.425135613451971
 30
0.0
 40
1.9999999999994309
 50
194.4774939715451
 51
345.52246960078099
  0
LINE
  5
CC1
  8
2
 10
233.07203156298149
 20
83.725135613452267
 30
0.0
 11
233.07203156298149
 21
77.983634793828628
 31
0.0
  0
LINE
  5
CC2
  8
2
 10
233.61353156298151
 20
83.725135613452267
 30
0.0
 11
233.61353156298151
 21
78.525134793828443
 31
0.0
  0
LINE
  5
CC3
  8
2
 10
228.15503156298129
 20
83.725135613452267
 30
0.0
 11
228.15503156298129
 21
77.983634793828628
 31
0.0
  0
LINE
  5
CC4
  8
2
 10
227.61353156298151
 20
83.725135613452267
 30
0.0
 11
227.61353156298151
 21
78.525134793828443
 31
0.0
  0
LINE
  5
CC5
  8
2
 10
236.61353156298151
 20
91.525134793828556
 30
0.0
 11
236.61353156298151
 21
91.225134793828374
 31
0.0
  0
LINE
  5
CC6
  8
2
 10
236.61353156298151
 20
91.225134793828374
 30
0.0
 11
224.61353156298151
 21
91.225134793828374
 31
0.0
  0
LINE
  5
CC7
  8
2
 10
224.61353156298151
 20
91.225134793828374
 30
0.0
 11
224.61353156298151
 21
91.525134793828556
 31
0.0
  0
LINE
  5
CC8
  8
2
 10
224.61353156298151
 20
91.525134793828556
 30
0.0
 11
236.61353156298151
 21
91.525134793828556
 31
0.0
  0
LINE
  5
CC9
  8
2
 10
236.61353156298151
 20
91.525134793828556
 30
0.0
 11
236.61353156298151
 21
91.225134793828374
 31
0.0
  0
LINE
  5
CCA
  8
1
 10
230.61353156298151
 20
94.025134793828556
 30
0.0
 11
230.61353156298151
 21
72.925135613452539
 31
0.0
  0
LINE
  5
CCB
  8
2
 10
236.61353156298151
 20
91.225134793828374
 30
0.0
 11
233.61353156298151
 21
88.225134793828374
 31
0.0
  0
LINE
  5
CCC
  8
2
 10
224.61353156298151
 20
91.225134793828374
 30
0.0
 11
227.61353156298151
 21
88.225134793828374
 31
0.0
  0
LINE
  5
CCD
  8
2
 10
228.15503156298129
 20
87.287229281530244
 30
0.0
 11
227.61353156298151
 21
88.225134793828616
 31
0.0
  0
LINE
  5
CCE
  8
2
 10
233.07203156298149
 20
87.287229281530244
 30
0.0
 11
233.61353156298151
 21
88.225134793828374
 31
0.0
  0
LINE
  5
CCF
  8
2
 10
227.61353156298151
 20
87.287229281530244
 30
0.0
 11
233.61353156298151
 21
87.287229281530244
 31
0.0
  0
LINE
  5
CD0
  8
2
 10
233.61353156298151
 20
88.225134793828374
 30
0.0
 11
233.61353156298151
 21
84.42513479382842
 31
0.0
  0
LINE
  5
CD1
  8
2
 10
233.07203156298149
 20
87.287229281530244
 30
0.0
 11
233.07203156298169
 21
84.425134793828647
 31
0.0
  0
LINE
  5
CD2
  8
2
 10
228.15503156298129
 20
87.287229281530244
 30
0.0
 11
228.15503156298129
 21
84.425134793828647
 31
0.0
  0
LINE
  5
CD3
  8
2
 10
227.61353156298151
 20
88.225134793828616
 30
0.0
 11
227.61353156298151
 21
84.42513479382842
 31
0.0
  0
LINE
  5
CD4
  8
2
 10
227.61353156298151
 20
88.225134793828374
 30
0.0
 11
233.61353156298151
 21
88.225134793828374
 31
0.0
  0
LINE
  5
CD5
  8
3
 10
233.07203156298169
 20
84.425134793828647
 30
0.0
 11
233.07203156298169
 21
83.725135613452267
 31
0.0
  0
LINE
  5
CD6
  8
0
 10
233.61353156298151
 20
84.42513479382842
 30
0.0
 11
233.61353156298151
 21
83.725135613452267
 31
0.0
  0
LINE
  5
CD7
  8
3
 10
228.15503156298129
 20
84.425134793828647
 30
0.0
 11
228.15503156298129
 21
83.725135613452267
 31
0.0
  0
LINE
  5
CD8
  8
0
 10
227.61353156298151
 20
84.42513479382842
 30
0.0
 11
227.61353156298151
 21
83.725135613452267
 31
0.0
  0
LINE
  5
CD9
  8
0
 10
281.61353156298151
 20
84.42513479382842
 30
0.0
 11
321.61353156298151
 21
84.42513479382842
 31
0.0
  0
LINE
  5
CDA
  8
0
 10
308.11353156298179
 20
82.725134793828261
 30
0.0
 11
365.11353156298151
 21
82.725134793828715
 31
0.0
  0
LINE
  5
CDB
  8
2
 10
98.625699008320453
 20
83.725135613452494
 30
0.0
 11
98.625699008320694
 21
82.725134793828488
 31
0.0
  0
LINE
  5
CDC
  8
2
 10
121.6256990083204
 20
83.725135613452494
 30
0.0
 11
121.62569900832059
 21
82.725134793828488
 31
0.0
  0
LINE
  5
CDD
  8
0
 10
75.625699008320453
 20
82.725134793828488
 30
0.0
 11
126.62569900832069
 21
82.725134793828346
 31
0.0
  0
LINE
  5
CDE
  8
1
 10
203.11353156298151
 20
130.2251347938284
 30
0.0
 11
203.11353156298151
 21
225.2251347938284
 31
0.0
  0
LINE
  5
CDF
  8
1
 10
230.61353156298151
 20
147.97513479382829
 30
0.0
 11
230.61353156298151
 21
165.4751347938284
 31
0.0
  0
LINE
  5
CE0
  8
1
 10
239.36353156298151
 20
156.72513479382829
 30
0.0
 11
221.86353156298151
 21
156.72513479382829
 31
0.0
  0
LINE
  5
CE1
  8
0
 10
168.6135315629819
 20
218.72513479382849
 30
0.0
 11
210.11353156298199
 21
218.7251347938284
 31
0.0
  0
LINE
  5
CE2
  8
0
 10
168.61353156298219
 20
178.72513479382869
 30
0.0
 11
210.11353156298151
 21
178.7251347938284
 31
0.0
  0
LINE
  5
CE5
  8
0
 10
196.11353156298151
 20
135.2251347938284
 30
0.0
 11
196.11353156298171
 21
178.7251347938284
 31
0.0
  0
LINE
  5
CE6
  8
0
 10
210.11353156298151
 20
176.7251347938286
 30
0.0
 11
210.11353156298151
 21
220.2251347938284
 31
0.0
  0
CIRCLE
  5
CE8
  8
0
 10
230.61353156298151
 20
156.72513479382829
 30
0.0
 40
6.0
  0
LINE
  5
CE9
  8
0
 10
228.61353156298131
 20
157.87983533220739
 30
0.0
 11
228.61353156298171
 21
155.5704342554493
 31
0.0
  0
LINE
  5
CEA
  8
0
 10
230.61353156298151
 20
159.03453587058701
 30
0.0
 11
228.61353156298131
 21
157.87983533220739
 31
0.0
  0
LINE
  5
CEB
  8
0
 10
232.61353156298151
 20
157.8798353322081
 30
0.0
 11
230.61353156298151
 21
159.03453587058701
 31
0.0
  0
LINE
  5
CEC
  8
0
 10
232.61353156298151
 20
155.5704342554493
 30
0.0
 11
232.61353156298151
 21
157.8798353322081
 31
0.0
  0
LINE
  5
CED
  8
0
 10
230.61353156298171
 20
154.41573371707
 30
0.0
 11
232.61353156298151
 21
155.5704342554493
 31
0.0
  0
LINE
  5
CEE
  8
0
 10
228.61353156298171
 20
155.5704342554493
 30
0.0
 11
230.61353156298171
 21
154.41573371707
 31
0.0
  0
CIRCLE
  5
CEF
  8
0
 10
230.61353156298151
 20
156.72513479382829
 30
0.0
 40
6.25
  0
LINE
  5
CF0
  8
0
 10
209.95776685313399
 20
136.72513479382829
 30
0.0
 11
209.95776685313399
 21
176.7251347938284
 31
0.0
  0
LINE
  5
CF1
  8
0
 10
196.26929627282939
 20
178.7251347938284
 30
0.0
 11
196.26929627282939
 21
218.7251347938284
 31
0.0
  0
LINE
  5
D11
  8
0
 10
196.11353156298151
 20
220.2251347938284
 30
0.0
 11
210.11353156298179
 21
220.2251347938284
 31
0.0
  0
LINE
  5
D12
  8
0
 10
196.11353156298171
 20
135.2251347938284
 30
0.0
 11
210.11353156298151
 21
135.22513479382829
 31
0.0
  0
LINE
  5
D13
  8
0
 10
280.11353156298151
 20
96.725134793828417
 30
0.0
 11
280.11353156298151
 21
82.725134793828403
 31
0.0
  0
LINE
  5
D14
  8
0
 10
365.11353156298151
 20
96.725134793828417
 30
0.0
 11
365.11353156298162
 21
82.725134793828403
 31
0.0
  0
CIRCLE
  5
D15
  8
0
 10
203.11353156298151
 20
89.725134793828403
 30
0.0
 40
7.0
  0
LINE
  5
D16
  8
0
 10
126.62569900832069
 20
96.725134793828445
 30
0.0
 11
126.62569900832069
 21
82.725134793828445
 31
0.0
  0
LINE
  5
D17
  8
0
 10
41.62569900832068
 20
96.725134793828445
 30
0.0
 11
41.62569900832068
 21
82.725134793828445
 31
0.0
  0
LINE
  5
D18
  8
0
 10
196.11353156298151
 20
220.2251347938284
 30
0.0
 11
196.11353156298151
 21
218.7251347938284
 31
0.0
  0
LINE
  5
D1A
  8
0
 10
210.11353156298151
 20
135.22513479382829
 30
0.0
 11
210.11353156298151
 21
136.72513479382829
 31
0.0
  0
LINE
  5
1063
  8
0
 10
196.11353156298171
 20
136.72513479382829
 30
0.0
 11
242.81353156298169
 21
136.72513479382829
 31
0.0
  0
LINE
  5
1064
  8
0
 10
196.11353156298171
 20
176.7251347938284
 30
0.0
 11
242.81353156298169
 21
176.7251347938284
 31
0.0
  0
LINE
  5
1065
  8
0
 10
242.81353156298169
 20
136.72513479382829
 30
0.0
 11
242.81353156298169
 21
176.7251347938284
 31
0.0
  0
LINE
  5
1066
  8
0
 10
239.36708565823201
 20
136.72513479382829
 30
0.0
 11
239.36708565823201
 21
176.7251347938284
 31
0.0
  0
LINE
  5
1067
  8
0
 10
242.7403085629816
 20
88.151911793828276
 30
0.0
 11
239.6591381666384
 21
91.233082190171444
 31
0.0
  0
LINE
  5
1068
  8
0
 10
210.5297295629814
 20
87.725134793828374
 30
0.0
 11
225.61353156298151
 21
87.725134793828374
 31
0.0
  0
LINE
  5
1069
  8
0
 10
210.6075295629814
 20
91.525134793828315
 30
0.0
 11
238.9536592637113
 21
91.525134793828315
 31
0.0
  0
ARC
  5
106A
  8
0
 10
210.5297295629814
 20
86.725134793828374
 30
0.0
 40
1.0
 50
90.000013584479817
 51
157.97568267821339
  0
ARC
  5
106B
  8
0
 10
210.6075295629814
 20
92.525134793828315
 30
0.0
 40
1.0000002812499591
 50
200.487316606072
 51
269.9999987873303
  0
ARC
  5
106C
  8
0
 10
238.9528725629815
 20
90.525134793828329
 30
0.0
 40
1.000000309448952
 50
45.000040676441337
 51
90.000099627057295
  0
ARC
  5
106D
  8
0
 10
242.56353256298161
 20
87.975134793828374
 30
0.0
 40
0.2499999999999999
 50
269.9996857598133
 51
45.00018463886709
  0
LINE
  5
106E
  8
0
 10
226.91353056298129
 20
84.425134793828192
 30
0.0
 11
234.31353256298141
 21
84.425134793828192
 31
0.0
  0
LINE
  5
106F
  8
0
 10
235.61353156298151
 20
87.725134793828374
 30
0.0
 11
242.56353156298141
 21
87.725134793828374
 31
0.0
  0
LINE
  5
1070
  8
0
 10
226.61353156298151
 20
84.725134793828374
 30
0.0
 11
226.61353156298151
 21
86.725134793828374
 31
0.0
  0
LINE
  5
1071
  8
0
 10
234.61353156298151
 20
84.725134793828374
 30
0.0
 11
234.61353156298151
 21
86.725134793828374
 31
0.0
  0
ARC
  5
1072
  8
0
 10
225.61353156298151
 20
86.725134793828374
 30
0.0
 40
1.0
 50
0.0
 51
89.999999767888113
  0
ARC
  5
1073
  8
0
 10
226.91353156298149
 20
84.725134793828374
 30
0.0
 40
0.3000000000000007
 50
180.0
 51
269.99985144901348
  0
ARC
  5
1074
  8
0
 10
235.61353156298151
 20
86.725134793828374
 30
0.0
 40
1.0
 50
90.000000232111887
 51
180.0
  0
ARC
  5
1075
  8
0
 10
234.3135315629813
 20
84.725134793828261
 30
0.0
 40
0.3000000000000007
 50
270.00014855098328
 51
359.99999999999682
  0
ARC
  5
1076
  8
0
 10
195.69733356298161
 20
86.725134793828374
 30
0.0
 40
1.0
 50
22.024317321786331
 51
89.999986415520183
  0
ARC
  5
1077
  8
0
 10
195.61953356298159
 20
92.525134793828315
 30
0.0
 40
1.0000002812499591
 50
270.0000012126697
 51
339.51268339392772
  0
TEXT
  5
110B
  8
0
 62
     3
 10
0.0
 20
0.0
 30
0.0
 40
10.0
  1
L6-HAS30-6/8
  7
STANDARD1
  0
ENDSEC
  0
EOF
