  0
SECTION
  2
HEADER
  9
$ACADVER
  1
AC1009
  9
$INSBASE
 10
0.0
 20
0.0
 30
0.0
  9
$EXTMIN
 10
0.0
 20
-2.960436562073669
 30
0.0
  9
$EXTMAX
 10
357.51353156298131
 20
235.2251347938284
 30
0.0
  9
$LIMMIN
 10
0.0
 20
0.0
  9
$LIMMAX
 10
195.0
 20
135.0
  9
$ORTHOMODE
 70
     1
  9
$REGENMODE
 70
     1
  9
$FILLMODE
 70
     1
  9
$QTEXTMODE
 70
     0
  9
$MIRRTEXT
 70
     0
  9
$DRAGMODE
 70
     2
  9
$LTSCALE
 40
5.0
  9
$OSMODE
 70
  3071
  9
$ATTMODE
 70
     1
  9
$TEXTSIZE
 40
0.2
  9
$TRACEWID
 40
0.05
  9
$TEXTSTYLE
  7
KANJI104
  9
$CLAYER
  8
0
  9
$CELTYPE
  6
BYLAYER
  9
$CECOLOR
 62
   256
  9
$DIMSCALE
 40
0.5
  9
$DIMASZ
 40
3.0
  9
$DIMEXO
 40
2.0
  9
$DIMDLI
 40
0.38
  9
$DIMRND
 40
0.0
  9
$DIMDLE
 40
0.0
  9
$DIMEXE
 40
2.0
  9
$DIMTP
 40
0.0
  9
$DIMTM
 40
0.0
  9
$DIMTXT
 40
3.0
  9
$DIMCEN
 40
0.0
  9
$DIMTSZ
 40
0.0
  9
$DIMTOL
 70
     0
  9
$DIMLIM
 70
     0
  9
$DIMTIH
 70
     0
  9
$DIMTOH
 70
     0
  9
$DIMSE1
 70
     0
  9
$DIMSE2
 70
     0
  9
$DIMTAD
 70
     1
  9
$DIMZIN
 70
     0
  9
$DIMBLK
  1

  9
$DIMASO
 70
     0
  9
$DIMSHO
 70
     0
  9
$DIMPOST
  1

  9
$DIMAPOST
  1

  9
$DIMALT
 70
     0
  9
$DIMALTD
 70
     2
  9
$DIMALTF
 40
25.399999999999999
  9
$DIMLFAC
 40
1.0
  9
$DIMTOFL
 70
     1
  9
$DIMTVP
 40
0.0
  9
$DIMTIX
 70
     1
  9
$DIMSOXD
 70
     0
  9
$DIMSAH
 70
     0
  9
$DIMBLK1
  1

  9
$DIMBLK2
  1

  9
$DIMSTYLE
  2
STANDARD
  9
$DIMCLRD
 70
     0
  9
$DIMCLRE
 70
     0
  9
$DIMCLRT
 70
     0
  9
$DIMTFAC
 40
1.0
  9
$DIMGAP
 40
0.09
  9
$LUNITS
 70
     2
  9
$LUPREC
 70
     4
  9
$SKETCHINC
 40
0.1
  9
$FILLETRAD
 40
0.5
  9
$AUNITS
 70
     0
  9
$AUPREC
 70
     0
  9
$MENU
  1
E:\r13\win\SUPPORT\ACAD
  9
$ELEVATION
 40
0.0
  9
$PELEVATION
 40
0.0
  9
$THICKNESS
 40
0.0
  9
$LIMCHECK
 70
     0
  9
$BLIPMODE
 70
     0
  9
$CHAMFERA
 40
0.0
  9
$CHAMFERB
 40
0.0
  9
$SKPOLY
 70
     0
  9
$TDCREATE
 40
2449840.6489120368
  9
$TDUPDATE
 40
2456597.5619906718
  9
$TDINDWG
 40
0.06502375
  9
$TDUSRTIMER
 40
0.06502375
  9
$USRTIMER
 70
     1
  9
$ANGBASE
 50
0.0
  9
$ANGDIR
 70
     0
  9
$PDMODE
 70
     0
  9
$PDSIZE
 40
0.0
  9
$PLINEWID
 40
0.0
  9
$COORDS
 70
     1
  9
$SPLFRAME
 70
     0
  9
$SPLINETYPE
 70
     6
  9
$SPLINESEGS
 70
     8
  9
$ATTDIA
 70
     0
  9
$ATTREQ
 70
     1
  9
$HANDLING
 70
     1
  9
$HANDSEED
  5
9CB
  9
$SURFTAB1
 70
     6
  9
$SURFTAB2
 70
     6
  9
$SURFTYPE
 70
     6
  9
$SURFU
 70
     6
  9
$SURFV
 70
     6
  9
$UCSNAME
  2

  9
$UCSORG
 10
0.0
 20
0.0
 30
0.0
  9
$UCSXDIR
 10
1.0
 20
0.0
 30
0.0
  9
$UCSYDIR
 10
0.0
 20
1.0
 30
0.0
  9
$PUCSNAME
  2

  9
$PUCSORG
 10
0.0
 20
0.0
 30
0.0
  9
$PUCSXDIR
 10
1.0
 20
0.0
 30
0.0
  9
$PUCSYDIR
 10
0.0
 20
1.0
 30
0.0
  9
$USERI1
 70
     3
  9
$USERI2
 70
     1
  9
$USERI3
 70
     1
  9
$USERI4
 70
     0
  9
$USERI5
 70
     0
  9
$USERR1
 40
0.5
  9
$USERR2
 40
3.0
  9
$USERR3
 40
3.0
  9
$USERR4
 40
3.0
  9
$USERR5
 40
10.0
  9
$WORLDVIEW
 70
     1
  9
$SHADEDGE
 70
     3
  9
$SHADEDIF
 70
    70
  9
$TILEMODE
 70
     1
  9
$MAXACTVP
 70
    16
  9
$PLIMCHECK
 70
     0
  9
$PEXTMIN
 10
1.0000000000000000E+020
 20
1.0000000000000000E+020
 30
1.0000000000000000E+020
  9
$PEXTMAX
 10
-1.0000000000000000E+020
 20
-1.0000000000000000E+020
 30
-1.0000000000000000E+020
  9
$PLIMMIN
 10
0.0
 20
0.0
  9
$PLIMMAX
 10
12.0
 20
9.0
  9
$UNITMODE
 70
     0
  9
$VISRETAIN
 70
     0
  9
$PLINEGEN
 70
     0
  9
$PSLTSCALE
 70
     0
  0
ENDSEC
  0
SECTION
  2
TABLES
  0
TABLE
  2
VPORT
 70
     1
  0
VPORT
  2
*ACTIVE
 70
     0
 10
0.0
 20
0.0
 11
1.0
 21
1.0
 12
178.75676661389181
 22
141.7421893862346
 13
0.0
 23
0.0
 14
5.0
 24
5.0
 15
5.0
 25
5.0
 16
0.0
 26
0.0
 36
1.0
 17
0.0
 27
0.0
 37
0.0
 40
292.158936567762
 41
1.9089595375722539
 42
50.0
 43
0.0
 44
0.0
 50
0.0
 51
0.0
 71
     0
 72
   100
 73
     1
 74
     0
 75
     0
 76
     0
 77
     0
 78
     0
  0
ENDTAB
  0
TABLE
  2
LTYPE
 70
     4
  0
LTYPE
  2
CONTINUOUS
 70
     0
  3
Solid Line
 72
    65
 73
     0
 40
0.0
  0
LTYPE
  2
CENTER
 70
     0
  3
____ _ ____ _ ____ _ ____ _ ____ _ ____ _ ____
 72
    65
 73
     4
 40
2.0
 49
1.25
 49
-0.25
 49
0.25
 49
-0.25
  0
LTYPE
  2
HIDDEN
 70
     0
  3
_ _ _ _ _ _ _ _ _ _ _ _ _ _ _ _ _ _ _ _ _ _ _
 72
    65
 73
     2
 40
0.375
 49
0.25
 49
-0.125
  0
LTYPE
  2
PHANTOM2
 70
     0
  3
___ _ _ ___ _ _ ___ _ _ ___ _ _
 72
    65
 73
     6
 40
1.25
 49
0.625
 49
-0.125
 49
0.125
 49
-0.125
 49
0.125
 49
-0.125
  0
ENDTAB
  0
TABLE
  2
LAYER
 70
     4
  0
LAYER
  2
0
 70
     0
 62
     7
  6
CONTINUOUS
  0
LAYER
  2
1
 70
     0
 62
     1
  6
CENTER
  0
LAYER
  2
3
 70
     0
 62
     3
  6
CONTINUOUS
  0
LAYER
  2
2
 70
     0
 62
     2
  6
HIDDEN
  0
ENDTAB
  0
TABLE
  2
STYLE
 70
     3
  0
STYLE
  2
STANDARD
 70
     0
 40
0.0
 41
1.0
 50
0.0
 71
     0
 42
5.0
  3
TXT
  4
BIGFONT
  0
STYLE
  2
KANJI104
 70
     0
 40
6.0
 41
0.7
 50
0.0
 71
     0
 42
0.2
  3
TXT
  4
BIGFONT
  0
STYLE
  2
STANDARD1
 70
     0
 40
0.0
 41
1.0
 50
0.0
 71
     0
 42
3.0
  3
txt
  4

  0
ENDTAB
  0
TABLE
  2
VIEW
 70
     1
  0
VIEW
  2
ALL
 70
     0
 40
175.0
 10
143.23529400000001
 20
87.5
 41
0.0
 11
0.0
 21
0.0
 31
1.0
 12
0.0
 22
0.0
 32
0.0
 42
0.0
 43
0.0
 44
0.0
 50
0.0
 71
     0
  0
ENDTAB
  0
TABLE
  2
UCS
 70
     0
  0
ENDTAB
  0
TABLE
  2
APPID
 70
     5
  0
APPID
  2
ACAD
 70
     0
  0
APPID
  2
GENIUS_GENODEF_13
 70
     0
  0
APPID
  2
GENIUS_GENOBJ-N-FIL_13
 70
     0
  0
APPID
  2
ACAD_MLEADERVER
 70
     0
  0
APPID
  2
ACAD_NAV_VCDISPLAY
 70
     0
  0
ENDTAB
  0
TABLE
  2
DIMSTYLE
 70
     1
  0
DIMSTYLE
  2
STANDARD
 70
     0
  3

  4

  5

  6

  7

 40
1.0
 41
0.18
 42
0.0625
 43
0.38
 44
0.18
 45
0.0
 46
0.0
 47
0.0
 48
0.0
140
0.18
141
0.09
142
0.0
143
25.399999999999999
144
1.0
145
0.0
146
1.0
147
0.09
 71
     0
 72
     0
 73
     1
 74
     1
 75
     0
 76
     0
 77
     0
 78
     0
170
     0
171
     2
172
     0
173
     0
174
     0
175
     0
176
     0
177
     0
178
     0
  0
ENDTAB
  0
ENDSEC
  0
SECTION
  2
BLOCKS
  0
BLOCK
  8
0
  2
$MODEL_SPACE
 70
     0
 10
0.0
 20
0.0
 30
0.0
  3
$MODEL_SPACE
  1

  0
ENDBLK
  5
118
  8
0
  0
BLOCK
 67
     1
  8
0
  2
$PAPER_SPACE
 70
     0
 10
0.0
 20
0.0
 30
0.0
  3
$PAPER_SPACE
  1

  0
ENDBLK
  5
116
 67
     1
  8
0
  0
ENDSEC
  0
SECTION
  2
ENTITIES
  0
LINE
  5
703
  8
3
 10
60.546531562981379
 20
85.725134793828616
 30
0.0
 11
60.546531562981379
 21
84.7251347938344
 31
0.0
  0
LINE
  5
704
  8
0
 10
60.113531562981393
 20
85.725134793828616
 30
0.0
 11
60.113531562981393
 21
84.7251347938344
 31
0.0
  0
LINE
  5
705
  8
3
 10
64.680531562981628
 20
85.725134793828616
 30
0.0
 11
64.680531562981514
 21
84.7251347938344
 31
0.0
  0
LINE
  5
706
  8
0
 10
65.11353156298162
 20
85.725134793828616
 30
0.0
 11
65.113531562981507
 21
84.7251347938344
 31
0.0
  0
LINE
  5
707
  8
2
 10
60.113531562981507
 20
84.7251347938344
 30
0.0
 11
60.113531562981507
 21
80.425134793828875
 31
0.0
  0
LINE
  5
708
  8
2
 10
60.546531562981272
 20
84.725134793834513
 30
0.0
 11
60.546531562981272
 21
79.992134793829109
 31
0.0
  0
LINE
  5
709
  8
2
 10
64.680531562981628
 20
84.725134793834513
 30
0.0
 11
64.680531562981741
 21
79.992134793829109
 31
0.0
  0
LINE
  5
70A
  8
2
 10
65.113531562981734
 20
84.7251347938344
 30
0.0
 11
65.113531562981507
 21
80.425134793828875
 31
0.0
  0
LINE
  5
70B
  8
2
 10
100.11353156298171
 20
82.725134793828488
 30
0.0
 11
100.11353156298171
 21
84.725134793834059
 31
0.0
  0
LINE
  5
70C
  8
2
 10
117.11353156298181
 20
82.725134793828488
 30
0.0
 11
117.11353156298171
 21
84.725134793834059
 31
0.0
  0
LINE
  5
70D
  8
0
 10
75.113531562981393
 20
82.725134793828374
 30
0.0
 11
126.11353156298161
 21
82.725134793828602
 31
0.0
  0
LINE
  5
70E
  8
0
 10
42.613531562981727
 20
96.725134793828374
 30
0.0
 11
42.613531562981507
 21
82.725134793828488
 31
0.0
  0
LINE
  5
70F
  8
0
 10
82.613531562981734
 20
96.725134793828374
 30
0.0
 11
82.613531562981734
 21
82.725134793828374
 31
0.0
  0
LINE
  5
710
  8
0
 10
84.613531562981734
 20
96.725134793828374
 30
0.0
 11
84.613531562981734
 21
82.725134793828602
 31
0.0
  0
LINE
  5
711
  8
0
 10
124.61353156298171
 20
96.725134793828374
 30
0.0
 11
124.61353156298161
 21
82.725134793828602
 31
0.0
  0
LINE
  5
712
  8
0
 10
41.113531562981741
 20
96.725134793828374
 30
0.0
 11
126.11353156298171
 21
96.72513479382836
 31
0.0
  0
LINE
  5
713
  8
0
 10
42.613531562981727
 20
91.525134793828457
 30
0.0
 11
82.613531562981606
 21
91.525134793828457
 31
0.0
  0
LINE
  5
714
  8
0
 10
42.613531562981727
 20
87.725134793828488
 30
0.0
 11
82.613531562981734
 21
87.725134793828488
 31
0.0
  0
LINE
  5
715
  8
1
 10
131.11353156298171
 20
89.725134793828374
 30
0.0
 11
36.113531562981628
 21
89.725134793828374
 31
0.0
  0
LINE
  5
716
  8
2
 10
107.1135315629822
 20
88.725134793828261
 30
0.0
 11
107.11353156298171
 21
80.42513479382842
 31
0.0
  0
LINE
  5
717
  8
2
 10
106.6805315629816
 20
87.975156794151303
 30
0.0
 11
106.6805315629819
 21
79.992134793828654
 31
0.0
  0
LINE
  5
718
  8
2
 10
102.5465315629814
 20
87.975156794151303
 30
0.0
 11
102.5465315629815
 21
79.992134793828654
 31
0.0
  0
LINE
  5
719
  8
2
 10
102.11353156298161
 20
88.725134793828261
 30
0.0
 11
102.11353156298171
 21
80.42513479382842
 31
0.0
  0
LINE
  5
71A
  8
2
 10
102.11353156298171
 20
88.725134793828374
 30
0.0
 11
107.11353156298171
 21
88.725134793828374
 31
0.0
  0
LINE
  5
71B
  8
2
 10
109.61353156298171
 20
91.225134793828374
 30
0.0
 11
107.11353156298171
 21
88.725134793828374
 31
0.0
  0
LINE
  5
71C
  8
2
 10
99.613531562981734
 20
91.225134793828374
 30
0.0
 11
102.11353156298171
 21
88.725134793828374
 31
0.0
  0
LINE
  5
71D
  8
2
 10
109.61353156298171
 20
91.525134793828315
 30
0.0
 11
99.613531562981734
 21
91.525134793828315
 31
0.0
  0
LINE
  5
71E
  8
2
 10
109.61353156298171
 20
91.225134793828374
 30
0.0
 11
109.61353156298171
 21
91.525134793828315
 31
0.0
  0
LINE
  5
71F
  8
2
 10
99.613531562981734
 20
91.225134793828374
 30
0.0
 11
109.61353156298171
 21
91.225134793828374
 31
0.0
  0
LINE
  5
720
  8
2
 10
99.613531562981734
 20
91.525134793828315
 30
0.0
 11
99.613531562981734
 21
91.225134793828374
 31
0.0
  0
LINE
  5
721
  8
2
 10
103.0135315629818
 20
79.525134793828443
 30
0.0
 11
103.70748708660631
 21
79.525134793828443
 31
0.0
  0
LINE
  5
722
  8
2
 10
102.11353156298171
 20
87.975156794151417
 30
0.0
 11
107.11353156298171
 21
87.975156794151417
 31
0.0
  0
LINE
  5
723
  8
2
 10
102.5465315629815
 20
87.975156794151417
 30
0.0
 11
102.11353156298171
 21
88.725134793828374
 31
0.0
  0
LINE
  5
724
  8
2
 10
102.11353156298171
 20
80.42513479382842
 30
0.0
 11
103.0135315629818
 21
79.525134793828443
 31
0.0
  0
LINE
  5
725
  8
2
 10
106.2135315629817
 20
79.525134793828443
 30
0.0
 11
107.11353156298171
 21
80.42513479382842
 31
0.0
  0
LINE
  5
726
  8
2
 10
102.11353156298171
 20
80.42513479382842
 30
0.0
 11
107.11353156298171
 21
80.42513479382842
 31
0.0
  0
LINE
  5
727
  8
2
 10
106.6805315629819
 20
87.975156794151417
 30
0.0
 11
107.11353156298171
 21
88.725134793828374
 31
0.0
  0
LINE
  5
728
  8
1
 10
104.61353156298171
 20
94.025134793828556
 30
0.0
 11
104.61353156298171
 21
75.483674716406995
 31
0.0
  0
LINE
  5
729
  8
0
 10
100.11353156298171
 20
78.316594805086993
 30
0.0
 11
100.11353156298151
 21
82.725134793828374
 31
0.0
  0
ARC
  5
72A
  8
0
 10
104.6872829837277
 20
77.225134793831899
 30
0.0
 40
2.5
 50
25.886129447778728
 51
154.1138705521746
  0
LINE
  5
72B
  8
0
 10
106.93644172508741
 20
78.316594805085174
 30
0.0
 11
109.137846576637
 21
78.316594805085174
 31
0.0
  0
LINE
  5
72C
  8
0
 10
100.11353156298171
 20
78.316594805086993
 30
0.0
 11
102.4381242423689
 21
78.316594805086993
 31
0.0
  0
LINE
  5
72D
  8
0
 10
117.11353156298171
 20
78.316594805086993
 30
0.0
 11
117.11353156298161
 21
82.725134793828488
 31
0.0
  0
LINE
  5
72E
  8
0
 10
112.2378465766355
 20
78.316594805086993
 30
0.0
 11
117.11353156298171
 21
78.316594805086993
 31
0.0
  0
LINE
  5
72F
  8
2
 10
100.11353156298171
 20
84.725134793834059
 30
0.0
 11
117.11353156298171
 21
84.725134793834059
 31
0.0
  0
ARC
  5
730
  8
0
 10
110.6878465766369
 20
76.95100639432053
 30
0.0
 40
2.0657520924870849
 50
41.380850822951402
 51
138.6191491770486
  0
ARC
  5
731
  8
0
 10
110.6872829837277
 20
79.47513479383224
 30
0.0
 40
1.500000000000004
 50
215.11030927469201
 51
324.9152769787903
  0
LINE
  5
732
  8
2
 10
105.667078880849
 20
79.525134793828443
 30
0.0
 11
106.2135315629817
 21
79.525134793828443
 31
0.0
  0
LINE
  5
733
  8
0
 10
105.6670788808491
 20
79.525134793828443
 30
0.0
 11
103.70748708660631
 21
79.525134793828329
 31
0.0
  0
LINE
  5
734
  8
0
 10
42.613531562981727
 20
85.725134793828616
 30
0.0
 11
82.613531562981734
 21
85.725134793828616
 31
0.0
  0
LINE
  5
735
  8
0
 10
41.1135315629815
 20
82.725134793828374
 30
0.0
 11
58.1135315629815
 21
82.725134793828374
 31
0.0
  0
LINE
  5
736
  8
0
 10
63.667078880848862
 20
79.525134793828784
 30
0.0
 11
61.707487086606079
 21
79.525134793828784
 31
0.0
  0
LINE
  5
737
  8
2
 10
63.667078880848742
 20
79.525134793828784
 30
0.0
 11
64.213531562981515
 21
79.525134793828784
 31
0.0
  0
ARC
  5
738
  8
0
 10
68.687282983727528
 20
79.475134793832694
 30
0.0
 40
1.500000000000004
 50
215.11030927469201
 51
324.9152769787903
  0
ARC
  5
739
  8
0
 10
68.68784657663673
 20
76.951006394320984
 30
0.0
 40
2.0657520924870849
 50
41.380850822951402
 51
138.6191491770486
  0
LINE
  5
73A
  8
0
 10
58.1135315629815
 20
84.725134793834513
 30
0.0
 11
75.113531562981507
 21
84.725134793834513
 31
0.0
  0
LINE
  5
73B
  8
0
 10
70.23784657663532
 20
78.316594805087334
 30
0.0
 11
75.113531562981507
 21
78.316594805087334
 31
0.0
  0
LINE
  5
73C
  8
0
 10
75.113531562981507
 20
78.316594805087334
 30
0.0
 11
75.113531562981507
 21
84.725134793834513
 31
0.0
  0
LINE
  5
73D
  8
0
 10
58.1135315629815
 20
78.316594805087334
 30
0.0
 11
60.438124242368751
 21
78.316594805087334
 31
0.0
  0
LINE
  5
73E
  8
0
 10
64.936441725087207
 20
78.316594805085515
 30
0.0
 11
67.137846576636775
 21
78.316594805085515
 31
0.0
  0
ARC
  5
73F
  8
0
 10
62.687282983727528
 20
77.225134793832225
 30
0.0
 40
2.5
 50
25.886129447778728
 51
154.1138705521746
  0
LINE
  5
740
  8
0
 10
58.1135315629815
 20
78.316594805087334
 30
0.0
 11
58.1135315629815
 21
84.725134793834513
 31
0.0
  0
LINE
  5
741
  8
1
 10
62.613531562981507
 20
94.025134793829025
 30
0.0
 11
62.613531562981507
 21
75.483674716407336
 31
0.0
  0
LINE
  5
742
  8
2
 10
64.680531562981741
 20
87.975156794151872
 30
0.0
 11
65.113531562981507
 21
88.725134793828829
 31
0.0
  0
LINE
  5
743
  8
2
 10
60.113531562981507
 20
80.425134793828875
 30
0.0
 11
65.113531562981507
 21
80.425134793828875
 31
0.0
  0
LINE
  5
744
  8
2
 10
64.213531562981515
 20
79.525134793828784
 30
0.0
 11
65.113531562981507
 21
80.425134793828875
 31
0.0
  0
LINE
  5
745
  8
2
 10
60.113531562981507
 20
80.425134793828875
 30
0.0
 11
61.013531562981591
 21
79.525134793828784
 31
0.0
  0
LINE
  5
746
  8
2
 10
60.546531562981272
 20
87.975156794151872
 30
0.0
 11
60.113531562981507
 21
88.725134793828829
 31
0.0
  0
LINE
  5
747
  8
2
 10
60.113531562981507
 20
87.975156794151872
 30
0.0
 11
65.113531562981507
 21
87.975156794151872
 31
0.0
  0
LINE
  5
748
  8
2
 10
61.013531562981591
 20
79.525134793828784
 30
0.0
 11
61.707487086606079
 21
79.525134793828784
 31
0.0
  0
LINE
  5
749
  8
2
 10
57.613531562981507
 20
91.525134793828784
 30
0.0
 11
57.613531562981507
 21
91.225134793828829
 31
0.0
  0
LINE
  5
74A
  8
2
 10
57.613531562981507
 20
91.225134793828829
 30
0.0
 11
67.613531562981507
 21
91.225134793828829
 31
0.0
  0
LINE
  5
74B
  8
2
 10
67.613531562981507
 20
91.225134793828829
 30
0.0
 11
67.613531562981507
 21
91.525134793828784
 31
0.0
  0
LINE
  5
74C
  8
2
 10
67.613531562981507
 20
91.525134793828784
 30
0.0
 11
57.613531562981507
 21
91.525134793828784
 31
0.0
  0
LINE
  5
74D
  8
2
 10
57.613531562981507
 20
91.225134793828829
 30
0.0
 11
60.113531562981507
 21
88.725134793828829
 31
0.0
  0
LINE
  5
74E
  8
2
 10
67.613531562981507
 20
91.225134793828829
 30
0.0
 11
65.113531562981507
 21
88.725134793828829
 31
0.0
  0
LINE
  5
74F
  8
2
 10
60.113531562981507
 20
88.725134793828829
 30
0.0
 11
65.113531562981507
 21
88.725134793828829
 31
0.0
  0
LINE
  5
750
  8
2
 10
60.113531562981393
 20
88.725134793828829
 30
0.0
 11
60.11353156298162
 21
85.725134793828616
 31
0.0
  0
LINE
  5
751
  8
2
 10
60.546531562981379
 20
87.975156794151744
 30
0.0
 11
60.546531562981379
 21
85.725134793828616
 31
0.0
  0
LINE
  5
752
  8
2
 10
64.6805315629814
 20
87.975156794151872
 30
0.0
 11
64.680531562981514
 21
85.725134793828616
 31
0.0
  0
LINE
  5
753
  8
2
 10
65.113531562981962
 20
88.725134793828829
 30
0.0
 11
65.113531562981734
 21
85.725134793828616
 31
0.0
  0
LINE
  5
754
  8
2
 10
318.5135315629816
 20
82.725134793828602
 30
0.0
 11
318.5135315629816
 21
84.725134793834513
 31
0.0
  0
LINE
  5
755
  8
2
 10
335.5135315629816
 20
82.725134793828602
 30
0.0
 11
335.5135315629816
 21
84.725134793834513
 31
0.0
  0
LINE
  5
756
  8
2
 10
328.51353156298109
 20
88.725134793828829
 30
0.0
 11
328.5135315629816
 21
80.425134793828875
 31
0.0
  0
LINE
  5
757
  8
2
 10
328.9465315629817
 20
87.975156794151872
 30
0.0
 11
328.94653156298142
 21
79.992134793829109
 31
0.0
  0
LINE
  5
758
  8
2
 10
333.08053156298172
 20
87.975156794151744
 30
0.0
 11
333.08053156298178
 21
79.992134793829109
 31
0.0
  0
LINE
  5
759
  8
2
 10
333.51353156298171
 20
88.725134793828829
 30
0.0
 11
333.5135315629816
 21
80.425134793828875
 31
0.0
  0
LINE
  5
75A
  8
2
 10
333.5135315629816
 20
88.725134793828829
 30
0.0
 11
328.5135315629816
 21
88.725134793828829
 31
0.0
  0
LINE
  5
75B
  8
2
 10
326.0135315629816
 20
91.225134793828829
 30
0.0
 11
328.5135315629816
 21
88.725134793828829
 31
0.0
  0
LINE
  5
75C
  8
2
 10
336.0135315629816
 20
91.225134793828829
 30
0.0
 11
333.5135315629816
 21
88.725134793828829
 31
0.0
  0
LINE
  5
75D
  8
2
 10
326.0135315629816
 20
91.525134793828784
 30
0.0
 11
336.0135315629816
 21
91.525134793828784
 31
0.0
  0
LINE
  5
75E
  8
2
 10
326.0135315629816
 20
91.225134793828829
 30
0.0
 11
326.0135315629816
 21
91.525134793828784
 31
0.0
  0
LINE
  5
75F
  8
2
 10
336.0135315629816
 20
91.225134793828829
 30
0.0
 11
326.0135315629816
 21
91.225134793828829
 31
0.0
  0
LINE
  5
760
  8
2
 10
336.0135315629816
 20
91.525134793828784
 30
0.0
 11
336.0135315629816
 21
91.225134793828829
 31
0.0
  0
LINE
  5
761
  8
2
 10
332.61353156298151
 20
79.525134793828784
 30
0.0
 11
331.91957603935703
 21
79.525134793828784
 31
0.0
  0
LINE
  5
762
  8
2
 10
333.5135315629816
 20
87.975156794151872
 30
0.0
 11
328.5135315629816
 21
87.975156794151872
 31
0.0
  0
LINE
  5
763
  8
2
 10
333.08053156298178
 20
87.975156794151872
 30
0.0
 11
333.5135315629816
 21
88.725134793828829
 31
0.0
  0
LINE
  5
764
  8
2
 10
333.5135315629816
 20
80.425134793828875
 30
0.0
 11
332.61353156298151
 21
79.525134793828784
 31
0.0
  0
LINE
  5
765
  8
2
 10
329.41353156298158
 20
79.525134793828784
 30
0.0
 11
328.5135315629816
 21
80.425134793828875
 31
0.0
  0
LINE
  5
766
  8
2
 10
333.5135315629816
 20
80.425134793828875
 30
0.0
 11
328.5135315629816
 21
80.425134793828875
 31
0.0
  0
LINE
  5
767
  8
2
 10
328.94653156298142
 20
87.975156794151872
 30
0.0
 11
328.5135315629816
 21
88.725134793828829
 31
0.0
  0
LINE
  5
768
  8
1
 10
331.0135315629816
 20
94.025134793829025
 30
0.0
 11
331.0135315629816
 21
75.483674716407336
 31
0.0
  0
LINE
  5
769
  8
0
 10
335.5135315629816
 20
78.316594805087334
 30
0.0
 11
335.5135315629816
 21
82.725134793828602
 31
0.0
  0
ARC
  5
76A
  8
0
 10
330.93978014223558
 20
77.225134793832225
 30
0.0
 40
2.5
 50
25.886129447825351
 51
154.1138705522213
  0
LINE
  5
76B
  8
0
 10
328.6906214008759
 20
78.316594805085515
 30
0.0
 11
326.48921654932627
 21
78.316594805085515
 31
0.0
  0
LINE
  5
76C
  8
0
 10
335.5135315629816
 20
78.316594805087334
 30
0.0
 11
333.18893888359429
 21
78.316594805087334
 31
0.0
  0
LINE
  5
76D
  8
0
 10
318.5135315629816
 20
78.316594805087334
 30
0.0
 11
318.5135315629816
 21
82.725134793828602
 31
0.0
  0
LINE
  5
76E
  8
0
 10
323.38921654932778
 20
78.316594805087334
 30
0.0
 11
318.5135315629816
 21
78.316594805087334
 31
0.0
  0
LINE
  5
76F
  8
2
 10
335.5135315629816
 20
84.725134793834513
 30
0.0
 11
318.5135315629816
 21
84.725134793834513
 31
0.0
  0
ARC
  5
770
  8
0
 10
324.93921654932637
 20
76.951006394320984
 30
0.0
 40
2.0657520924870849
 50
41.380850822951402
 51
138.6191491770486
  0
ARC
  5
771
  8
0
 10
324.93978014223558
 20
79.475134793832694
 30
0.0
 40
1.500000000000004
 50
215.0847230212097
 51
324.8896907253079
  0
LINE
  5
772
  8
2
 10
329.95998424511441
 20
79.525134793828784
 30
0.0
 11
329.41353156298158
 21
79.525134793828784
 31
0.0
  0
LINE
  5
773
  8
0
 10
329.95998424511419
 20
79.525134793828784
 30
0.0
 11
331.91957603935703
 21
79.525134793828784
 31
0.0
  0
LINE
  5
774
  8
0
 10
293.51353156298143
 20
82.725134793828488
 30
0.0
 11
352.51353156298131
 21
82.725134793828616
 31
0.0
  0
LINE
  5
775
  8
0
 10
267.5135315629812
 20
82.725134793828474
 30
0.0
 11
276.5135315629812
 21
82.725134793828488
 31
0.0
  0
LINE
  5
776
  8
0
 10
269.01353156298143
 20
85.725134793828616
 30
0.0
 11
309.01353156298143
 21
85.725134793828616
 31
0.0
  0
CIRCLE
  5
777
  8
0
 10
174.31353156298141
 20
208.7251347938286
 30
0.0
 40
5.2000000000000002
  0
LINE
  5
778
  8
1
 10
181.81353156298141
 20
208.7251347938286
 30
0.0
 11
166.81353156298141
 21
208.7251347938286
 31
0.0
  0
LINE
  5
779
  8
0
 10
172.8135315629815
 20
207.8591093900443
 30
0.0
 11
174.3135315629815
 21
206.99308398625971
 31
0.0
  0
LINE
  5
77A
  8
0
 10
174.3135315629815
 20
206.99308398625971
 30
0.0
 11
175.81353156298141
 21
207.8591093900443
 31
0.0
  0
LINE
  5
77B
  8
0
 10
175.81353156298141
 20
207.8591093900443
 30
0.0
 11
175.81353156298141
 21
209.59116019761331
 31
0.0
  0
LINE
  5
77C
  8
0
 10
175.81353156298141
 20
209.59116019761331
 30
0.0
 11
174.31353156298141
 21
210.45718560139741
 31
0.0
  0
LINE
  5
77D
  8
0
 10
174.31353156298141
 20
210.45718560139741
 30
0.0
 11
172.8135315629813
 21
209.59116019761291
 31
0.0
  0
LINE
  5
77E
  8
0
 10
172.8135315629813
 20
209.59116019761291
 30
0.0
 11
172.8135315629815
 21
207.8591093900443
 31
0.0
  0
CIRCLE
  5
77F
  8
0
 10
174.31353156298141
 20
208.7251347938286
 30
0.0
 40
5.0
  0
LINE
  5
780
  8
0
 10
176.1894563763953
 20
84.025134793834241
 30
0.0
 11
172.43760674956741
 21
84.025134793834241
 31
0.0
  0
ARC
  5
781
  8
0
 10
172.43760674956741
 20
84.325134793834195
 30
0.0
 40
0.3
 50
225.12321856476561
 51
270.0000000000033
1001
GENIUS_GENODEF_13
1002
{
1000
HIER
1070
     0
1002
}
1002
{
1000
MANEDIT
1070
     0
1002
}
1002
{
1000
NOSEL
1070
     0
1002
}
1002
{
1000
BEHIND
1070
     0
1002
}
1002
{
1000
REACTOR
1002
}
1001
GENIUS_GENOBJ-N-FIL_13
1002
{
1000
OWNER
1000
GEN
1002
}
  0
ARC
  5
782
  8
0
 10
176.1894563763953
 20
84.325134793834295
 30
0.0
 40
0.3
 50
270.0000000000033
 51
314.99999999983879
1001
GENIUS_GENODEF_13
1002
{
1000
HIER
1070
     0
1002
}
1002
{
1000
MANEDIT
1070
     0
1002
}
1002
{
1000
NOSEL
1070
     0
1002
}
1002
{
1000
BEHIND
1070
     0
1002
}
1002
{
1000
REACTOR
1002
}
1001
GENIUS_GENOBJ-N-FIL_13
1002
{
1000
OWNER
1000
GEN
1002
}
  0
LINE
  5
783
  8
0
 10
176.92585247946681
 20
84.637266828190704
 30
0.0
 11
176.40158841075069
 21
84.113002759477695
 31
0.0
  0
LINE
  5
784
  8
3
 10
172.24653156298149
 20
85.725134793828616
 30
0.0
 11
172.24653156298149
 21
84.093855151255866
 31
0.0
  0
LINE
  5
785
  8
3
 10
176.38053156298179
 20
85.725134793828616
 30
0.0
 11
176.3805315629819
 21
84.093855151256534
 31
0.0
  0
LINE
  5
786
  8
0
 10
176.81353156298181
 20
85.725134793828616
 30
0.0
 11
176.81353156298161
 21
84.524945911706254
 31
0.0
  0
LINE
  5
787
  8
0
 10
171.8135315629815
 20
85.725134793828616
 30
0.0
 11
171.8135315629815
 21
84.523176907362085
 31
0.0
  0
LINE
  5
788
  8
2
 10
171.8135315629815
 20
84.523176907362199
 30
0.0
 11
171.81353156298161
 21
80.425134793828519
 31
0.0
  0
LINE
  5
789
  8
2
 10
172.24653156298149
 20
84.092035306930484
 30
0.0
 11
172.2465315629814
 21
79.992134793828768
 31
0.0
  0
LINE
  5
78A
  8
2
 10
176.38053156298179
 20
84.093855151256435
 30
0.0
 11
176.38053156298179
 21
79.992134793828768
 31
0.0
  0
LINE
  5
78B
  8
2
 10
176.81353156298181
 20
84.524945911706254
 30
0.0
 11
176.81353156298161
 21
80.425134793828519
 31
0.0
  0
ARC
  5
78C
  8
0
 10
174.3140951558907
 20
79.483674676702321
 30
0.0
 40
1.500000000000004
 50
202.7035291187386
 51
337.36124631451548
  0
ARC
  5
78D
  8
0
 10
174.31372044510701
 20
80.325134793834195
 30
0.0
 40
2.0
 50
237.8305670071779
 51
302.11742282722048
  0
ARC
  5
78E
  8
0
 10
183.4905765780853
 20
90.924757779517449
 30
0.0
 40
16.0
 50
205.61162504321749
 51
230.2002308962339
  0
ARC
  5
78F
  8
0
 10
171.48969040535729
 20
84.422273571120058
 30
0.0
 40
0.3
 50
45.123218564765672
 51
89.933793850447003
1001
GENIUS_GENODEF_13
1002
{
1000
HIER
1070
     0
1002
}
1002
{
1000
MANEDIT
1070
     0
1002
}
1002
{
1000
NOSEL
1070
     0
1002
}
1002
{
1000
BEHIND
1070
     0
1002
}
1002
{
1000
REACTOR
1002
}
1001
GENIUS_GENOBJ-N-FIL_13
1002
{
1000
OWNER
1000
GEN
1002
}
  0
LINE
  5
790
  8
0
 10
171.49003705986851
 20
84.722273370837684
 30
0.0
 11
169.5081312357697
 21
84.724563494349468
 31
0.0
  0
LINE
  5
791
  8
0
 10
172.22593141012541
 20
84.112547045663874
 30
0.0
 11
171.7013657447992
 21
84.634861319290394
 31
0.0
  0
ARC
  5
792
  8
0
 10
169.5135315629816
 20
84.224592658734082
 30
0.0
 40
0.5
 50
89.933793850447003
 51
205.61162504304841
  0
ARC
  5
793
  8
0
 10
177.1379845138222
 20
84.425134793834104
 30
0.0
 40
0.3
 50
90.0
 51
134.99999999983879
1001
GENIUS_GENODEF_13
1002
{
1000
HIER
1070
     0
1002
}
1002
{
1000
MANEDIT
1070
     0
1002
}
1002
{
1000
NOSEL
1070
     0
1002
}
1002
{
1000
BEHIND
1070
     0
1002
}
1002
{
1000
REACTOR
1002
}
1001
GENIUS_GENOBJ-N-FIL_13
1002
{
1000
OWNER
1000
GEN
1002
}
  0
LINE
  5
794
  8
0
 10
179.14509768112561
 20
84.725134793834172
 30
0.0
 11
177.1379845138222
 21
84.725134793834172
 31
0.0
  0
ARC
  5
795
  8
0
 10
179.11353156298159
 20
84.224592658734082
 30
0.0
 40
0.5
 50
334.38837495695162
 51
90.066206149552997
  0
ARC
  5
796
  8
0
 10
165.13648654787789
 20
90.924757779517449
 30
0.0
 40
16.0
 50
309.7943651053555
 51
334.38837495678263
  0
LINE
  5
797
  8
2
 10
175.91353156298169
 20
79.525134793828556
 30
0.0
 11
172.71353156298159
 21
79.525134793828556
 31
0.0
  0
LINE
  5
798
  8
2
 10
176.81353156298161
 20
80.425134793828519
 30
0.0
 11
175.91353156298169
 21
79.525134793828556
 31
0.0
  0
LINE
  5
799
  8
2
 10
172.71353156298159
 20
79.525134793828556
 30
0.0
 11
171.81353156298161
 21
80.425134793828519
 31
0.0
  0
LINE
  5
79A
  8
2
 10
176.81353156298161
 20
80.425134793828647
 30
0.0
 11
171.81353156298161
 21
80.425134793828647
 31
0.0
  0
LINE
  5
79B
  8
2
 10
172.24653156298149
 20
87.975156794151545
 30
0.0
 11
172.24653156298129
 21
85.725134793828616
 31
0.0
  0
LINE
  5
79C
  8
2
 10
176.81353156298161
 20
87.975156794151545
 30
0.0
 11
171.81353156298161
 21
87.975156794151545
 31
0.0
  0
LINE
  5
79D
  8
2
 10
176.3805315629819
 20
87.975156794151644
 30
0.0
 11
176.3805315629817
 21
85.725134793828616
 31
0.0
  0
LINE
  5
79E
  8
2
 10
176.81353156298161
 20
88.725134793828488
 30
0.0
 11
171.81353156298161
 21
88.725134793828488
 31
0.0
  0
LINE
  5
79F
  8
2
 10
171.81353156298161
 20
88.725134793828602
 30
0.0
 11
171.81353156298161
 21
85.725134793828616
 31
0.0
  0
LINE
  5
7A0
  8
2
 10
176.81353156298161
 20
88.725134793828488
 30
0.0
 11
176.8135315629815
 21
85.725134793828616
 31
0.0
  0
LINE
  5
7A1
  8
2
 10
176.3805315629819
 20
87.975156794151545
 30
0.0
 11
176.81353156298161
 21
88.725134793828488
 31
0.0
  0
LINE
  5
7A2
  8
2
 10
172.24653156298149
 20
87.975156794151545
 30
0.0
 11
171.81353156298161
 21
88.725134793828488
 31
0.0
  0
LINE
  5
7A3
  8
2
 10
179.31353156298161
 20
91.225134793828602
 30
0.0
 11
176.81353156298161
 21
88.725134793828488
 31
0.0
  0
LINE
  5
7A4
  8
2
 10
169.31353156298169
 20
91.225134793828602
 30
0.0
 11
171.81353156298161
 21
88.725134793828488
 31
0.0
  0
LINE
  5
7A5
  8
1
 10
174.31353156298161
 20
94.025134793828556
 30
0.0
 11
174.31353156298161
 21
75.483674716406995
 31
0.0
  0
LINE
  5
7A6
  8
2
 10
179.31353156298161
 20
91.225134793828602
 30
0.0
 11
169.31353156298169
 21
91.225134793828602
 31
0.0
  0
LINE
  5
7A7
  8
2
 10
179.31353156298161
 20
91.525134793828556
 30
0.0
 11
179.31353156298161
 21
91.225134793828602
 31
0.0
  0
LINE
  5
7A8
  8
2
 10
169.31353156298169
 20
91.525134793828556
 30
0.0
 11
179.31353156298161
 21
91.525134793828556
 31
0.0
  0
LINE
  5
7A9
  8
2
 10
169.31353156298169
 20
91.225134793828602
 30
0.0
 11
169.31353156298169
 21
91.525134793828556
 31
0.0
  0
LINE
  5
7AA
  8
0
 10
216.51353156298131
 20
85.725134793828616
 30
0.0
 11
222.11353156298139
 21
85.725134793828616
 31
0.0
  0
LINE
  5
7AB
  8
2
 10
221.8135315629813
 20
80.425134793828647
 30
0.0
 11
216.8135315629813
 21
80.425134793828647
 31
0.0
  0
LINE
  5
7AC
  8
2
 10
217.7135315629813
 20
79.525134793828556
 30
0.0
 11
216.8135315629813
 21
80.425134793828519
 31
0.0
  0
LINE
  5
7AD
  8
2
 10
221.8135315629813
 20
80.425134793828519
 30
0.0
 11
220.9135315629814
 21
79.525134793828556
 31
0.0
  0
LINE
  5
7AE
  8
2
 10
220.9135315629814
 20
79.525134793828556
 30
0.0
 11
217.7135315629813
 21
79.525134793828556
 31
0.0
  0
ARC
  5
7AF
  8
0
 10
210.1364865478775
 20
90.924757779517449
 30
0.0
 40
16.0
 50
309.7943651053555
 51
334.38837495678263
  0
ARC
  5
7B0
  8
0
 10
224.11353156298131
 20
84.224592658734082
 30
0.0
 40
0.5
 50
334.38837495695162
 51
90.066206149552997
  0
LINE
  5
7B1
  8
0
 10
224.14509768112529
 20
84.725134793834172
 30
0.0
 11
222.13798451382181
 21
84.725134793834172
 31
0.0
  0
ARC
  5
7B2
  8
0
 10
222.13798451382181
 20
84.425134793834104
 30
0.0
 40
0.3
 50
90.0
 51
134.99999999983879
1001
GENIUS_GENODEF_13
1002
{
1000
HIER
1070
     0
1002
}
1002
{
1000
MANEDIT
1070
     0
1002
}
1002
{
1000
NOSEL
1070
     0
1002
}
1002
{
1000
BEHIND
1070
     0
1002
}
1002
{
1000
REACTOR
1002
}
1001
GENIUS_GENOBJ-N-FIL_13
1002
{
1000
OWNER
1000
GEN
1002
}
  0
ARC
  5
7B3
  8
0
 10
214.51353156298131
 20
84.224592658734082
 30
0.0
 40
0.5
 50
89.933793850447003
 51
205.61162504304841
  0
LINE
  5
7B4
  8
0
 10
217.2259314101251
 20
84.112547045663874
 30
0.0
 11
216.70136574479889
 21
84.634861319290394
 31
0.0
  0
LINE
  5
7B5
  8
0
 10
216.4900370598682
 20
84.722273370837684
 30
0.0
 11
214.50813123576941
 21
84.724563494349468
 31
0.0
  0
ARC
  5
7B6
  8
0
 10
216.48969040535701
 20
84.422273571120058
 30
0.0
 40
0.3
 50
45.123218564765672
 51
89.933793850447003
1001
GENIUS_GENODEF_13
1002
{
1000
HIER
1070
     0
1002
}
1002
{
1000
MANEDIT
1070
     0
1002
}
1002
{
1000
NOSEL
1070
     0
1002
}
1002
{
1000
BEHIND
1070
     0
1002
}
1002
{
1000
REACTOR
1002
}
1001
GENIUS_GENOBJ-N-FIL_13
1002
{
1000
OWNER
1000
GEN
1002
}
  0
ARC
  5
7B7
  8
0
 10
228.49057657808501
 20
90.924757779517449
 30
0.0
 40
16.0
 50
205.61162504321749
 51
230.2002308962339
  0
ARC
  5
7B8
  8
0
 10
219.3137204451067
 20
80.325134793834195
 30
0.0
 40
2.0
 50
237.8305670071779
 51
302.11742282722048
  0
ARC
  5
7B9
  8
0
 10
219.31409515589041
 20
79.483674676702321
 30
0.0
 40
1.500000000000004
 50
202.7035291187386
 51
337.36124631451548
  0
LINE
  5
7BA
  8
2
 10
221.81353156298141
 20
84.524945911706254
 30
0.0
 11
221.8135315629813
 21
80.425134793828519
 31
0.0
  0
LINE
  5
7BB
  8
2
 10
221.38053156298139
 20
84.093855151256435
 30
0.0
 11
221.38053156298139
 21
79.992134793828768
 31
0.0
  0
LINE
  5
7BC
  8
2
 10
217.2465315629812
 20
84.092035306930484
 30
0.0
 11
217.24653156298109
 21
79.992134793828768
 31
0.0
  0
LINE
  5
7BD
  8
2
 10
216.81353156298121
 20
84.523176907362199
 30
0.0
 11
216.8135315629813
 21
80.425134793828519
 31
0.0
  0
LINE
  5
7BE
  8
2
 10
217.2465315629812
 20
87.975156794151545
 30
0.0
 11
216.8135315629813
 21
88.725134793828488
 31
0.0
  0
LINE
  5
7BF
  8
2
 10
221.38053156298159
 20
87.975156794151545
 30
0.0
 11
221.8135315629813
 21
88.725134793828488
 31
0.0
  0
LINE
  5
7C0
  8
2
 10
221.8135315629813
 20
87.975156794151545
 30
0.0
 11
216.8135315629813
 21
87.975156794151545
 31
0.0
  0
LINE
  5
7C1
  8
2
 10
221.8135315629813
 20
88.725134793828488
 30
0.0
 11
221.81353156298121
 21
85.725134793828616
 31
0.0
  0
LINE
  5
7C2
  8
2
 10
221.38053156298159
 20
87.975156794151644
 30
0.0
 11
221.3805315629813
 21
85.725134793828616
 31
0.0
  0
LINE
  5
7C3
  8
2
 10
217.2465315629812
 20
87.975156794151545
 30
0.0
 11
217.246531562981
 21
85.725134793828616
 31
0.0
  0
LINE
  5
7C4
  8
2
 10
216.8135315629813
 20
88.725134793828602
 30
0.0
 11
216.8135315629813
 21
85.725134793828616
 31
0.0
  0
LINE
  5
7C5
  8
2
 10
221.8135315629813
 20
88.725134793828488
 30
0.0
 11
216.8135315629813
 21
88.725134793828488
 31
0.0
  0
LINE
  5
7C6
  8
0
 10
216.81353156298121
 20
85.725134793828616
 30
0.0
 11
216.81353156298121
 21
84.523176907362085
 31
0.0
  0
LINE
  5
7C7
  8
0
 10
221.81353156298141
 20
85.725134793828616
 30
0.0
 11
221.8135315629813
 21
84.524945911706254
 31
0.0
  0
LINE
  5
7C8
  8
3
 10
221.38053156298139
 20
85.725134793828616
 30
0.0
 11
221.38053156298159
 21
84.093855151256534
 31
0.0
  0
LINE
  5
7C9
  8
3
 10
217.2465315629812
 20
85.725134793828616
 30
0.0
 11
217.2465315629812
 21
84.093855151255866
 31
0.0
  0
LINE
  5
7CA
  8
0
 10
221.9258524794665
 20
84.637266828190704
 30
0.0
 11
221.40158841075041
 21
84.113002759477695
 31
0.0
  0
ARC
  5
7CB
  8
0
 10
221.18945637639499
 20
84.325134793834295
 30
0.0
 40
0.3
 50
270.0000000000033
 51
314.99999999983879
1001
GENIUS_GENODEF_13
1002
{
1000
HIER
1070
     0
1002
}
1002
{
1000
MANEDIT
1070
     0
1002
}
1002
{
1000
NOSEL
1070
     0
1002
}
1002
{
1000
BEHIND
1070
     0
1002
}
1002
{
1000
REACTOR
1002
}
1001
GENIUS_GENOBJ-N-FIL_13
1002
{
1000
OWNER
1000
GEN
1002
}
  0
ARC
  5
7CC
  8
0
 10
217.4376067495671
 20
84.325134793834195
 30
0.0
 40
0.3
 50
225.12321856476561
 51
270.0000000000033
1001
GENIUS_GENODEF_13
1002
{
1000
HIER
1070
     0
1002
}
1002
{
1000
MANEDIT
1070
     0
1002
}
1002
{
1000
NOSEL
1070
     0
1002
}
1002
{
1000
BEHIND
1070
     0
1002
}
1002
{
1000
REACTOR
1002
}
1001
GENIUS_GENOBJ-N-FIL_13
1002
{
1000
OWNER
1000
GEN
1002
}
  0
LINE
  5
7CD
  8
0
 10
221.18945637639499
 20
84.025134793834241
 30
0.0
 11
217.4376067495671
 21
84.025134793834241
 31
0.0
  0
LINE
  5
7CE
  8
1
 10
219.3135315629813
 20
94.025134793828556
 30
0.0
 11
219.3135315629813
 21
75.483674716406995
 31
0.0
  0
LINE
  5
7CF
  8
2
 10
214.3135315629813
 20
91.225134793828602
 30
0.0
 11
216.8135315629813
 21
88.725134793828488
 31
0.0
  0
LINE
  5
7D0
  8
2
 10
214.3135315629813
 20
91.225134793828602
 30
0.0
 11
214.3135315629813
 21
91.525134793828556
 31
0.0
  0
LINE
  5
7D1
  8
2
 10
214.3135315629813
 20
91.525134793828556
 30
0.0
 11
224.3135315629813
 21
91.525134793828556
 31
0.0
  0
LINE
  5
7D2
  8
2
 10
224.3135315629813
 20
91.525134793828556
 30
0.0
 11
224.3135315629813
 21
91.225134793828602
 31
0.0
  0
LINE
  5
7D3
  8
2
 10
224.3135315629813
 20
91.225134793828602
 30
0.0
 11
214.3135315629813
 21
91.225134793828602
 31
0.0
  0
LINE
  5
7D4
  8
2
 10
224.3135315629813
 20
91.225134793828602
 30
0.0
 11
221.8135315629813
 21
88.725134793828488
 31
0.0
  0
ARC
  5
7D5
  8
0
 10
189.74246375111611
 20
87.225134793828488
 30
0.0
 40
0.5
 50
19.471220634489882
 51
90.0
  0
ARC
  5
7D6
  8
0
 10
189.6749042439516
 20
92.025134793828443
 30
0.0
 40
0.5
 50
269.99999999998698
 51
342.14153730159251
  0
ARC
  5
7D7
  8
0
 10
162.8135315629815
 20
91.025134793828556
 30
0.0
 40
0.5
 50
90.0
 51
180.0
  0
ARC
  5
7D8
  8
0
 10
162.8135315629815
 20
88.225134793828474
 30
0.0
 40
0.5
 50
180.0
 51
270.0
  0
LINE
  5
7D9
  8
0
 10
162.8135315629815
 20
91.525134793828556
 30
0.0
 11
189.67490424395149
 21
91.525134793828457
 31
0.0
  0
LINE
  5
7DA
  8
0
 10
162.3135315629815
 20
88.225134793828474
 30
0.0
 11
162.3135315629815
 21
91.025134793828556
 31
0.0
  0
LINE
  5
7DB
  8
0
 10
189.74246375111611
 20
87.725134793828488
 30
0.0
 11
177.91353156298189
 21
87.725134793828488
 31
0.0
  0
LINE
  5
7DC
  8
1
 10
184.8135315629815
 20
89.725134793828488
 30
0.0
 11
208.8135315629815
 21
89.725134793828488
 31
0.0
  0
LINE
  5
7DD
  8
1
 10
196.8135315629815
 20
101.7251347938285
 30
0.0
 11
196.8135315629815
 21
77.725134793828474
 31
0.0
  0
LINE
  5
7DE
  8
0
 10
177.11353156298171
 20
85.725134793828474
 30
0.0
 11
171.5135315629816
 21
85.725134793828474
 31
0.0
  0
LINE
  5
7DF
  8
0
 10
171.2135315629817
 20
87.225134793828431
 30
0.0
 11
171.21353156298159
 21
86.025134793828556
 31
0.0
  0
LINE
  5
7E0
  8
0
 10
177.41353156298189
 20
87.225134793828516
 30
0.0
 11
177.4135315629818
 21
86.025134793828443
 31
0.0
  0
LINE
  5
7E1
  8
0
 10
170.7135315629817
 20
87.725134793828474
 30
0.0
 11
162.8135315629815
 21
87.725134793828488
 31
0.0
  0
ARC
  5
7E4
  8
0
 10
171.5135315629816
 20
86.025134793828556
 30
0.0
 40
0.3
 50
179.9999999999967
 51
270.0
  0
ARC
  5
7E5
  8
0
 10
177.11353156298171
 20
86.025134793828556
 30
0.0
 40
0.3
 50
270.0
 51
359.99999999999682
  0
ARC
  5
7E6
  8
0
 10
216.51353156298131
 20
86.025134793828556
 30
0.0
 40
0.3
 50
180.00000000000321
 51
270.0
  0
ARC
  5
7E7
  8
0
 10
222.11353156298139
 20
86.025134793828556
 30
0.0
 40
0.3
 50
270.0
 51
0.0000000000032569
  0
LINE
  5
7EA
  8
0
 10
222.91353156298121
 20
87.725134793828474
 30
0.0
 11
230.81353156298141
 21
87.725134793828488
 31
0.0
  0
LINE
  5
7EB
  8
0
 10
216.2135315629811
 20
87.225134793828516
 30
0.0
 11
216.21353156298119
 21
86.025134793828443
 31
0.0
  0
LINE
  5
7EC
  8
0
 10
222.41353156298121
 20
87.225134793828431
 30
0.0
 11
222.41353156298129
 21
86.025134793828556
 31
0.0
  0
LINE
  5
7ED
  8
0
 10
216.51353156298131
 20
85.725134793828474
 30
0.0
 11
222.11353156298139
 21
85.725134793828474
 31
0.0
  0
CIRCLE
  5
7EE
  8
2
 10
196.81353156298141
 20
89.725134793828488
 30
0.0
 40
4.0
  0
LINE
  5
7F0
  8
1
 10
196.81353156298141
 20
101.7251347938285
 30
0.0
 11
196.81353156298141
 21
77.725134793828474
 31
0.0
  0
LINE
  5
7F1
  8
1
 10
208.8135315629815
 20
89.725134793828488
 30
0.0
 11
184.81353156298141
 21
89.725134793828488
 31
0.0
  0
LINE
  5
7F2
  8
0
 10
203.88459937484691
 20
87.725134793828488
 30
0.0
 11
215.7135315629811
 21
87.725134793828488
 31
0.0
  0
LINE
  5
7F3
  8
0
 10
231.31353156298141
 20
88.225134793828474
 30
0.0
 11
231.31353156298141
 21
91.025134793828556
 31
0.0
  0
LINE
  5
7F4
  8
0
 10
230.81353156298141
 20
91.525134793828556
 30
0.0
 11
203.95215888201139
 21
91.525134793828457
 31
0.0
  0
ARC
  5
7F5
  8
0
 10
230.81353156298141
 20
88.225134793828474
 30
0.0
 40
0.5
 50
270.0
 51
0.0
  0
ARC
  5
7F6
  8
0
 10
230.81353156298141
 20
91.025134793828556
 30
0.0
 40
0.5
 50
0.0
 51
90.0
  0
ARC
  5
7F7
  8
0
 10
203.9521588820113
 20
92.025134793828443
 30
0.0
 40
0.5
 50
197.85846269840749
 51
270.00000000001302
  0
ARC
  5
7F8
  8
0
 10
203.88459937484691
 20
87.225134793828488
 30
0.0
 40
0.5
 50
90.0
 51
160.5287793655101
  0
LINE
  5
7F9
  8
1
 10
174.31353156298141
 20
201.22513479382849
 30
0.0
 11
174.31353156298141
 21
216.2251347938286
 31
0.0
  0
LINE
  5
7FA
  8
0
 10
162.31353156298141
 20
228.7251347938284
 30
0.0
 11
203.81353156298161
 21
228.7251347938284
 31
0.0
  0
LINE
  5
7FB
  8
0
 10
287.95998424511401
 20
79.525134793828443
 30
0.0
 11
289.9195760393568
 21
79.525134793828329
 31
0.0
  0
LINE
  5
7FC
  8
2
 10
287.95998424511419
 20
79.525134793828443
 30
0.0
 11
287.4135315629814
 21
79.525134793828443
 31
0.0
  0
ARC
  5
7FD
  8
0
 10
282.93978014223541
 20
79.47513479383224
 30
0.0
 40
1.500000000000004
 50
215.0847230212097
 51
324.8896907253079
  0
ARC
  5
7FE
  8
0
 10
282.9392165493262
 20
76.95100639432053
 30
0.0
 40
2.0657520924870849
 50
41.380850822951402
 51
138.6191491770486
  0
LINE
  5
7FF
  8
0
 10
293.51353156298143
 20
84.725134793834059
 30
0.0
 11
276.51353156298143
 21
84.725134793834059
 31
0.0
  0
LINE
  5
800
  8
0
 10
281.38921654932761
 20
78.316594805086993
 30
0.0
 11
276.51353156298143
 21
78.316594805086993
 31
0.0
  0
LINE
  5
801
  8
0
 10
276.51353156298143
 20
78.316594805086993
 30
0.0
 11
276.51353156298143
 21
84.725134793834059
 31
0.0
  0
LINE
  5
802
  8
0
 10
293.51353156298143
 20
78.316594805086993
 30
0.0
 11
291.18893888359412
 21
78.316594805086993
 31
0.0
  0
LINE
  5
803
  8
0
 10
286.69062140087573
 20
78.316594805085174
 30
0.0
 11
284.4892165493261
 21
78.316594805085174
 31
0.0
  0
ARC
  5
804
  8
0
 10
288.93978014223541
 20
77.225134793831899
 30
0.0
 40
2.5
 50
25.886129447825351
 51
154.1138705522213
  0
LINE
  5
805
  8
0
 10
293.51353156298143
 20
78.316594805086993
 30
0.0
 11
293.51353156298143
 21
84.725134793834059
 31
0.0
  0
LINE
  5
806
  8
1
 10
289.01353156298143
 20
94.025134793828556
 30
0.0
 11
289.01353156298143
 21
75.483674716406995
 31
0.0
  0
LINE
  5
807
  8
2
 10
286.94653156298108
 20
87.975156794151417
 30
0.0
 11
286.51353156298143
 21
88.725134793828374
 31
0.0
  0
LINE
  5
808
  8
2
 10
291.51353156298143
 20
80.42513479382842
 30
0.0
 11
286.51353156298143
 21
80.42513479382842
 31
0.0
  0
LINE
  5
809
  8
2
 10
287.4135315629814
 20
79.525134793828443
 30
0.0
 11
286.51353156298143
 21
80.42513479382842
 31
0.0
  0
LINE
  5
80A
  8
2
 10
291.51353156298143
 20
80.42513479382842
 30
0.0
 11
290.61353156298128
 21
79.525134793828443
 31
0.0
  0
LINE
  5
80B
  8
2
 10
291.08053156298161
 20
87.975156794151417
 30
0.0
 11
291.51353156298143
 21
88.725134793828374
 31
0.0
  0
LINE
  5
80C
  8
2
 10
291.51353156298143
 20
87.975156794151417
 30
0.0
 11
286.51353156298143
 21
87.975156794151417
 31
0.0
  0
LINE
  5
80D
  8
2
 10
290.61353156298128
 20
79.525134793828443
 30
0.0
 11
289.9195760393568
 21
79.525134793828443
 31
0.0
  0
LINE
  5
80E
  8
2
 10
291.51353156298143
 20
88.725134793828374
 30
0.0
 11
291.51353156298143
 21
85.725134793828374
 31
0.0
  0
LINE
  5
80F
  8
2
 10
291.08053156298161
 20
87.975156794151417
 30
0.0
 11
291.08053156298138
 21
85.725134793828374
 31
0.0
  0
LINE
  5
810
  8
2
 10
286.94653156298108
 20
87.975156794151417
 30
0.0
 11
286.94653156298108
 21
85.725134793828474
 31
0.0
  0
LINE
  5
811
  8
2
 10
286.51353156298143
 20
88.725134793828488
 30
0.0
 11
286.51353156298143
 21
85.725134793828474
 31
0.0
  0
LINE
  5
812
  8
2
 10
294.01353156298131
 20
91.525134793828315
 30
0.0
 11
294.01353156298131
 21
91.225134793828374
 31
0.0
  0
LINE
  5
813
  8
2
 10
294.01353156298131
 20
91.225134793828374
 30
0.0
 11
284.01353156298143
 21
91.225134793828374
 31
0.0
  0
LINE
  5
814
  8
2
 10
284.01353156298143
 20
91.225134793828374
 30
0.0
 11
284.01353156298143
 21
91.525134793828315
 31
0.0
  0
LINE
  5
815
  8
2
 10
284.01353156298143
 20
91.525134793828315
 30
0.0
 11
294.01353156298131
 21
91.525134793828315
 31
0.0
  0
LINE
  5
816
  8
2
 10
294.01353156298131
 20
91.225134793828374
 30
0.0
 11
291.51353156298143
 21
88.725134793828374
 31
0.0
  0
LINE
  5
817
  8
2
 10
284.01353156298143
 20
91.225134793828374
 30
0.0
 11
286.51353156298143
 21
88.725134793828374
 31
0.0
  0
LINE
  5
818
  8
2
 10
291.51353156298143
 20
88.725134793828374
 30
0.0
 11
286.51353156298143
 21
88.725134793828374
 31
0.0
  0
LINE
  5
819
  8
0
 10
286.51353156298143
 20
85.725134793828374
 30
0.0
 11
286.5135315629812
 21
84.725134793834059
 31
0.0
  0
LINE
  5
81A
  8
0
 10
291.51353156298143
 20
85.725134793828474
 30
0.0
 11
291.51353156298131
 21
84.725134793834059
 31
0.0
  0
LINE
  5
81B
  8
3
 10
291.08053156298161
 20
85.725134793828474
 30
0.0
 11
291.08053156298161
 21
84.725134793834059
 31
0.0
  0
LINE
  5
81C
  8
3
 10
286.94653156298108
 20
85.725134793828474
 30
0.0
 11
286.94653156298108
 21
84.725134793834059
 31
0.0
  0
LINE
  5
81D
  8
2
 10
291.51353156298143
 20
84.725134793834059
 30
0.0
 11
291.51353156298143
 21
80.42513479382842
 31
0.0
  0
LINE
  5
81E
  8
2
 10
291.08053156298161
 20
84.725134793834059
 30
0.0
 11
291.08053156298161
 21
79.992134793828654
 31
0.0
  0
LINE
  5
81F
  8
2
 10
286.94653156298142
 20
84.725134793834059
 30
0.0
 11
286.94653156298108
 21
79.992134793828654
 31
0.0
  0
LINE
  5
820
  8
2
 10
286.5135315629812
 20
84.725134793834059
 30
0.0
 11
286.51353156298143
 21
80.42513479382842
 31
0.0
  0
LINE
  5
821
  8
1
 10
262.51353156298131
 20
89.725134793828374
 30
0.0
 11
357.51353156298131
 21
89.725134793828374
 31
0.0
  0
LINE
  5
822
  8
0
 10
269.01353156298143
 20
87.725134793828488
 30
0.0
 11
309.01353156298143
 21
87.725134793828488
 31
0.0
  0
LINE
  5
823
  8
0
 10
269.01353156298143
 20
91.525134793828457
 30
0.0
 11
309.01353156298131
 21
91.525134793828457
 31
0.0
  0
LINE
  5
824
  8
0
 10
267.51353156298143
 20
96.725134793828374
 30
0.0
 11
352.51353156298143
 21
96.725134793828374
 31
0.0
  0
LINE
  5
825
  8
0
 10
351.01353156298143
 20
96.725134793828374
 30
0.0
 11
351.0135315629812
 21
82.725134793828602
 31
0.0
  0
LINE
  5
826
  8
0
 10
311.01353156298143
 20
96.725134793828374
 30
0.0
 11
311.01353156298143
 21
82.725134793828602
 31
0.0
  0
LINE
  5
827
  8
0
 10
309.01353156298143
 20
96.725134793828374
 30
0.0
 11
309.01353156298143
 21
82.725134793828374
 31
0.0
  0
LINE
  5
828
  8
0
 10
269.01353156298143
 20
96.725134793828374
 30
0.0
 11
269.01353156298109
 21
82.725134793828488
 31
0.0
  0
LINE
  5
829
  8
1
 10
196.8135315629813
 20
140.22513479382829
 30
0.0
 11
196.8135315629813
 21
235.2251347938284
 31
0.0
  0
CIRCLE
  5
82A
  8
0
 10
219.3135315629815
 20
166.72513479382829
 30
0.0
 40
5.0
  0
LINE
  5
82B
  8
0
 10
217.8135315629813
 20
167.59116019761271
 30
0.0
 11
217.81353156298161
 21
165.85910939004401
 31
0.0
  0
LINE
  5
82C
  8
0
 10
219.3135315629815
 20
168.4571856013973
 30
0.0
 11
217.8135315629813
 21
167.59116019761271
 31
0.0
  0
LINE
  5
82D
  8
0
 10
220.81353156298141
 20
167.59116019761311
 30
0.0
 11
219.3135315629815
 21
168.4571856013973
 31
0.0
  0
LINE
  5
82E
  8
0
 10
220.81353156298141
 20
165.85910939004401
 30
0.0
 11
220.81353156298141
 21
167.59116019761311
 31
0.0
  0
LINE
  5
82F
  8
0
 10
219.3135315629815
 20
164.99308398625951
 30
0.0
 11
220.81353156298141
 21
165.85910939004401
 31
0.0
  0
LINE
  5
830
  8
0
 10
217.81353156298161
 20
165.85910939004401
 30
0.0
 11
219.3135315629815
 21
164.99308398625951
 31
0.0
  0
LINE
  5
831
  8
1
 10
219.3135315629815
 20
159.2251347938284
 30
0.0
 11
219.3135315629815
 21
174.22513479382829
 31
0.0
  0
LINE
  5
832
  8
1
 10
226.81353156298141
 20
166.72513479382829
 30
0.0
 11
211.81353156298141
 21
166.72513479382829
 31
0.0
  0
LINE
  5
833
  8
0
 10
162.3135315629815
 20
188.7251347938286
 30
0.0
 11
203.8135315629813
 21
188.7251347938282
 31
0.0
  0
LINE
  5
834
  8
0
 10
189.8135315629813
 20
186.72513479382829
 30
0.0
 11
231.31353156298161
 21
186.72513479382829
 31
0.0
  0
LINE
  5
835
  8
0
 10
189.8135315629815
 20
146.7251347938284
 30
0.0
 11
231.3135315629813
 21
146.7251347938284
 31
0.0
  0
LINE
  5
836
  8
0
 10
189.81353156298141
 20
145.22513479382829
 30
0.0
 11
189.8135315629813
 21
188.72513479382829
 31
0.0
  0
LINE
  5
837
  8
0
 10
203.8135315629813
 20
186.7251347938284
 30
0.0
 11
203.8135315629813
 21
230.2251347938284
 31
0.0
  0
LINE
  5
838
  8
0
 10
162.3135315629815
 20
188.7251347938286
 30
0.0
 11
162.31353156298141
 21
228.7251347938284
 31
0.0
  0
LINE
  5
839
  8
0
 10
231.3135315629813
 20
146.7251347938284
 30
0.0
 11
231.3135315629813
 21
186.72513479382829
 31
0.0
  0
CIRCLE
  5
83A
  8
0
 10
219.3135315629815
 20
166.72513479382829
 30
0.0
 40
5.2000000000000002
  0
ARC
  5
849
  8
0
 10
222.91353156298121
 20
87.225134793828474
 30
0.0
 40
0.5
 50
90.0
 51
180.0000000000046
  0
ARC
  5
84A
  8
0
 10
215.7135315629811
 20
87.225134793828488
 30
0.0
 40
0.5
 50
0.0000000000046309
 51
90.0
  0
ARC
  5
84B
  8
0
 10
177.91353156298189
 20
87.225134793828488
 30
0.0
 40
0.5
 50
90.0
 51
179.99999999999531
  0
ARC
  5
84C
  8
0
 10
170.7135315629817
 20
87.225134793828474
 30
0.0
 40
0.5
 50
359.9999999999954
 51
90.0
  0
LINE
  5
853
  8
0
 10
203.65776685313381
 20
146.7251347938284
 30
0.0
 11
203.65776685313369
 21
186.72513479382829
 31
0.0
  0
LINE
  5
854
  8
0
 10
189.9692962728289
 20
188.72513479382829
 30
0.0
 11
189.9692962728289
 21
228.7251347938284
 31
0.0
  0
LINE
  5
873
  8
0
 10
189.8135315629813
 20
230.2251347938284
 30
0.0
 11
203.81353156298161
 21
230.2251347938284
 31
0.0
  0
LINE
  5
874
  8
0
 10
189.8135315629815
 20
145.22513479382829
 30
0.0
 11
203.8135315629813
 21
145.22513479382829
 31
0.0
  0
CIRCLE
  5
877
  8
0
 10
196.8135315629813
 20
89.725134793828488
 30
0.0
 40
7.0
  0
LINE
  5
87A
  8
0
 10
189.8135315629813
 20
230.2251347938284
 30
0.0
 11
189.8135315629813
 21
228.7251347938284
 31
0.0
  0
LINE
  5
87B
  8
0
 10
203.8135315629813
 20
145.22513479382829
 30
0.0
 11
203.8135315629813
 21
146.7251347938284
 31
0.0
  0
LINE
  5
882
  8
0
 10
352.51353156298143
 20
96.72513479382836
 30
0.0
 11
352.51353156298131
 21
82.725134793828573
 31
0.0
  0
LINE
  5
883
  8
0
 10
267.51353156298143
 20
96.725134793828417
 30
0.0
 11
267.5135315629812
 21
82.725134793828516
 31
0.0
  0
LINE
  5
886
  8
0
 10
126.11353156298171
 20
96.72513479382836
 30
0.0
 11
126.11353156298161
 21
82.725134793828573
 31
0.0
  0
LINE
  5
887
  8
0
 10
41.113531562981727
 20
96.725134793828417
 30
0.0
 11
41.1135315629815
 21
82.725134793828516
 31
0.0
  0
TEXT
  5
93A
  8
0
 62
     3
 10
0.0
 20
0.0
 30
0.0
 40
10.0
  1
L6-HAS30-6/6
  7
STANDARD1
  0
ENDSEC
  0
EOF
