  0
SECTION
  2
HEADER
  9
$ACADVER
  1
AC1009
  9
$INSBASE
 10
0.0
 20
0.0
 30
0.0
  9
$EXTMIN
 10
0.0
 20
-2.960436562073669
 30
0.0
  9
$EXTMAX
 10
377.5135315629816
 20
225.22513479382829
 30
0.0
  9
$LIMMIN
 10
0.0
 20
0.0
  9
$LIMMAX
 10
195.0
 20
135.0
  9
$ORTHOMODE
 70
     0
  9
$REGENMODE
 70
     1
  9
$FILLMODE
 70
     1
  9
$QTEXTMODE
 70
     0
  9
$MIRRTEXT
 70
     0
  9
$DRAGMODE
 70
     2
  9
$LTSCALE
 40
5.0
  9
$OSMODE
 70
  3071
  9
$ATTMODE
 70
     1
  9
$TEXTSIZE
 40
0.2
  9
$TRACEWID
 40
0.05
  9
$TEXTSTYLE
  7
KANJI104
  9
$CLAYER
  8
0
  9
$CELTYPE
  6
BYLAYER
  9
$CECOLOR
 62
   256
  9
$DIMSCALE
 40
0.5
  9
$DIMASZ
 40
3.0
  9
$DIMEXO
 40
2.0
  9
$DIMDLI
 40
0.38
  9
$DIMRND
 40
0.0
  9
$DIMDLE
 40
0.0
  9
$DIMEXE
 40
2.0
  9
$DIMTP
 40
0.0
  9
$DIMTM
 40
0.0
  9
$DIMTXT
 40
3.0
  9
$DIMCEN
 40
0.0
  9
$DIMTSZ
 40
0.0
  9
$DIMTOL
 70
     0
  9
$DIMLIM
 70
     0
  9
$DIMTIH
 70
     0
  9
$DIMTOH
 70
     0
  9
$DIMSE1
 70
     0
  9
$DIMSE2
 70
     0
  9
$DIMTAD
 70
     1
  9
$DIMZIN
 70
     0
  9
$DIMBLK
  1

  9
$DIMASO
 70
     0
  9
$DIMSHO
 70
     0
  9
$DIMPOST
  1

  9
$DIMAPOST
  1

  9
$DIMALT
 70
     0
  9
$DIMALTD
 70
     2
  9
$DIMALTF
 40
25.399999999999999
  9
$DIMLFAC
 40
1.0
  9
$DIMTOFL
 70
     1
  9
$DIMTVP
 40
0.0
  9
$DIMTIX
 70
     1
  9
$DIMSOXD
 70
     0
  9
$DIMSAH
 70
     0
  9
$DIMBLK1
  1

  9
$DIMBLK2
  1

  9
$DIMSTYLE
  2
STANDARD
  9
$DIMCLRD
 70
     0
  9
$DIMCLRE
 70
     0
  9
$DIMCLRT
 70
     0
  9
$DIMTFAC
 40
1.0
  9
$DIMGAP
 40
0.09
  9
$LUNITS
 70
     2
  9
$LUPREC
 70
     4
  9
$SKETCHINC
 40
0.1
  9
$FILLETRAD
 40
0.5
  9
$AUNITS
 70
     0
  9
$AUPREC
 70
     0
  9
$MENU
  1
E:\r13\win\SUPPORT\ACAD
  9
$ELEVATION
 40
0.0
  9
$PELEVATION
 40
0.0
  9
$THICKNESS
 40
0.0
  9
$LIMCHECK
 70
     0
  9
$BLIPMODE
 70
     0
  9
$CHAMFERA
 40
0.0
  9
$CHAMFERB
 40
0.0
  9
$SKPOLY
 70
     0
  9
$TDCREATE
 40
2449840.6489120368
  9
$TDUPDATE
 40
2456597.5619754861
  9
$TDINDWG
 40
0.0796347222
  9
$TDUSRTIMER
 40
0.0796347222
  9
$USRTIMER
 70
     1
  9
$ANGBASE
 50
0.0
  9
$ANGDIR
 70
     0
  9
$PDMODE
 70
     0
  9
$PDSIZE
 40
0.0
  9
$PLINEWID
 40
0.0
  9
$COORDS
 70
     1
  9
$SPLFRAME
 70
     0
  9
$SPLINETYPE
 70
     6
  9
$SPLINESEGS
 70
     8
  9
$ATTDIA
 70
     0
  9
$ATTREQ
 70
     1
  9
$HANDLING
 70
     1
  9
$HANDSEED
  5
D2E
  9
$SURFTAB1
 70
     6
  9
$SURFTAB2
 70
     6
  9
$SURFTYPE
 70
     6
  9
$SURFU
 70
     6
  9
$SURFV
 70
     6
  9
$UCSNAME
  2

  9
$UCSORG
 10
0.0
 20
0.0
 30
0.0
  9
$UCSXDIR
 10
1.0
 20
0.0
 30
0.0
  9
$UCSYDIR
 10
0.0
 20
1.0
 30
0.0
  9
$PUCSNAME
  2

  9
$PUCSORG
 10
0.0
 20
0.0
 30
0.0
  9
$PUCSXDIR
 10
1.0
 20
0.0
 30
0.0
  9
$PUCSYDIR
 10
0.0
 20
1.0
 30
0.0
  9
$USERI1
 70
     3
  9
$USERI2
 70
     1
  9
$USERI3
 70
     1
  9
$USERI4
 70
     0
  9
$USERI5
 70
     0
  9
$USERR1
 40
0.5
  9
$USERR2
 40
3.0
  9
$USERR3
 40
3.0
  9
$USERR4
 40
3.0
  9
$USERR5
 40
10.0
  9
$WORLDVIEW
 70
     1
  9
$SHADEDGE
 70
     3
  9
$SHADEDIF
 70
    70
  9
$TILEMODE
 70
     1
  9
$MAXACTVP
 70
    16
  9
$PLIMCHECK
 70
     0
  9
$PEXTMIN
 10
1.0000000000000000E+020
 20
1.0000000000000000E+020
 30
1.0000000000000000E+020
  9
$PEXTMAX
 10
-1.0000000000000000E+020
 20
-1.0000000000000000E+020
 30
-1.0000000000000000E+020
  9
$PLIMMIN
 10
0.0
 20
0.0
  9
$PLIMMAX
 10
12.0
 20
9.0
  9
$UNITMODE
 70
     0
  9
$VISRETAIN
 70
     0
  9
$PLINEGEN
 70
     0
  9
$PSLTSCALE
 70
     0
  0
ENDSEC
  0
SECTION
  2
TABLES
  0
TABLE
  2
VPORT
 70
     1
  0
VPORT
  2
*ACTIVE
 70
     0
 10
0.0
 20
0.0
 11
1.0
 21
1.0
 12
188.75676666045791
 22
135.66917038030269
 13
0.0
 23
0.0
 14
5.0
 24
5.0
 15
5.0
 25
5.0
 16
0.0
 26
0.0
 36
1.0
 17
0.0
 27
0.0
 37
0.0
 40
279.88607069609179
 41
1.9089595375722539
 42
50.0
 43
0.0
 44
0.0
 50
0.0
 51
0.0
 71
     0
 72
   100
 73
     1
 74
     0
 75
     0
 76
     0
 77
     0
 78
     0
  0
ENDTAB
  0
TABLE
  2
LTYPE
 70
     4
  0
LTYPE
  2
CONTINUOUS
 70
     0
  3
Solid Line
 72
    65
 73
     0
 40
0.0
  0
LTYPE
  2
CENTER
 70
     0
  3
____ _ ____ _ ____ _ ____ _ ____ _ ____ _ ____
 72
    65
 73
     4
 40
2.0
 49
1.25
 49
-0.25
 49
0.25
 49
-0.25
  0
LTYPE
  2
HIDDEN
 70
     0
  3
_ _ _ _ _ _ _ _ _ _ _ _ _ _ _ _ _ _ _ _ _ _ _
 72
    65
 73
     2
 40
0.375
 49
0.25
 49
-0.125
  0
LTYPE
  2
PHANTOM2
 70
     0
  3
___ _ _ ___ _ _ ___ _ _ ___ _ _
 72
    65
 73
     6
 40
1.25
 49
0.625
 49
-0.125
 49
0.125
 49
-0.125
 49
0.125
 49
-0.125
  0
ENDTAB
  0
TABLE
  2
LAYER
 70
     4
  0
LAYER
  2
0
 70
     0
 62
     7
  6
CONTINUOUS
  0
LAYER
  2
1
 70
     0
 62
     1
  6
CENTER
  0
LAYER
  2
3
 70
     0
 62
     3
  6
CONTINUOUS
  0
LAYER
  2
2
 70
     0
 62
     2
  6
HIDDEN
  0
ENDTAB
  0
TABLE
  2
STYLE
 70
     3
  0
STYLE
  2
STANDARD
 70
     0
 40
0.0
 41
1.0
 50
0.0
 71
     0
 42
5.0
  3
TXT
  4
BIGFONT
  0
STYLE
  2
KANJI104
 70
     0
 40
6.0
 41
0.7
 50
0.0
 71
     0
 42
0.2
  3
TXT
  4
BIGFONT
  0
STYLE
  2
STANDARD1
 70
     0
 40
0.0
 41
1.0
 50
0.0
 71
     0
 42
3.0
  3
txt
  4

  0
ENDTAB
  0
TABLE
  2
VIEW
 70
     1
  0
VIEW
  2
ALL
 70
     0
 40
175.0
 10
143.23529400000001
 20
87.5
 41
0.0
 11
0.0
 21
0.0
 31
1.0
 12
0.0
 22
0.0
 32
0.0
 42
0.0
 43
0.0
 44
0.0
 50
0.0
 71
     0
  0
ENDTAB
  0
TABLE
  2
UCS
 70
     0
  0
ENDTAB
  0
TABLE
  2
APPID
 70
     5
  0
APPID
  2
ACAD
 70
     0
  0
APPID
  2
GENIUS_GENODEF_13
 70
     0
  0
APPID
  2
GENIUS_GENOBJ-N-FIL_13
 70
     0
  0
APPID
  2
ACAD_MLEADERVER
 70
     0
  0
APPID
  2
ACAD_NAV_VCDISPLAY
 70
     0
  0
ENDTAB
  0
TABLE
  2
DIMSTYLE
 70
     1
  0
DIMSTYLE
  2
STANDARD
 70
     0
  3

  4

  5

  6

  7

 40
1.0
 41
0.18
 42
0.0625
 43
0.38
 44
0.18
 45
0.0
 46
0.0
 47
0.0
 48
0.0
140
0.18
141
0.09
142
0.0
143
25.399999999999999
144
1.0
145
0.0
146
1.0
147
0.09
 71
     0
 72
     0
 73
     1
 74
     1
 75
     0
 76
     0
 77
     0
 78
     0
170
     0
171
     2
172
     0
173
     0
174
     0
175
     0
176
     0
177
     0
178
     0
  0
ENDTAB
  0
ENDSEC
  0
SECTION
  2
BLOCKS
  0
BLOCK
  8
0
  2
$MODEL_SPACE
 70
     0
 10
0.0
 20
0.0
 30
0.0
  3
$MODEL_SPACE
  1

  0
ENDBLK
  5
118
  8
0
  0
BLOCK
 67
     1
  8
0
  2
$PAPER_SPACE
 70
     0
 10
0.0
 20
0.0
 30
0.0
  3
$PAPER_SPACE
  1

  0
ENDBLK
  5
116
 67
     1
  8
0
  0
ENDSEC
  0
SECTION
  2
ENTITIES
  0
LINE
  5
A70
  8
1
 10
351.01353156298183
 20
88.525134793828329
 30
0.0
 11
351.01353156298183
 21
69.983674716406753
 31
0.0
  0
LINE
  5
A71
  8
2
 10
348.5135315629816
 20
79.225134793834059
 30
0.0
 11
348.51353156298183
 21
74.92513479382842
 31
0.0
  0
LINE
  5
A72
  8
2
 10
348.94653156298182
 20
79.225134793834059
 30
0.0
 11
348.94653156298159
 21
74.492134793828654
 31
0.0
  0
LINE
  5
A73
  8
2
 10
353.080531562982
 20
79.225134793834059
 30
0.0
 11
353.080531562982
 21
74.492134793828654
 31
0.0
  0
LINE
  5
A74
  8
2
 10
353.51353156298183
 20
79.225134793834059
 30
0.0
 11
353.51353156298183
 21
74.92513479382842
 31
0.0
  0
LINE
  5
A75
  8
3
 10
348.94653156298159
 20
80.225134793828374
 30
0.0
 11
348.94653156298159
 21
79.225134793833945
 31
0.0
  0
LINE
  5
A76
  8
3
 10
353.080531562982
 20
80.225134793828374
 30
0.0
 11
353.080531562982
 21
79.225134793833945
 31
0.0
  0
LINE
  5
A77
  8
0
 10
353.51353156298183
 20
80.225134793828374
 30
0.0
 11
353.51353156298183
 21
79.225134793834059
 31
0.0
  0
LINE
  5
A78
  8
0
 10
348.51353156298183
 20
80.225134793828374
 30
0.0
 11
348.5135315629816
 21
79.225134793833945
 31
0.0
  0
LINE
  5
A79
  8
2
 10
353.51353156298183
 20
83.225134793828374
 30
0.0
 11
348.51353156298183
 21
83.225134793828374
 31
0.0
  0
LINE
  5
A7A
  8
2
 10
346.01353156298183
 20
85.725134793828374
 30
0.0
 11
348.51353156298183
 21
83.225134793828374
 31
0.0
  0
LINE
  5
A7B
  8
2
 10
356.01353156298183
 20
85.725134793828374
 30
0.0
 11
353.51353156298183
 21
83.225134793828374
 31
0.0
  0
LINE
  5
A7C
  8
2
 10
346.01353156298183
 20
86.025134793828329
 30
0.0
 11
356.01353156298183
 21
86.025134793828329
 31
0.0
  0
LINE
  5
A7D
  8
2
 10
346.01353156298183
 20
85.725134793828374
 30
0.0
 11
346.01353156298183
 21
86.025134793828329
 31
0.0
  0
LINE
  5
A7E
  8
2
 10
356.01353156298183
 20
85.725134793828374
 30
0.0
 11
346.01353156298183
 21
85.725134793828374
 31
0.0
  0
LINE
  5
A7F
  8
2
 10
356.01353156298183
 20
86.025134793828329
 30
0.0
 11
356.01353156298183
 21
85.725134793828374
 31
0.0
  0
LINE
  5
A80
  8
2
 10
348.51353156298183
 20
83.225134793828374
 30
0.0
 11
348.51353156298183
 21
80.225134793828374
 31
0.0
  0
LINE
  5
A81
  8
2
 10
348.94653156298159
 20
82.475156794151417
 30
0.0
 11
348.94653156298159
 21
80.225134793828374
 31
0.0
  0
LINE
  5
A82
  8
2
 10
353.080531562982
 20
82.475156794151417
 30
0.0
 11
353.08053156298178
 21
80.225134793828374
 31
0.0
  0
LINE
  5
A83
  8
2
 10
353.51353156298183
 20
83.225134793828374
 30
0.0
 11
353.51353156298183
 21
80.225134793828374
 31
0.0
  0
LINE
  5
A84
  8
2
 10
352.61353156298168
 20
74.025134793828315
 30
0.0
 11
351.9195760393572
 21
74.025134793828315
 31
0.0
  0
LINE
  5
A85
  8
2
 10
353.51353156298183
 20
82.475156794151417
 30
0.0
 11
348.51353156298183
 21
82.475156794151417
 31
0.0
  0
LINE
  5
A86
  8
2
 10
353.080531562982
 20
82.475156794151417
 30
0.0
 11
353.51353156298183
 21
83.225134793828374
 31
0.0
  0
LINE
  5
A87
  8
2
 10
353.51353156298183
 20
74.92513479382842
 30
0.0
 11
352.61353156298168
 21
74.025134793828315
 31
0.0
  0
LINE
  5
A88
  8
2
 10
349.41353156298192
 20
74.025134793828315
 30
0.0
 11
348.51353156298183
 21
74.92513479382842
 31
0.0
  0
LINE
  5
A89
  8
2
 10
353.51353156298183
 20
74.92513479382842
 30
0.0
 11
348.51353156298183
 21
74.92513479382842
 31
0.0
  0
LINE
  5
A8A
  8
2
 10
348.94653156298159
 20
82.475156794151417
 30
0.0
 11
348.51353156298183
 21
83.225134793828374
 31
0.0
  0
LINE
  5
A8B
  8
0
 10
355.51353156298183
 20
72.816594805086879
 30
0.0
 11
355.51353156298183
 21
79.225134793834059
 31
0.0
  0
ARC
  5
A8C
  8
0
 10
350.9397801422358
 20
71.725134793831785
 30
0.0
 40
2.5
 50
25.886129447825351
 51
154.11387055222161
  0
LINE
  5
A8D
  8
0
 10
348.69062140087613
 20
72.81659480508506
 30
0.0
 11
346.48921654932661
 21
72.81659480508506
 31
0.0
  0
LINE
  5
A8E
  8
0
 10
355.51353156298183
 20
72.816594805086879
 30
0.0
 11
353.18893888359457
 21
72.816594805086879
 31
0.0
  0
LINE
  5
A8F
  8
0
 10
338.51353156298183
 20
72.816594805086879
 30
0.0
 11
338.51353156298183
 21
79.225134793834059
 31
0.0
  0
LINE
  5
A90
  8
0
 10
343.38921654932801
 20
72.816594805086879
 30
0.0
 11
338.51353156298183
 21
72.816594805086879
 31
0.0
  0
LINE
  5
A91
  8
0
 10
355.51353156298183
 20
79.225134793834059
 30
0.0
 11
338.51353156298183
 21
79.225134793834059
 31
0.0
  0
ARC
  5
A92
  8
0
 10
344.9392165493266
 20
71.45100639432053
 30
0.0
 40
2.0657520924870849
 50
41.380850822950343
 51
138.61914917704959
  0
ARC
  5
A93
  8
0
 10
344.9397801422358
 20
73.97513479383224
 30
0.0
 40
1.500000000000004
 50
215.08472302120919
 51
324.88969072530699
  0
LINE
  5
A94
  8
2
 10
349.95998424511458
 20
74.025134793828315
 30
0.0
 11
349.41353156298192
 21
74.025134793828315
 31
0.0
  0
LINE
  5
A95
  8
0
 10
349.9599842451143
 20
74.025134793828315
 30
0.0
 11
351.9195760393572
 21
74.025134793828315
 31
0.0
  0
LINE
  5
A96
  8
0
 10
331.01353156298171
 20
80.225134793828488
 30
0.0
 11
371.0135315629816
 21
80.225134793828374
 31
0.0
  0
LINE
  5
A97
  8
2
 10
60.625699008320339
 20
79.225134793834059
 30
0.0
 11
60.625699008320559
 21
74.92513479382842
 31
0.0
  0
LINE
  5
A98
  8
2
 10
61.058699008320559
 20
79.225134793834059
 30
0.0
 11
61.058699008320332
 21
74.492134793828654
 31
0.0
  0
LINE
  5
A99
  8
2
 10
65.192699008320574
 20
79.225134793834059
 30
0.0
 11
65.192699008320574
 21
74.492134793828654
 31
0.0
  0
LINE
  5
A9A
  8
2
 10
65.625699008320566
 20
79.225134793834059
 30
0.0
 11
65.625699008320566
 21
74.92513479382842
 31
0.0
  0
LINE
  5
A9B
  8
3
 10
61.058699008320332
 20
80.225134793828374
 30
0.0
 11
61.058699008320332
 21
79.225134793833945
 31
0.0
  0
LINE
  5
A9C
  8
3
 10
65.192699008320574
 20
80.225134793828374
 30
0.0
 11
65.192699008320574
 21
79.225134793833945
 31
0.0
  0
LINE
  5
A9D
  8
0
 10
65.625699008320566
 20
80.225134793828374
 30
0.0
 11
65.625699008320339
 21
79.225134793834059
 31
0.0
  0
LINE
  5
A9E
  8
0
 10
60.625699008320559
 20
80.225134793828374
 30
0.0
 11
60.625699008320339
 21
79.225134793833945
 31
0.0
  0
LINE
  5
A9F
  8
2
 10
65.625699008320566
 20
83.225134793828374
 30
0.0
 11
60.625699008320559
 21
83.225134793828374
 31
0.0
  0
LINE
  5
AA0
  8
2
 10
58.125699008320559
 20
85.725134793828374
 30
0.0
 11
60.625699008320559
 21
83.225134793828374
 31
0.0
  0
LINE
  5
AA1
  8
2
 10
68.125699008320566
 20
85.725134793828374
 30
0.0
 11
65.625699008320566
 21
83.225134793828374
 31
0.0
  0
LINE
  5
AA2
  8
2
 10
58.125699008320559
 20
86.025134793828329
 30
0.0
 11
68.125699008320566
 21
86.025134793828329
 31
0.0
  0
LINE
  5
AA3
  8
2
 10
58.125699008320559
 20
85.725134793828374
 30
0.0
 11
58.125699008320559
 21
86.025134793828329
 31
0.0
  0
LINE
  5
AA4
  8
2
 10
68.125699008320566
 20
85.725134793828374
 30
0.0
 11
58.125699008320559
 21
85.725134793828374
 31
0.0
  0
LINE
  5
AA5
  8
2
 10
68.125699008320566
 20
86.025134793828329
 30
0.0
 11
68.125699008320566
 21
85.725134793828374
 31
0.0
  0
LINE
  5
AA6
  8
2
 10
60.625699008320559
 20
83.225134793828374
 30
0.0
 11
60.625699008320559
 21
80.225134793828374
 31
0.0
  0
LINE
  5
AA7
  8
2
 10
61.058699008320332
 20
82.475156794151417
 30
0.0
 11
61.058699008320097
 21
80.225134793828374
 31
0.0
  0
LINE
  5
AA8
  8
2
 10
65.192699008320801
 20
82.475156794151417
 30
0.0
 11
65.192699008320574
 21
80.225134793828374
 31
0.0
  0
LINE
  5
AA9
  8
2
 10
65.625699008320566
 20
83.225134793828374
 30
0.0
 11
65.625699008320566
 21
80.225134793828374
 31
0.0
  0
LINE
  5
AAA
  8
2
 10
64.725699008320476
 20
74.025134793828315
 30
0.0
 11
64.031743484695994
 21
74.025134793828315
 31
0.0
  0
LINE
  5
AAB
  8
2
 10
65.625699008320566
 20
82.475156794151417
 30
0.0
 11
60.625699008320559
 21
82.475156794151417
 31
0.0
  0
LINE
  5
AAC
  8
2
 10
65.192699008320801
 20
82.475156794151417
 30
0.0
 11
65.625699008320566
 21
83.225134793828374
 31
0.0
  0
LINE
  5
AAD
  8
2
 10
65.625699008320566
 20
74.92513479382842
 30
0.0
 11
64.725699008320476
 21
74.025134793828315
 31
0.0
  0
LINE
  5
AAE
  8
2
 10
61.52569900832043
 20
74.025134793828315
 30
0.0
 11
60.625699008320559
 21
74.92513479382842
 31
0.0
  0
LINE
  5
AAF
  8
2
 10
65.625699008320566
 20
74.92513479382842
 30
0.0
 11
60.625699008320559
 21
74.92513479382842
 31
0.0
  0
LINE
  5
AB0
  8
2
 10
61.058699008320332
 20
82.475156794151417
 30
0.0
 11
60.625699008320559
 21
83.225134793828374
 31
0.0
  0
LINE
  5
AB1
  8
1
 10
63.125699008320559
 20
88.525134793828329
 30
0.0
 11
63.125699008320559
 21
69.983674716406753
 31
0.0
  0
LINE
  5
AB2
  8
0
 10
58.625699008320559
 20
72.816594805086879
 30
0.0
 11
58.625699008320559
 21
79.225134793834059
 31
0.0
  0
ARC
  5
AB3
  8
0
 10
63.19945042906636
 20
71.725134793831785
 30
0.0
 40
2.5
 50
25.886129447778369
 51
154.1138705521746
  0
LINE
  5
AB4
  8
0
 10
65.448609170426266
 20
72.81659480508506
 30
0.0
 11
67.650014021975835
 21
72.81659480508506
 31
0.0
  0
LINE
  5
AB5
  8
0
 10
58.625699008320559
 20
72.816594805086879
 30
0.0
 11
60.95029168770759
 21
72.816594805086879
 31
0.0
  0
LINE
  5
AB6
  8
0
 10
75.625699008320566
 20
72.816594805086879
 30
0.0
 11
75.625699008320566
 21
79.225134793834059
 31
0.0
  0
LINE
  5
AB7
  8
0
 10
70.75001402197438
 20
72.816594805086879
 30
0.0
 11
75.625699008320566
 21
72.816594805086879
 31
0.0
  0
LINE
  5
AB8
  8
0
 10
58.625699008320559
 20
79.225134793834059
 30
0.0
 11
75.625699008320566
 21
79.225134793834059
 31
0.0
  0
ARC
  5
AB9
  8
0
 10
69.20001402197579
 20
71.45100639432053
 30
0.0
 40
2.0657520924870849
 50
41.380850822950343
 51
138.61914917704959
  0
ARC
  5
ABA
  8
0
 10
69.19945042906636
 20
73.97513479383224
 30
0.0
 40
1.500000000000004
 50
215.11030927469301
 51
324.91527697879081
  0
LINE
  5
ABB
  8
2
 10
62.07215169045309
 20
74.025134793828315
 30
0.0
 11
61.52569900832043
 21
74.025134793828315
 31
0.0
  0
LINE
  5
ABC
  8
0
 10
62.07215169045309
 20
74.025134793828315
 30
0.0
 11
64.031743484695994
 21
74.025134793828315
 31
0.0
  0
LINE
  5
ABD
  8
0
 10
83.125699008320794
 20
80.225134793828374
 30
0.0
 11
43.12569900832068
 21
80.225134793828488
 31
0.0
  0
LINE
  5
ABE
  8
0
 10
199.8135315629815
 20
89.725134793828374
 30
0.0
 11
199.8135315629815
 21
86.525134793828315
 31
0.0
  0
LINE
  5
ABF
  8
0
 10
206.8135315629815
 20
82.725134793828374
 30
0.0
 11
203.81353156298161
 21
82.225134793828374
 31
0.0
  0
LINE
  5
AC0
  8
0
 10
180.11353156298151
 20
86.025134793828329
 30
0.0
 11
199.3135315629815
 21
86.025134793828329
 31
0.0
  0
LINE
  5
AC1
  8
0
 10
203.81353156298161
 20
82.225134793828374
 30
0.0
 11
195.21353156298159
 21
82.225134793828374
 31
0.0
  0
ARC
  5
AC2
  8
0
 10
199.3135315629815
 20
86.525134793828315
 30
0.0
 40
0.5
 50
270.0
 51
0.0
  0
LINE
  5
AC3
  8
1
 10
191.61353156298151
 20
88.525134793828329
 30
0.0
 11
191.61353156298151
 21
69.983674716406753
 31
0.0
  0
LINE
  5
AC4
  8
0
 10
188.8135315629815
 20
80.225134793828374
 30
0.0
 11
194.41353156298169
 21
80.225134793828374
 31
0.0
  0
ARC
  5
AC5
  8
0
 10
194.41353156298169
 20
80.525134793828329
 30
0.0
 40
0.3
 50
270.0
 51
0.0000000000032569
  0
ARC
  5
AC6
  8
0
 10
188.8135315629815
 20
80.525134793828329
 30
0.0
 40
0.3
 50
180.00000000000321
 51
270.0
  0
LINE
  5
AC7
  8
2
 10
189.54653156298119
 20
82.475156794151303
 30
0.0
 11
189.11353156298151
 21
83.225134793828246
 31
0.0
  0
LINE
  5
AC8
  8
2
 10
194.11353156298151
 20
74.92513479382842
 30
0.0
 11
189.11353156298151
 21
74.92513479382842
 31
0.0
  0
LINE
  5
AC9
  8
2
 10
190.0135315629816
 20
74.025134793828315
 30
0.0
 11
189.11353156298151
 21
74.925134793828306
 31
0.0
  0
LINE
  5
ACA
  8
2
 10
194.11353156298151
 20
74.925134793828306
 30
0.0
 11
193.21353156298159
 21
74.025134793828315
 31
0.0
  0
LINE
  5
ACB
  8
2
 10
193.68053156298171
 20
82.475156794151303
 30
0.0
 11
194.11353156298151
 21
83.225134793828246
 31
0.0
  0
LINE
  5
ACC
  8
2
 10
194.11353156298151
 20
82.475156794151303
 30
0.0
 11
189.11353156298151
 21
82.475156794151303
 31
0.0
  0
LINE
  5
ACD
  8
2
 10
193.21353156298159
 20
74.025134793828315
 30
0.0
 11
190.0135315629816
 21
74.025134793828315
 31
0.0
  0
LINE
  5
ACE
  8
2
 10
194.11353156298151
 20
83.225134793828246
 30
0.0
 11
194.11353156298151
 21
80.225134793828374
 31
0.0
  0
LINE
  5
ACF
  8
2
 10
193.68053156298171
 20
82.475156794151417
 30
0.0
 11
193.68053156298151
 21
80.225134793828374
 31
0.0
  0
LINE
  5
AD0
  8
2
 10
189.54653156298119
 20
82.475156794151303
 30
0.0
 11
189.54653156298119
 21
80.225134793828374
 31
0.0
  0
LINE
  5
AD1
  8
2
 10
189.11353156298151
 20
83.225134793828374
 30
0.0
 11
189.11353156298151
 21
80.225134793828374
 31
0.0
  0
LINE
  5
AD2
  8
2
 10
196.61353156298151
 20
86.025134793828329
 30
0.0
 11
196.61353156298151
 21
85.725134793828374
 31
0.0
  0
LINE
  5
AD3
  8
2
 10
196.61353156298151
 20
85.725134793828374
 30
0.0
 11
186.61353156298151
 21
85.725134793828374
 31
0.0
  0
LINE
  5
AD4
  8
2
 10
186.61353156298151
 20
85.725134793828374
 30
0.0
 11
186.61353156298151
 21
86.025134793828329
 31
0.0
  0
LINE
  5
AD5
  8
2
 10
186.61353156298151
 20
86.025134793828329
 30
0.0
 11
196.61353156298151
 21
86.025134793828329
 31
0.0
  0
LINE
  5
AD6
  8
2
 10
196.61353156298151
 20
85.725134793828374
 30
0.0
 11
194.11353156298151
 21
83.225134793828246
 31
0.0
  0
LINE
  5
AD7
  8
2
 10
186.61353156298151
 20
85.725134793828374
 30
0.0
 11
189.11353156298151
 21
83.225134793828246
 31
0.0
  0
LINE
  5
AD8
  8
2
 10
194.11353156298151
 20
83.225134793828246
 30
0.0
 11
189.11353156298151
 21
83.225134793828246
 31
0.0
  0
LINE
  5
AD9
  8
0
 10
189.11353156298151
 20
80.225134793828374
 30
0.0
 11
189.11353156298151
 21
79.023176907361858
 31
0.0
  0
LINE
  5
ADA
  8
0
 10
194.11353156298171
 20
80.225134793828374
 30
0.0
 11
194.11353156298151
 21
79.024945911706027
 31
0.0
  0
LINE
  5
ADB
  8
3
 10
193.68053156298171
 20
80.225134793828374
 30
0.0
 11
193.68053156298171
 21
78.593855151256321
 31
0.0
  0
LINE
  5
ADC
  8
3
 10
189.54653156298119
 20
80.225134793828374
 30
0.0
 11
189.5465315629815
 21
78.593855151255639
 31
0.0
  0
ARC
  5
ADD
  8
0
 10
182.43648654787779
 20
85.424757779517222
 30
0.0
 40
16.0
 50
309.7943651053555
 51
334.38837495678217
  0
ARC
  5
ADE
  8
0
 10
196.4135315629814
 20
78.724592658733854
 30
0.0
 40
0.5
 50
334.38837495695191
 51
90.066206149549728
  0
LINE
  5
ADF
  8
0
 10
194.22585247946651
 20
79.137266828190491
 30
0.0
 11
193.70158841075059
 21
78.613002759477467
 31
0.0
  0
LINE
  5
AE0
  8
0
 10
196.44509768112559
 20
79.225134793833945
 30
0.0
 11
194.4379845138219
 21
79.225134793833945
 31
0.0
  0
ARC
  5
AE1
  8
0
 10
194.4379845138219
 20
78.925134793833877
 30
0.0
 40
0.3
 50
90.0
 51
134.9999999998376
1001
GENIUS_GENODEF_13
1002
{
1000
HIER
1070
     0
1002
}
1002
{
1000
MANEDIT
1070
     0
1002
}
1002
{
1000
NOSEL
1070
     0
1002
}
1002
{
1000
BEHIND
1070
     0
1002
}
1002
{
1000
REACTOR
1002
}
1001
GENIUS_GENOBJ-N-FIL_13
1002
{
1000
OWNER
1000
GEN
1002
}
  0
ARC
  5
AE2
  8
0
 10
193.48945637639531
 20
78.825134793834081
 30
0.0
 40
0.3
 50
270.0
 51
314.9999999998376
1001
GENIUS_GENODEF_13
1002
{
1000
HIER
1070
     0
1002
}
1002
{
1000
MANEDIT
1070
     0
1002
}
1002
{
1000
NOSEL
1070
     0
1002
}
1002
{
1000
BEHIND
1070
     0
1002
}
1002
{
1000
REACTOR
1002
}
1001
GENIUS_GENOBJ-N-FIL_13
1002
{
1000
OWNER
1000
GEN
1002
}
  0
ARC
  5
AE3
  8
0
 10
186.8135315629815
 20
78.724592658733854
 30
0.0
 40
0.5
 50
89.933793850443749
 51
205.61162504304809
  0
LINE
  5
AE4
  8
0
 10
189.52593141012539
 20
78.612547045663632
 30
0.0
 11
189.0013657447989
 21
79.134861319290167
 31
0.0
  0
LINE
  5
AE5
  8
0
 10
188.79003705986841
 20
79.222273370837456
 30
0.0
 11
186.80813123576939
 21
79.224563494349241
 31
0.0
  0
ARC
  5
AE6
  8
0
 10
188.78969040535731
 20
78.922273571119831
 30
0.0
 40
0.3
 50
45.123218564765097
 51
89.933793850443749
1001
GENIUS_GENODEF_13
1002
{
1000
HIER
1070
     0
1002
}
1002
{
1000
MANEDIT
1070
     0
1002
}
1002
{
1000
NOSEL
1070
     0
1002
}
1002
{
1000
BEHIND
1070
     0
1002
}
1002
{
1000
REACTOR
1002
}
1001
GENIUS_GENOBJ-N-FIL_13
1002
{
1000
OWNER
1000
GEN
1002
}
  0
ARC
  5
AE7
  8
0
 10
200.79057657808519
 20
85.424757779517222
 30
0.0
 40
16.0
 50
205.6116250432178
 51
230.20023089623581
  0
ARC
  5
AE8
  8
0
 10
189.73760674956719
 20
78.825134793833968
 30
0.0
 40
0.3
 50
225.1232185647651
 51
270.0
1001
GENIUS_GENODEF_13
1002
{
1000
HIER
1070
     0
1002
}
1002
{
1000
MANEDIT
1070
     0
1002
}
1002
{
1000
NOSEL
1070
     0
1002
}
1002
{
1000
BEHIND
1070
     0
1002
}
1002
{
1000
REACTOR
1002
}
1001
GENIUS_GENOBJ-N-FIL_13
1002
{
1000
OWNER
1000
GEN
1002
}
  0
ARC
  5
AE9
  8
0
 10
191.61372044510699
 20
74.825134793833953
 30
0.0
 40
2.0
 50
237.8305670071779
 51
302.1174228272198
  0
ARC
  5
AEA
  8
0
 10
191.61409515589071
 20
73.983674676702094
 30
0.0
 40
1.500000000000004
 50
202.7035291187386
 51
337.3612463145152
  0
LINE
  5
AEB
  8
0
 10
193.48945637639531
 20
78.525134793834013
 30
0.0
 11
189.73760674956719
 21
78.525134793834013
 31
0.0
  0
LINE
  5
AEC
  8
2
 10
194.11353156298171
 20
79.024945911706027
 30
0.0
 11
194.11353156298151
 21
74.925134793828306
 31
0.0
  0
LINE
  5
AED
  8
2
 10
193.68053156298171
 20
78.593855151256193
 30
0.0
 11
193.68053156298171
 21
74.492134793828541
 31
0.0
  0
LINE
  5
AEE
  8
2
 10
189.5465315629815
 20
78.592035306930256
 30
0.0
 11
189.54653156298119
 21
74.492134793828541
 31
0.0
  0
LINE
  5
AEF
  8
2
 10
189.11353156298151
 20
79.023176907361972
 30
0.0
 11
189.11353156298151
 21
74.925134793828306
 31
0.0
  0
ARC
  5
AF0
  8
0
 10
180.11353156298151
 20
85.525134793828329
 30
0.0
 40
0.5
 50
90.0
 51
180.0
  0
ARC
  5
AF1
  8
0
 10
180.11353156298151
 20
82.725134793828374
 30
0.0
 40
0.5
 50
180.0
 51
270.0
  0
LINE
  5
AF2
  8
0
 10
179.61353156298151
 20
82.725134793828374
 30
0.0
 11
179.61353156298151
 21
85.525134793828329
 31
0.0
  0
LINE
  5
AF3
  8
1
 10
191.61353156298151
 20
88.525134793828329
 30
0.0
 11
191.61353156298151
 21
69.983674716406753
 31
0.0
  0
LINE
  5
AF4
  8
0
 10
194.4135315629814
 20
80.225134793828374
 30
0.0
 11
188.8135315629813
 21
80.225134793828374
 31
0.0
  0
LINE
  5
AF5
  8
0
 10
188.5135315629816
 20
81.725134793828275
 30
0.0
 11
188.5135315629814
 21
80.525134793828428
 31
0.0
  0
LINE
  5
AF6
  8
0
 10
194.71353156298159
 20
81.725134793828374
 30
0.0
 11
194.71353156298159
 21
80.525134793828329
 31
0.0
  0
LINE
  5
AF7
  8
0
 10
188.0135315629816
 20
82.225134793828374
 30
0.0
 11
180.11353156298151
 21
82.225134793828374
 31
0.0
  0
ARC
  5
AF8
  8
0
 10
188.8135315629813
 20
80.525134793828329
 30
0.0
 40
0.3
 50
179.9999999999967
 51
270.0
  0
ARC
  5
AF9
  8
0
 10
194.4135315629814
 20
80.525134793828329
 30
0.0
 40
0.3
 50
270.0
 51
359.99999999999682
  0
ARC
  5
AFA
  8
0
 10
195.21353156298159
 20
81.725134793828374
 30
0.0
 40
0.5
 50
90.0
 51
180.0
  0
ARC
  5
AFB
  8
0
 10
188.0135315629816
 20
81.725134793828374
 30
0.0
 40
0.5
 50
359.99999999999022
 51
90.0
  0
LINE
  5
AFC
  8
1
 10
184.11353156298151
 20
198.7251347938288
 30
0.0
 11
199.11353156298151
 21
198.7251347938288
 31
0.0
  0
LINE
  5
AFD
  8
1
 10
191.61353156298151
 20
191.22513479382869
 30
0.0
 11
191.61353156298151
 21
206.2251347938288
 31
0.0
  0
CIRCLE
  5
AFE
  8
0
 10
191.61353156298151
 20
198.7251347938288
 30
0.0
 40
5.0
  0
LINE
  5
AFF
  8
0
 10
190.11353156298119
 20
199.59116019761311
 30
0.0
 11
190.11353156298171
 21
197.85910939004449
 31
0.0
  0
LINE
  5
B00
  8
0
 10
191.61353156298151
 20
200.4571856013977
 30
0.0
 11
190.11353156298119
 21
199.59116019761311
 31
0.0
  0
LINE
  5
B01
  8
0
 10
193.11353156298151
 20
199.59116019761359
 30
0.0
 11
191.61353156298151
 21
200.4571856013977
 31
0.0
  0
LINE
  5
B02
  8
0
 10
193.11353156298151
 20
197.85910939004449
 30
0.0
 11
193.11353156298151
 21
199.59116019761359
 31
0.0
  0
LINE
  5
B03
  8
0
 10
191.61353156298171
 20
196.99308398625999
 30
0.0
 11
193.11353156298151
 21
197.85910939004449
 31
0.0
  0
LINE
  5
B04
  8
0
 10
190.11353156298171
 20
197.85910939004449
 30
0.0
 11
191.61353156298171
 21
196.99308398625999
 31
0.0
  0
CIRCLE
  5
B05
  8
0
 10
191.61353156298151
 20
198.7251347938288
 30
0.0
 40
5.2000000000000002
  0
LINE
  5
B06
  8
0
 10
43.12569900832068
 20
96.725134793828374
 30
0.0
 11
43.12569900832068
 21
80.225134793828488
 31
0.0
  0
LINE
  5
B07
  8
0
 10
83.12569900832068
 20
96.725134793828374
 30
0.0
 11
83.12569900832068
 21
80.225134793828488
 31
0.0
  0
LINE
  5
B08
  8
0
 10
85.125699008320666
 20
96.725134793828374
 30
0.0
 11
85.125699008320666
 21
78.925134793828306
 31
0.0
  0
LINE
  5
B09
  8
0
 10
125.12569900832069
 20
96.725134793828374
 30
0.0
 11
125.12569900832069
 21
78.925134793828306
 31
0.0
  0
LINE
  5
B0A
  8
0
 10
41.62569900832068
 20
96.725134793828374
 30
0.0
 11
126.62569900832059
 21
96.72513479382836
 31
0.0
  0
LINE
  5
B0B
  8
0
 10
43.12569900832068
 20
86.025134793828329
 30
0.0
 11
83.125699008320453
 21
86.025134793828329
 31
0.0
  0
LINE
  5
B0C
  8
0
 10
43.12569900832068
 20
82.225134793828374
 30
0.0
 11
83.12569900832068
 21
82.225134793828374
 31
0.0
  0
LINE
  5
B0D
  8
1
 10
36.62569900832068
 20
89.725134793828374
 30
0.0
 11
131.62569900832071
 21
89.725134793828374
 31
0.0
  0
LINE
  5
B0E
  8
0
 10
83.12569900832068
 20
82.725134793828374
 30
0.0
 11
85.125699008320666
 21
82.725134793828374
 31
0.0
  0
LINE
  5
B0F
  8
0
 10
85.125699008320666
 20
82.225134793828374
 30
0.0
 11
125.12569900832069
 21
82.225134793828374
 31
0.0
  0
LINE
  5
B10
  8
1
 10
105.12569900832089
 20
88.525134793828329
 30
0.0
 11
105.12569900832089
 21
67.425135613452312
 31
0.0
  0
LINE
  5
B11
  8
0
 10
331.0135315629816
 20
82.225134793828374
 30
0.0
 11
371.0135315629816
 21
82.225134793828374
 31
0.0
  0
LINE
  5
B12
  8
0
 10
329.0135315629816
 20
82.725134793828374
 30
0.0
 11
331.0135315629816
 21
82.725134793828374
 31
0.0
  0
LINE
  5
B13
  8
1
 10
309.0135315629816
 20
88.525134793828329
 30
0.0
 11
309.0135315629816
 21
67.425135613452426
 31
0.0
  0
LINE
  5
B14
  8
1
 10
282.5135315629816
 20
89.725134793828374
 30
0.0
 11
377.5135315629816
 21
89.725134793828374
 31
0.0
  0
LINE
  5
B15
  8
0
 10
289.0135315629816
 20
82.225134793828374
 30
0.0
 11
329.0135315629816
 21
82.225134793828374
 31
0.0
  0
LINE
  5
B16
  8
0
 10
289.0135315629816
 20
86.025134793828329
 30
0.0
 11
329.01353156298148
 21
86.025134793828329
 31
0.0
  0
LINE
  5
B17
  8
0
 10
287.5135315629816
 20
96.725134793828374
 30
0.0
 11
372.5135315629816
 21
96.72513479382836
 31
0.0
  0
LINE
  5
B18
  8
0
 10
371.0135315629816
 20
96.725134793828374
 30
0.0
 11
371.01353156298148
 21
80.225134793828374
 31
0.0
  0
LINE
  5
B19
  8
0
 10
331.0135315629816
 20
96.725134793828374
 30
0.0
 11
331.0135315629816
 21
80.225134793828374
 31
0.0
  0
LINE
  5
B1A
  8
0
 10
329.0135315629816
 20
96.725134793828374
 30
0.0
 11
329.0135315629816
 21
78.925134793828406
 31
0.0
  0
LINE
  5
B1B
  8
0
 10
289.0135315629816
 20
96.725134793828374
 30
0.0
 11
289.0135315629816
 21
78.925134793828406
 31
0.0
  0
LINE
  5
B1C
  8
1
 10
206.8135315629815
 20
130.22513479382829
 30
0.0
 11
206.8135315629815
 21
225.22513479382829
 31
0.0
  0
LINE
  5
B1D
  8
1
 10
227.0135315629816
 20
147.97513479382829
 30
0.0
 11
227.0135315629816
 21
165.4751347938284
 31
0.0
  0
LINE
  5
B1E
  8
1
 10
235.7635315629816
 20
156.72513479382829
 30
0.0
 11
218.2635315629816
 21
156.72513479382829
 31
0.0
  0
LINE
  5
B1F
  8
0
 10
179.61353156298151
 20
218.7251347938284
 30
0.0
 11
213.81353156298189
 21
218.7251347938284
 31
0.0
  0
LINE
  5
B20
  8
0
 10
179.61353156298159
 20
178.7251347938288
 30
0.0
 11
213.81353156298161
 21
178.7251347938284
 31
0.0
  0
LINE
  5
B21
  8
0
 10
199.8135315629815
 20
176.7251347938284
 30
0.0
 11
243.0135315629818
 21
176.7251347938284
 31
0.0
  0
LINE
  5
B22
  8
0
 10
199.81353156298181
 20
136.72513479382829
 30
0.0
 11
243.0135315629816
 21
136.72513479382829
 31
0.0
  0
LINE
  5
B23
  8
0
 10
199.81353156298161
 20
135.2251347938284
 30
0.0
 11
199.8135315629815
 21
220.22513479382829
 31
0.0
  0
LINE
  5
B24
  8
0
 10
213.81353156298161
 20
135.22513479382829
 30
0.0
 11
213.81353156298161
 21
220.2251347938284
 31
0.0
  0
LINE
  5
B25
  8
0
 10
179.61353156298159
 20
178.7251347938288
 30
0.0
 11
179.61353156298151
 21
218.7251347938284
 31
0.0
  0
LINE
  5
B26
  8
0
 10
243.0135315629816
 20
136.72513479382829
 30
0.0
 11
243.0135315629816
 21
176.7251347938284
 31
0.0
  0
ARC
  5
B27
  8
0
 10
223.3135315629815
 20
79.225134793828374
 30
0.0
 40
0.3
 50
180.0
 51
270.0
  0
ARC
  5
B28
  8
0
 10
230.7135315629817
 20
79.225134793828374
 30
0.0
 40
0.3
 50
270.0
 51
0.0
  0
ARC
  5
B29
  8
0
 10
222.51353156298151
 20
81.725134793828374
 30
0.0
 40
0.5
 50
0.0
 51
90.0
  0
LINE
  5
B2A
  8
0
 10
209.81353156298161
 20
82.225134793828374
 30
0.0
 11
209.81353156298161
 21
82.225134793828374
 31
0.0
  0
LINE
  5
B2B
  8
0
 10
222.51353156298151
 20
82.225134793828374
 30
0.0
 11
209.81353156298161
 21
82.225134793828374
 31
0.0
  0
ARC
  5
B2C
  8
0
 10
231.51353156298171
 20
81.725134793828374
 30
0.0
 40
0.5
 50
90.0
 51
180.0
  0
LINE
  5
B2D
  8
0
 10
223.01353156298151
 20
81.725134793828374
 30
0.0
 11
223.01353156298151
 21
79.225134793828374
 31
0.0
  0
LINE
  5
B2E
  8
0
 10
231.01353156298171
 20
81.725134793828374
 30
0.0
 11
231.0135315629816
 21
79.225134793828374
 31
0.0
  0
LINE
  5
B2F
  8
0
 10
223.3135315629815
 20
78.925134793828406
 30
0.0
 11
230.7135315629817
 21
78.925134793828406
 31
0.0
  0
ARC
  5
B30
  8
0
 10
214.31353156298161
 20
86.525134793828315
 30
0.0
 40
0.5
 50
180.0
 51
270.0
  0
LINE
  5
B31
  8
0
 10
213.81353156298161
 20
89.725134793828374
 30
0.0
 11
213.81353156298161
 21
86.525134793828315
 31
0.0
  0
CIRCLE
  5
B32
  8
2
 10
206.8135315629815
 20
89.725134793828374
 30
0.0
 40
4.0
  0
LINE
  5
B34
  8
1
 10
206.8135315629815
 20
101.7251347938284
 30
0.0
 11
206.8135315629815
 21
77.725134793828374
 31
0.0
  0
LINE
  5
B35
  8
1
 10
218.81353156298161
 20
89.725134793828374
 30
0.0
 11
194.8135315629815
 21
89.725134793828374
 31
0.0
  0
LINE
  5
B36
  8
1
 10
227.0135315629816
 20
88.525134793828329
 30
0.0
 11
227.01353156298171
 21
67.425135613452426
 31
0.0
  0
LINE
  5
B37
  8
0
 10
231.51353156298171
 20
82.225134793828374
 30
0.0
 11
242.51353156298171
 21
82.225134793828374
 31
0.0
  0
LINE
  5
B38
  8
0
 10
243.01353156298171
 20
82.725134793828374
 30
0.0
 11
243.01353156298171
 21
85.525134793828329
 31
0.0
  0
LINE
  5
B39
  8
0
 10
242.51353156298171
 20
86.025134793828329
 30
0.0
 11
214.31353156298161
 21
86.025134793828329
 31
0.0
  0
ARC
  5
B3A
  8
0
 10
242.51353156298171
 20
82.725134793828374
 30
0.0
 40
0.5
 50
270.0
 51
0.0
  0
ARC
  5
B3B
  8
0
 10
242.51353156298171
 20
85.525134793828329
 30
0.0
 40
0.5
 50
0.0
 51
90.0
  0
LINE
  5
B3C
  8
0
 10
206.8135315629815
 20
82.725134793828374
 30
0.0
 11
209.81353156298161
 21
82.225134793828374
 31
0.0
  0
LINE
  5
B3D
  8
2
 10
224.5550315629815
 20
81.787229281530017
 30
0.0
 11
224.0135315629816
 21
82.725134793828488
 31
0.0
  0
LINE
  5
B3E
  8
2
 10
229.4720315629817
 20
81.787229281530017
 30
0.0
 11
230.0135315629816
 21
82.725134793828374
 31
0.0
  0
LINE
  5
B3F
  8
2
 10
224.0135315629816
 20
81.787229281530017
 30
0.0
 11
230.0135315629816
 21
81.787229281530017
 31
0.0
  0
LINE
  5
B40
  8
2
 10
224.0135315629816
 20
73.025134793828329
 30
0.0
 11
230.0135315629816
 21
73.025134793828329
 31
0.0
  0
LINE
  5
B41
  8
2
 10
225.0135315629816
 20
72.025134793828329
 30
0.0
 11
224.0135315629816
 21
73.025134793828329
 31
0.0
  0
LINE
  5
B42
  8
2
 10
230.0135315629816
 20
73.025134793828329
 30
0.0
 11
229.0135315629816
 21
72.025134793828329
 31
0.0
  0
LINE
  5
B43
  8
2
 10
230.0135315629816
 20
82.725134793828374
 30
0.0
 11
230.0135315629816
 21
78.925134793828306
 31
0.0
  0
LINE
  5
B44
  8
2
 10
229.4720315629817
 20
81.787229281530017
 30
0.0
 11
229.47203156298181
 21
78.925134793828406
 31
0.0
  0
LINE
  5
B45
  8
2
 10
224.5550315629815
 20
81.787229281530017
 30
0.0
 11
224.5550315629817
 21
78.925134793828406
 31
0.0
  0
LINE
  5
B46
  8
2
 10
224.0135315629816
 20
82.725134793828488
 30
0.0
 11
224.0135315629816
 21
78.925134793828306
 31
0.0
  0
LINE
  5
B47
  8
2
 10
229.0135315629816
 20
72.025134793828329
 30
0.0
 11
225.0135315629816
 21
72.025134793828329
 31
0.0
  0
LINE
  5
B48
  8
2
 10
233.0135315629816
 20
86.025134793828329
 30
0.0
 11
233.0135315629816
 21
85.725134793828374
 31
0.0
  0
LINE
  5
B49
  8
2
 10
233.0135315629816
 20
85.725134793828374
 30
0.0
 11
221.0135315629816
 21
85.725134793828374
 31
0.0
  0
LINE
  5
B4A
  8
2
 10
221.0135315629816
 20
85.725134793828374
 30
0.0
 11
221.0135315629816
 21
86.025134793828329
 31
0.0
  0
LINE
  5
B4B
  8
2
 10
221.0135315629816
 20
86.025134793828329
 30
0.0
 11
233.0135315629816
 21
86.025134793828329
 31
0.0
  0
LINE
  5
B4C
  8
2
 10
233.0135315629816
 20
86.025134793828329
 30
0.0
 11
233.0135315629816
 21
85.725134793828374
 31
0.0
  0
LINE
  5
B4D
  8
2
 10
233.0135315629816
 20
85.725134793828374
 30
0.0
 11
230.0135315629816
 21
82.725134793828374
 31
0.0
  0
LINE
  5
B4E
  8
2
 10
221.0135315629816
 20
85.725134793828374
 30
0.0
 11
224.0135315629816
 21
82.725134793828374
 31
0.0
  0
LINE
  5
B4F
  8
2
 10
224.0135315629816
 20
82.725134793828374
 30
0.0
 11
230.0135315629816
 21
82.725134793828374
 31
0.0
  0
LINE
  5
B50
  8
0
 10
233.46353155532159
 20
77.72513462530776
 30
0.0
 11
231.26353154000159
 21
77.725134962349216
 31
0.0
  0
ARC
  5
B51
  8
0
 10
233.4635315246814
 20
77.525134625307714
 30
0.0
 40
0.2
 50
336.21279093384049
 51
89.999991222263475
  0
ARC
  5
B52
  8
0
 10
219.75108512272959
 20
83.283135215661204
 30
0.0
 40
15.072284513215161
 50
311.15274449449339
 51
337.23534240860039
  0
ARC
  5
B53
  8
0
 10
234.27597880876289
 20
83.283134103049406
 30
0.0
 40
15.072284513215161
 50
202.76464881364501
 51
228.84801412485029
  0
ARC
  5
B54
  8
0
 10
222.96353156298159
 20
78.025135613452107
 30
0.0
 40
0.2
 50
90.00000000000081
 51
179.99999561112841
  0
ARC
  5
B55
  8
0
 10
231.06353156298181
 20
78.025135613452221
 30
0.0
 40
0.2
 50
359.99999561111542
 51
90.00000000000081
  0
ARC
  5
B56
  8
0
 10
220.56353152468159
 20
77.525135613452221
 30
0.0
 40
0.2
 50
89.999999999983714
 51
203.7872002884086
  0
LINE
  5
B57
  8
0
 10
220.56353152468159
 20
77.725135613452267
 30
0.0
 11
222.76353154000159
 21
77.725135613452153
 31
0.0
  0
LINE
  5
B58
  8
0
 10
222.76353156298171
 20
78.025135628772205
 30
0.0
 11
222.76353154000159
 21
77.72513561345238
 31
0.0
  0
LINE
  5
B59
  8
0
 10
231.26353156298171
 20
78.025135598132124
 30
0.0
 11
231.26353154000159
 21
77.725135613452267
 31
0.0
  0
ARC
  5
B5A
  8
0
 10
227.0135325319761
 20
74.925135613468683
 30
0.0
 40
4.0000000000006821
 50
228.39431359554689
 51
311.60569100797949
  0
LINE
  5
B5B
  8
0
 10
222.96353156298159
 20
78.225135613452153
 30
0.0
 11
231.06353156298181
 21
78.225135613452267
 31
0.0
  0
ARC
  5
B5C
  8
0
 10
227.01353157830181
 20
71.925135613451857
 30
0.0
 40
1.9999999999994309
 50
194.4774939715453
 51
345.52246960078043
  0
LINE
  5
B5D
  8
2
 10
229.4720315629817
 20
78.225135613452267
 30
0.0
 11
229.4720315629817
 21
72.483634793828514
 31
0.0
  0
LINE
  5
B5E
  8
2
 10
230.0135315629816
 20
78.225135613452267
 30
0.0
 11
230.0135315629816
 21
73.025134793828329
 31
0.0
  0
LINE
  5
B5F
  8
2
 10
224.5550315629817
 20
78.225135613452267
 30
0.0
 11
224.5550315629815
 21
72.483634793828514
 31
0.0
  0
LINE
  5
B60
  8
2
 10
224.0135315629816
 20
78.225135613452153
 30
0.0
 11
224.0135315629816
 21
73.025134793828329
 31
0.0
  0
LINE
  5
B61
  8
3
 10
229.47203156298181
 20
78.925134793828406
 30
0.0
 11
229.47203156298181
 21
78.225135613452267
 31
0.0
  0
LINE
  5
B62
  8
0
 10
230.0135315629816
 20
78.925134793828306
 30
0.0
 11
230.0135315629816
 21
78.225135613452267
 31
0.0
  0
LINE
  5
B63
  8
3
 10
224.5550315629817
 20
78.925134793828406
 30
0.0
 11
224.5550315629817
 21
78.225135613452267
 31
0.0
  0
LINE
  5
B64
  8
0
 10
224.0135315629816
 20
78.925134793828306
 30
0.0
 11
224.0135315629816
 21
78.225135613452153
 31
0.0
  0
CIRCLE
  5
B65
  8
0
 10
227.0135315629816
 20
156.72513479382829
 30
0.0
 40
6.0
  0
LINE
  5
B66
  8
0
 10
225.0135315629814
 20
157.87983533220739
 30
0.0
 11
225.0135315629818
 21
155.5704342554493
 31
0.0
  0
LINE
  5
B67
  8
0
 10
227.0135315629816
 20
159.03453587058701
 30
0.0
 11
225.0135315629814
 21
157.87983533220739
 31
0.0
  0
LINE
  5
B68
  8
0
 10
229.0135315629816
 20
157.8798353322081
 30
0.0
 11
227.0135315629816
 21
159.03453587058701
 31
0.0
  0
LINE
  5
B69
  8
0
 10
229.0135315629816
 20
155.5704342554493
 30
0.0
 11
229.0135315629816
 21
157.8798353322081
 31
0.0
  0
LINE
  5
B6A
  8
0
 10
227.0135315629818
 20
154.41573371707
 30
0.0
 11
229.0135315629816
 21
155.5704342554493
 31
0.0
  0
LINE
  5
B6B
  8
0
 10
225.0135315629818
 20
155.5704342554493
 30
0.0
 11
227.0135315629818
 21
154.41573371707
 31
0.0
  0
CIRCLE
  5
B6C
  8
0
 10
227.0135315629816
 20
156.72513479382829
 30
0.0
 40
6.25
  0
LINE
  5
B6D
  8
0
 10
289.0135315629816
 20
78.925134793828406
 30
0.0
 11
329.0135315629816
 21
78.925134793828406
 31
0.0
  0
LINE
  5
B6E
  8
2
 10
315.0135315629816
 20
86.025134793828329
 30
0.0
 11
315.0135315629816
 21
85.725134793828374
 31
0.0
  0
LINE
  5
B6F
  8
2
 10
303.0135315629816
 20
86.025134793828329
 30
0.0
 11
315.0135315629816
 21
86.025134793828329
 31
0.0
  0
LINE
  5
B70
  8
2
 10
303.0135315629816
 20
85.725134793828374
 30
0.0
 11
303.0135315629816
 21
86.025134793828329
 31
0.0
  0
LINE
  5
B71
  8
2
 10
315.0135315629816
 20
85.725134793828374
 30
0.0
 11
303.0135315629816
 21
85.725134793828374
 31
0.0
  0
LINE
  5
B72
  8
2
 10
315.0135315629816
 20
86.025134793828329
 30
0.0
 11
315.0135315629816
 21
85.725134793828374
 31
0.0
  0
LINE
  5
B73
  8
2
 10
315.0135315629816
 20
85.725134793828374
 30
0.0
 11
312.0135315629816
 21
82.725134793828374
 31
0.0
  0
LINE
  5
B74
  8
2
 10
303.0135315629816
 20
85.725134793828374
 30
0.0
 11
306.0135315629816
 21
82.725134793828374
 31
0.0
  0
LINE
  5
B75
  8
0
 10
306.0135315629816
 20
78.925134793828306
 30
0.0
 11
306.0135315629816
 21
78.225135613452153
 31
0.0
  0
LINE
  5
B76
  8
3
 10
306.55503156298158
 20
78.925134793828406
 30
0.0
 11
306.55503156298153
 21
78.225135613452267
 31
0.0
  0
LINE
  5
B77
  8
0
 10
312.0135315629816
 20
78.925134793828306
 30
0.0
 11
312.0135315629816
 21
78.225135613452267
 31
0.0
  0
LINE
  5
B78
  8
3
 10
311.47203156298173
 20
78.925134793828406
 30
0.0
 11
311.47203156298178
 21
78.225135613452267
 31
0.0
  0
LINE
  5
B79
  8
2
 10
306.0135315629816
 20
78.225135613452153
 30
0.0
 11
306.0135315629816
 21
73.025134793828329
 31
0.0
  0
LINE
  5
B7A
  8
2
 10
306.55503156298153
 20
78.225135613452267
 30
0.0
 11
306.55503156298153
 21
72.483634793828514
 31
0.0
  0
LINE
  5
B7B
  8
2
 10
312.0135315629816
 20
78.225135613452267
 30
0.0
 11
312.0135315629816
 21
73.025134793828329
 31
0.0
  0
LINE
  5
B7C
  8
2
 10
311.47203156298173
 20
78.225135613452267
 30
0.0
 11
311.47203156298173
 21
72.483634793828514
 31
0.0
  0
LINE
  5
B7D
  8
2
 10
306.0135315629816
 20
82.725134793828374
 30
0.0
 11
312.0135315629816
 21
82.725134793828374
 31
0.0
  0
LINE
  5
B7E
  8
2
 10
306.0135315629816
 20
82.725134793828488
 30
0.0
 11
306.0135315629816
 21
78.925134793828306
 31
0.0
  0
LINE
  5
B7F
  8
2
 10
306.55503156298153
 20
81.787229281530017
 30
0.0
 11
306.55503156298158
 21
78.925134793828406
 31
0.0
  0
LINE
  5
B80
  8
2
 10
311.47203156298173
 20
81.787229281530017
 30
0.0
 11
311.47203156298173
 21
78.925134793828406
 31
0.0
  0
LINE
  5
B81
  8
2
 10
312.0135315629816
 20
82.725134793828374
 30
0.0
 11
312.0135315629816
 21
78.925134793828306
 31
0.0
  0
LINE
  5
B82
  8
2
 10
306.0135315629816
 20
73.025134793828329
 30
0.0
 11
312.0135315629816
 21
73.025134793828329
 31
0.0
  0
LINE
  5
B83
  8
2
 10
306.0135315629816
 20
81.787229281530017
 30
0.0
 11
312.0135315629816
 21
81.787229281530017
 31
0.0
  0
LINE
  5
B84
  8
2
 10
311.47203156298173
 20
81.787229281530017
 30
0.0
 11
312.0135315629816
 21
82.725134793828374
 31
0.0
  0
LINE
  5
B85
  8
2
 10
306.55503156298153
 20
81.787229281530017
 30
0.0
 11
306.0135315629816
 21
82.725134793828488
 31
0.0
  0
LINE
  5
B86
  8
2
 10
311.0135315629816
 20
72.025134793828329
 30
0.0
 11
307.0135315629816
 21
72.025134793828329
 31
0.0
  0
LINE
  5
B87
  8
2
 10
307.0135315629816
 20
72.025134793828329
 30
0.0
 11
306.0135315629816
 21
73.025134793828329
 31
0.0
  0
LINE
  5
B88
  8
2
 10
312.0135315629816
 20
73.025134793828329
 30
0.0
 11
311.0135315629816
 21
72.025134793828329
 31
0.0
  0
LINE
  5
B89
  8
0
 10
292.51353156298183
 20
77.725135613452267
 30
0.0
 11
315.51353156298183
 21
77.725135613452267
 31
0.0
  0
LINE
  5
B8A
  8
0
 10
292.51353156298183
 20
70.925135613452198
 30
0.0
 11
296.96353156298142
 21
70.925135613452198
 31
0.0
  0
LINE
  5
B8B
  8
0
 10
292.51353156298183
 20
78.225135613452267
 30
0.0
 11
315.51353156298183
 21
78.225135613452267
 31
0.0
  0
LINE
  5
B8C
  8
0
 10
315.51353156298183
 20
78.225135613452267
 30
0.0
 11
315.51353156298183
 21
70.925135613452198
 31
0.0
  0
LINE
  5
B8D
  8
0
 10
292.51353156298183
 20
70.925135613452198
 30
0.0
 11
292.51353156298183
 21
78.225135613452267
 31
0.0
  0
ARC
  5
B8E
  8
0
 10
309.0135315629816
 20
67.76986137103961
 30
0.0
 40
3.9999972243530402
 50
52.075291847549977
 51
127.92470815244999
  0
LINE
  5
B8F
  8
0
 10
311.47203156298201
 20
70.925135613452198
 30
0.0
 11
315.51353156298183
 21
70.925135613452198
 31
0.0
  0
ARC
  5
B90
  8
0
 10
299.01353156298143
 20
67.490382686550447
 30
0.0
 40
4.0000034586058391
 50
59.169532136224852
 51
120.83046786377059
  0
LINE
  5
B91
  8
0
 10
301.06353156298132
 20
70.925135613452198
 30
0.0
 11
306.55503156298118
 21
70.925135613452198
 31
0.0
  0
ARC
  5
B92
  8
0
 10
299.01353156298251
 20
71.925135613451857
 30
0.0
 40
1.9999999999994309
 50
205.60799313381881
 51
334.39200686614839
  0
LINE
  5
B93
  8
2
 10
111.12569900832089
 20
86.025134793828329
 30
0.0
 11
111.12569900832089
 21
85.725134793828374
 31
0.0
  0
LINE
  5
B94
  8
2
 10
99.125699008320908
 20
86.025134793828329
 30
0.0
 11
111.12569900832089
 21
86.025134793828329
 31
0.0
  0
LINE
  5
B95
  8
2
 10
99.125699008320908
 20
85.725134793828374
 30
0.0
 11
99.125699008320908
 21
86.025134793828329
 31
0.0
  0
LINE
  5
B96
  8
2
 10
111.12569900832089
 20
85.725134793828374
 30
0.0
 11
99.125699008320908
 21
85.725134793828374
 31
0.0
  0
LINE
  5
B97
  8
2
 10
111.12569900832089
 20
86.025134793828329
 30
0.0
 11
111.12569900832089
 21
85.725134793828374
 31
0.0
  0
LINE
  5
B98
  8
2
 10
111.12569900832089
 20
85.725134793828374
 30
0.0
 11
108.12569900832089
 21
82.725134793828374
 31
0.0
  0
LINE
  5
B99
  8
2
 10
99.125699008320908
 20
85.725134793828374
 30
0.0
 11
102.12569900832089
 21
82.725134793828374
 31
0.0
  0
LINE
  5
B9A
  8
0
 10
102.12569900832089
 20
78.925134793828306
 30
0.0
 11
102.12569900832089
 21
78.225135613452153
 31
0.0
  0
LINE
  5
B9B
  8
3
 10
102.66719900832091
 20
78.925134793828406
 30
0.0
 11
102.66719900832091
 21
78.225135613452267
 31
0.0
  0
LINE
  5
B9C
  8
0
 10
108.12569900832089
 20
78.925134793828306
 30
0.0
 11
108.12569900832089
 21
78.225135613452267
 31
0.0
  0
LINE
  5
B9D
  8
3
 10
107.58419900832079
 20
78.925134793828406
 30
0.0
 11
107.58419900832109
 21
78.225135613452267
 31
0.0
  0
LINE
  5
B9E
  8
2
 10
102.12569900832089
 20
78.225135613452153
 30
0.0
 11
102.12569900832089
 21
73.025134793828329
 31
0.0
  0
LINE
  5
B9F
  8
2
 10
102.66719900832091
 20
78.225135613452267
 30
0.0
 11
102.66719900832091
 21
72.483634793828514
 31
0.0
  0
LINE
  5
BA0
  8
2
 10
108.12569900832089
 20
78.225135613452267
 30
0.0
 11
108.12569900832089
 21
73.025134793828329
 31
0.0
  0
LINE
  5
BA1
  8
2
 10
107.58419900832079
 20
78.225135613452267
 30
0.0
 11
107.58419900832079
 21
72.483634793828514
 31
0.0
  0
LINE
  5
BA2
  8
2
 10
102.12569900832089
 20
82.725134793828374
 30
0.0
 11
108.12569900832089
 21
82.725134793828374
 31
0.0
  0
LINE
  5
BA3
  8
2
 10
102.12569900832089
 20
82.725134793828488
 30
0.0
 11
102.12569900832089
 21
78.925134793828306
 31
0.0
  0
LINE
  5
BA4
  8
2
 10
102.66719900832091
 20
81.787229281530017
 30
0.0
 11
102.66719900832091
 21
78.925134793828406
 31
0.0
  0
LINE
  5
BA5
  8
2
 10
107.58419900832079
 20
81.787229281530017
 30
0.0
 11
107.58419900832079
 21
78.925134793828406
 31
0.0
  0
LINE
  5
BA6
  8
2
 10
108.12569900832089
 20
82.725134793828374
 30
0.0
 11
108.12569900832089
 21
78.925134793828306
 31
0.0
  0
LINE
  5
BA7
  8
2
 10
102.12569900832089
 20
73.025134793828329
 30
0.0
 11
108.12569900832089
 21
73.025134793828329
 31
0.0
  0
LINE
  5
BA8
  8
2
 10
102.12569900832089
 20
81.787229281530017
 30
0.0
 11
108.12569900832089
 21
81.787229281530017
 31
0.0
  0
LINE
  5
BA9
  8
2
 10
107.58419900832079
 20
81.787229281530017
 30
0.0
 11
108.12569900832089
 21
82.725134793828374
 31
0.0
  0
LINE
  5
BAA
  8
2
 10
102.66719900832091
 20
81.787229281530017
 30
0.0
 11
102.12569900832089
 21
82.725134793828488
 31
0.0
  0
LINE
  5
BAB
  8
2
 10
107.12569900832089
 20
72.025134793828329
 30
0.0
 11
103.12569900832089
 21
72.025134793828329
 31
0.0
  0
LINE
  5
BAC
  8
2
 10
103.12569900832089
 20
72.025134793828329
 30
0.0
 11
102.12569900832089
 21
73.025134793828329
 31
0.0
  0
LINE
  5
BAD
  8
2
 10
108.12569900832089
 20
73.025134793828329
 30
0.0
 11
107.12569900832089
 21
72.025134793828329
 31
0.0
  0
LINE
  5
BAE
  8
0
 10
121.62569900832059
 20
77.725135613452267
 30
0.0
 11
98.625699008320694
 21
77.725135613452267
 31
0.0
  0
LINE
  5
BAF
  8
0
 10
121.62569900832059
 20
70.925135613452198
 30
0.0
 11
117.1756990083211
 21
70.925135613452198
 31
0.0
  0
LINE
  5
BB0
  8
0
 10
121.62569900832059
 20
78.225135613452267
 30
0.0
 11
98.625699008320694
 21
78.225135613452267
 31
0.0
  0
LINE
  5
BB1
  8
0
 10
98.625699008320694
 20
78.225135613452267
 30
0.0
 11
98.625699008320694
 21
70.925135613452198
 31
0.0
  0
LINE
  5
BB2
  8
0
 10
121.62569900832059
 20
70.925135613452198
 30
0.0
 11
121.62569900832059
 21
78.225135613452267
 31
0.0
  0
ARC
  5
BB3
  8
0
 10
105.12569900832089
 20
67.76986137103961
 30
0.0
 40
3.9999972243530402
 50
52.075291847549977
 51
127.92470815244999
  0
LINE
  5
BB4
  8
0
 10
102.66719900832049
 20
70.925135613452198
 30
0.0
 11
98.625699008320694
 21
70.925135613452198
 31
0.0
  0
ARC
  5
BB5
  8
0
 10
115.12569900832111
 20
67.490382686550447
 30
0.0
 40
4.0000034586058391
 50
59.169532136229321
 51
120.8304678637751
  0
LINE
  5
BB6
  8
0
 10
113.0756990083211
 20
70.925135613452198
 30
0.0
 11
107.58419900832131
 21
70.925135613452198
 31
0.0
  0
ARC
  5
BB7
  8
0
 10
115.12569900832
 20
71.925135613451857
 30
0.0
 40
1.9999999999994309
 50
205.60799313385161
 51
334.39200686618119
  0
LINE
  5
BB8
  8
0
 10
85.125699008320666
 20
78.925134793828406
 30
0.0
 11
125.12569900832069
 21
78.925134793828406
 31
0.0
  0
LINE
  5
BD8
  8
0
 10
199.81353156298161
 20
220.2251347938284
 30
0.0
 11
213.81353156298189
 21
220.2251347938284
 31
0.0
  0
LINE
  5
BD9
  8
0
 10
199.81353156298181
 20
135.2251347938284
 30
0.0
 11
213.81353156298161
 21
135.22513479382829
 31
0.0
  0
LINE
  5
BDA
  8
0
 10
287.5135315629816
 20
96.725134793828374
 30
0.0
 11
287.5135315629816
 21
82.725134793828374
 31
0.0
  0
LINE
  5
BDB
  8
0
 10
372.5135315629816
 20
96.725134793828374
 30
0.0
 11
372.51353156298171
 21
82.725134793828374
 31
0.0
  0
CIRCLE
  5
BDC
  8
0
 10
206.8135315629815
 20
89.725134793828374
 30
0.0
 40
7.0
  0
LINE
  5
BDD
  8
0
 10
126.62569900832069
 20
96.725134793828374
 30
0.0
 11
126.62569900832069
 21
82.725134793828374
 31
0.0
  0
LINE
  5
BDE
  8
0
 10
41.62569900832068
 20
96.725134793828374
 30
0.0
 11
41.62569900832068
 21
82.725134793828374
 31
0.0
  0
LINE
  5
BE2
  8
0
 10
287.5135315629816
 20
82.725134793828374
 30
0.0
 11
289.0135315629816
 21
82.725134793828374
 31
0.0
  0
LINE
  5
BE3
  8
0
 10
372.51353156298171
 20
82.725134793828374
 30
0.0
 11
371.01353156298148
 21
82.725134793828389
 31
0.0
  0
LINE
  5
BE5
  8
0
 10
41.62569900832068
 20
82.725134793828374
 30
0.0
 11
43.12569900832068
 21
82.725134793828374
 31
0.0
  0
LINE
  5
BE6
  8
0
 10
126.62569900832069
 20
82.725134793828374
 30
0.0
 11
125.12569900832059
 21
82.725134793828374
 31
0.0
  0
TEXT
  5
C9D
  8
0
 62
     3
 10
0.0
 20
0.0
 30
0.0
 40
10.0
  1
L6-HAF30-6/8
  7
STANDARD1
  0
ENDSEC
  0
EOF
