  0
SECTION
  2
HEADER
  9
$ACADVER
  1
AC1009
  9
$INSBASE
 10
0.0
 20
0.0
 30
0.0
  9
$EXTMIN
 10
0.0
 20
-2.960436562073669
 30
0.0
  9
$EXTMAX
 10
241.19560182702619
 20
209.71923391710931
 30
0.0
  9
$LIMMIN
 10
0.0
 20
0.0
  9
$LIMMAX
 10
375.0
 20
270.0
  9
$ORTHOMODE
 70
     1
  9
$REGENMODE
 70
     1
  9
$FILLMODE
 70
     1
  9
$QTEXTMODE
 70
     0
  9
$MIRRTEXT
 70
     0
  9
$DRAGMODE
 70
     2
  9
$LTSCALE
 40
10.0
  9
$OSMODE
 70
  3071
  9
$ATTMODE
 70
     1
  9
$TEXTSIZE
 40
0.2
  9
$TRACEWID
 40
0.05
  9
$TEXTSTYLE
  7
STANDARD
  9
$CLAYER
  8
0
  9
$CELTYPE
  6
BYLAYER
  9
$CECOLOR
 62
   256
  9
$DIMSCALE
 40
1.0
  9
$DIMASZ
 40
3.0
  9
$DIMEXO
 40
0.0625
  9
$DIMDLI
 40
0.38
  9
$DIMRND
 40
0.0
  9
$DIMDLE
 40
0.0
  9
$DIMEXE
 40
0.18
  9
$DIMTP
 40
0.0
  9
$DIMTM
 40
0.0
  9
$DIMTXT
 40
3.0
  9
$DIMCEN
 40
0.09
  9
$DIMTSZ
 40
0.0
  9
$DIMTOL
 70
     0
  9
$DIMLIM
 70
     0
  9
$DIMTIH
 70
     1
  9
$DIMTOH
 70
     1
  9
$DIMSE1
 70
     0
  9
$DIMSE2
 70
     0
  9
$DIMTAD
 70
     0
  9
$DIMZIN
 70
     0
  9
$DIMBLK
  1

  9
$DIMASO
 70
     1
  9
$DIMSHO
 70
     1
  9
$DIMPOST
  1

  9
$DIMAPOST
  1

  9
$DIMALT
 70
     0
  9
$DIMALTD
 70
     2
  9
$DIMALTF
 40
25.399999999999999
  9
$DIMLFAC
 40
1.0
  9
$DIMTOFL
 70
     0
  9
$DIMTVP
 40
0.0
  9
$DIMTIX
 70
     0
  9
$DIMSOXD
 70
     0
  9
$DIMSAH
 70
     0
  9
$DIMBLK1
  1

  9
$DIMBLK2
  1

  9
$DIMSTYLE
  2
STANDARD
  9
$DIMCLRD
 70
     0
  9
$DIMCLRE
 70
     0
  9
$DIMCLRT
 70
     0
  9
$DIMTFAC
 40
1.0
  9
$DIMGAP
 40
0.09
  9
$LUNITS
 70
     2
  9
$LUPREC
 70
     4
  9
$SKETCHINC
 40
0.1
  9
$FILLETRAD
 40
0.0
  9
$AUNITS
 70
     0
  9
$AUPREC
 70
     0
  9
$MENU
  1
E:\r13\win\SUPPORT\ACAD
  9
$ELEVATION
 40
0.0
  9
$PELEVATION
 40
0.0
  9
$THICKNESS
 40
0.0
  9
$LIMCHECK
 70
     0
  9
$BLIPMODE
 70
     0
  9
$CHAMFERA
 40
0.0
  9
$CHAMFERB
 40
0.0
  9
$SKPOLY
 70
     0
  9
$TDCREATE
 40
2450359.4187476858
  9
$TDUPDATE
 40
2456597.5618029628
  9
$TDINDWG
 40
0.0182836574
  9
$TDUSRTIMER
 40
0.0182836574
  9
$USRTIMER
 70
     1
  9
$ANGBASE
 50
0.0
  9
$ANGDIR
 70
     0
  9
$PDMODE
 70
     0
  9
$PDSIZE
 40
0.0
  9
$PLINEWID
 40
0.0
  9
$COORDS
 70
     1
  9
$SPLFRAME
 70
     0
  9
$SPLINETYPE
 70
     6
  9
$SPLINESEGS
 70
     8
  9
$ATTDIA
 70
     0
  9
$ATTREQ
 70
     1
  9
$HANDLING
 70
     1
  9
$HANDSEED
  5
4B0
  9
$SURFTAB1
 70
     6
  9
$SURFTAB2
 70
     6
  9
$SURFTYPE
 70
     6
  9
$SURFU
 70
     6
  9
$SURFV
 70
     6
  9
$UCSNAME
  2

  9
$UCSORG
 10
0.0
 20
0.0
 30
0.0
  9
$UCSXDIR
 10
1.0
 20
0.0
 30
0.0
  9
$UCSYDIR
 10
0.0
 20
1.0
 30
0.0
  9
$PUCSNAME
  2

  9
$PUCSORG
 10
0.0
 20
0.0
 30
0.0
  9
$PUCSXDIR
 10
1.0
 20
0.0
 30
0.0
  9
$PUCSYDIR
 10
0.0
 20
1.0
 30
0.0
  9
$USERI1
 70
     4
  9
$USERI2
 70
     1
  9
$USERI3
 70
     0
  9
$USERI4
 70
     0
  9
$USERI5
 70
     0
  9
$USERR1
 40
1.0
  9
$USERR2
 40
3.0
  9
$USERR3
 40
3.0
  9
$USERR4
 40
3.0
  9
$USERR5
 40
10.0
  9
$WORLDVIEW
 70
     1
  9
$SHADEDGE
 70
     3
  9
$SHADEDIF
 70
    70
  9
$TILEMODE
 70
     1
  9
$MAXACTVP
 70
    16
  9
$PLIMCHECK
 70
     0
  9
$PEXTMIN
 10
1.0000000000000000E+020
 20
1.0000000000000000E+020
 30
1.0000000000000000E+020
  9
$PEXTMAX
 10
-1.0000000000000000E+020
 20
-1.0000000000000000E+020
 30
-1.0000000000000000E+020
  9
$PLIMMIN
 10
0.0
 20
0.0
  9
$PLIMMAX
 10
12.0
 20
9.0
  9
$UNITMODE
 70
     0
  9
$VISRETAIN
 70
     0
  9
$PLINEGEN
 70
     0
  9
$PSLTSCALE
 70
     1
  0
ENDSEC
  0
SECTION
  2
TABLES
  0
TABLE
  2
VPORT
 70
     1
  0
VPORT
  2
*ACTIVE
 70
     0
 10
0.0
 20
0.0
 11
1.0
 21
1.0
 12
187.49427839065231
 22
162.8616388594717
 13
0.0
 23
0.0
 14
5.0
 24
5.0
 15
0.0
 25
0.0
 16
0.0
 26
0.0
 36
1.0
 17
0.0
 27
0.0
 37
0.0
 40
334.81001162774987
 41
1.9089595375722539
 42
50.0
 43
0.0
 44
0.0
 50
0.0
 51
0.0
 71
     0
 72
   100
 73
     1
 74
     0
 75
     0
 76
     0
 77
     0
 78
     0
  0
ENDTAB
  0
TABLE
  2
LTYPE
 70
     2
  0
LTYPE
  2
CONTINUOUS
 70
     0
  3
Solid Line
 72
    65
 73
     0
 40
0.0
  0
LTYPE
  2
PHANTOM2
 70
     0
  3
___ _ _ ___ _ _ ___ _ _ ___ _ _
 72
    65
 73
     6
 40
1.25
 49
0.625
 49
-0.125
 49
0.125
 49
-0.125
 49
0.125
 49
-0.125
  0
ENDTAB
  0
TABLE
  2
LAYER
 70
     2
  0
LAYER
  2
0
 70
     0
 62
     7
  6
CONTINUOUS
  0
LAYER
  2
ITEM_25
 70
     0
 62
     3
  6
CONTINUOUS
  0
ENDTAB
  0
TABLE
  2
STYLE
 70
     2
  0
STYLE
  2
STANDARD
 70
     0
 40
0.0
 41
1.0
 50
0.0
 71
     0
 42
0.2
  3
simplex
  4
bigfont
  0
STYLE
  2
STANDARD1
 70
     0
 40
0.0
 41
1.0
 50
0.0
 71
     0
 42
3.0
  3
txt
  4

  0
ENDTAB
  0
TABLE
  2
VIEW
 70
     0
  0
ENDTAB
  0
TABLE
  2
UCS
 70
     0
  0
ENDTAB
  0
TABLE
  2
APPID
 70
    25
  0
APPID
  2
ACAD
 70
     0
  0
APPID
  2
GENIUS_GENOBJ_13
 70
     0
  0
APPID
  2
GENIUS_GENODEF_13
 70
     0
  0
APPID
  2
GENIUS_GENOENT_13
 70
     0
  0
APPID
  2
GENIUS_GENOLIS_13
 70
     0
  0
APPID
  2
GENIUS_GENOREF_13
 70
     0
  0
APPID
  2
GENIUS_GENOBJ-N-TIT_13
 70
     0
  0
APPID
  2
GENIUS_GENTITLE_13
 70
     0
  0
APPID
  2
GENIUS_GENZVEED_13
 70
     0
  0
APPID
  2
GENIUS_GENOBJ-N-FIL_13
 70
     0
  0
APPID
  2
GENIUS_GEFINERT_13
 70
     0
  0
APPID
  2
GENIUS_GENOBJ-F-INER_13
 70
     0
  0
APPID
  2
GENIUS_GENOBJ-N-CRS_13
 70
     0
  0
APPID
  2
GENIUS_GENBH_13
 70
     0
  0
APPID
  2
GENIUS_GENOBJ-NBEHI-BHF_13
 70
     0
  0
APPID
  2
GENIUS_GENOBJ-NBEHI-BHB_13
 70
     0
  0
APPID
  2
GENIUS_GENOBJ-F-PART_13
 70
     0
  0
APPID
  2
GENIUS_GEFSTDP_13
 70
     0
  0
APPID
  2
GENIUS_GENOBJ-F-TOL_13
 70
     0
  0
APPID
  2
GENIUS_GENSYMENT_13
 70
     0
  0
APPID
  2
GENIUS_GENOBJ-N-ZOO_13
 70
     0
  0
APPID
  2
GENIUS_GENZOO_13
 70
     0
  0
APPID
  2
GENIUS_GENOBJ-N-SEC_13
 70
     0
  0
APPID
  2
ACAD_MLEADERVER
 70
     0
  0
APPID
  2
ACAD_NAV_VCDISPLAY
 70
     0
  0
ENDTAB
  0
TABLE
  2
DIMSTYLE
 70
     1
  0
DIMSTYLE
  2
STANDARD
 70
     0
  3

  4

  5

  6

  7

 40
1.0
 41
0.18
 42
0.0625
 43
0.38
 44
0.18
 45
0.0
 46
0.0
 47
0.0
 48
0.0
140
0.18
141
0.09
142
0.0
143
25.399999999999999
144
1.0
145
0.0
146
1.0
147
0.09
 71
     0
 72
     0
 73
     1
 74
     1
 75
     0
 76
     0
 77
     0
 78
     0
170
     0
171
     2
172
     0
173
     0
174
     0
175
     0
176
     0
177
     0
178
     0
  0
ENDTAB
  0
ENDSEC
  0
SECTION
  2
BLOCKS
  0
BLOCK
  8
0
  2
$MODEL_SPACE
 70
     0
 10
0.0
 20
0.0
 30
0.0
  3
$MODEL_SPACE
  1

  0
ENDBLK
  5
371
  8
0
  0
BLOCK
 67
     1
  8
0
  2
$PAPER_SPACE
 70
     0
 10
0.0
 20
0.0
 30
0.0
  3
$PAPER_SPACE
  1

  0
ENDBLK
  5
36F
 67
     1
  8
0
  0
ENDSEC
  0
SECTION
  2
ENTITIES
  0
LINE
  5
2B5
  8
ITEM_25
 10
176.71612833964349
 20
168.54001327226001
 30
0.0
 11
196.1719723586271
 21
149.08416925331221
 31
0.0
  0
LINE
  5
2B6
  8
ITEM_25
 10
169.09918029073049
 20
143.2672211983683
 30
0.0
 11
169.09918029073251
 21
167.94094500344499
 31
0.0
  0
LINE
  5
2B7
  8
0
 10
177.5646564699955
 20
169.38854140261381
 30
0.0
 11
197.02050048897911
 21
149.9326973836657
 31
0.0
  0
LINE
  5
2B8
  8
0
 10
167.89918030073051
 20
143.2672211983683
 30
0.0
 11
167.8991803007325
 21
167.26722107036611
 31
0.0
  0
LINE
  5
2B9
  8
0
 10
238.1956018430262
 20
168.26722105436801
 30
0.0
 11
238.1956018430262
 21
142.26722121436569
 31
0.0
  0
LINE
  5
2BA
  8
0
 10
241.19560182702619
 20
170.26722105436801
 30
0.0
 11
241.19560182702619
 21
140.26722121436569
 31
0.0
  0
ARC
  5
2BB
  8
0
 10
170.89918028473051
 20
143.26722119836811
 30
0.0
 40
2.999999984
 50
179.9999999999952
 51
270.0
  0
LINE
  5
2BC
  8
0
 10
240.19560184302611
 20
140.26722121436569
 30
0.0
 11
241.19560182702619
 21
140.26722121436569
 31
0.0
  0
LINE
  5
2BD
  8
ITEM_25
 10
240.76396987836361
 20
149.26722116635571
 30
0.0
 11
238.51657105999561
 21
149.267221166355
 31
0.0
  0
ARC
  5
2BE
  8
0
 10
240.19560184302611
 20
142.26722121436569
 30
0.0
 40
2.0
 50
180.0
 51
270.0
1001
GENIUS_GENODEF_13
1002
{
1000
HIER
1070
     0
1002
}
1002
{
1000
MANEDIT
1070
     0
1002
}
1002
{
1000
NOSEL
1070
     0
1002
}
1002
{
1000
BEHIND
1070
     0
1002
}
1002
{
1000
REACTOR
1002
}
1001
GENIUS_GENOBJ-N-FIL_13
1002
{
1000
OWNER
1000
GEN
1002
}
  0
LINE
  5
2C1
  8
ITEM_25
 10
195.69304866701199
 20
141.46722120436809
 30
0.0
 11
170.58972223492151
 21
141.46722120436809
 31
0.0
  0
LINE
  5
2C2
  8
0
 10
194.89918015673521
 20
140.26722121436819
 30
0.0
 11
170.89918028473051
 21
140.26722121436819
 31
0.0
  0
ARC
  5
2C3
  8
0
 10
194.89918015673521
 20
143.26722119836811
 30
0.0
 40
2.999999984
 50
270.0
 51
0.0000000000003053
  0
ARC
  5
2C5
  8
0
 10
194.8991801567351
 20
147.81137705141779
 30
0.0
 40
2.999999984
 50
0.0000000000002799
 51
45.000000000052673
  0
LINE
  5
2C6
  8
ITEM_25
 10
196.6991801507352
 20
147.81137705141779
 30
0.0
 11
196.6991801507352
 21
143.26722119836811
 31
0.0
  0
LINE
  5
2C7
  8
0
 10
197.89918014073521
 20
147.81137705141799
 30
0.0
 11
197.89918014073521
 21
143.26722119836811
 31
0.0
  0
ARC
  5
2C9
  8
0
 10
170.89918028473249
 20
167.26722107036579
 30
0.0
 40
2.999999984
 50
90.0
 51
179.9999999999952
  0
LINE
  5
2CA
  8
0
 10
241.19560182702619
 20
170.26722105436801
 30
0.0
 11
240.19560184302611
 21
170.26722105436801
 31
0.0
  0
ARC
  5
2CB
  8
0
 10
240.19560184302611
 20
168.26722105436801
 30
0.0
 40
2.0
 50
89.999999999999915
 51
180.0
1001
GENIUS_GENODEF_13
1002
{
1000
HIER
1070
     0
1002
}
1002
{
1000
MANEDIT
1070
     0
1002
}
1002
{
1000
NOSEL
1070
     0
1002
}
1002
{
1000
BEHIND
1070
     0
1002
}
1002
{
1000
REACTOR
1002
}
1001
GENIUS_GENOBJ-N-FIL_13
1002
{
1000
OWNER
1000
GEN
1002
}
  0
ARC
  5
2CE
  8
0
 10
175.44333613775149
 20
167.26722107036579
 30
0.0
 40
2.999999984
 50
45.000000000052687
 51
89.999999999999801
  0
LINE
  5
2CF
  8
ITEM_25
 10
170.40411542341229
 20
169.06722106436581
 30
0.0
 11
175.44333613775149
 21
169.06722106436581
 31
0.0
  0
LINE
  5
2D0
  8
0
 10
170.89918028473249
 20
170.26722105436579
 30
0.0
 11
175.44333613775149
 21
170.26722105436579
 31
0.0
  0
LINE
  5
2D3
  8
0
 10
129.1177655042988
 20
170.26722105436801
 30
0.0
 11
129.1177655042988
 21
140.26722121436569
 31
0.0
  0
LINE
  5
2D4
  8
0
 10
132.1177654882988
 20
168.26722105436801
 30
0.0
 11
132.1177654882988
 21
142.26722121436569
 31
0.0
  0
ARC
  5
2D5
  8
0
 10
130.1177654882988
 20
142.26722121436569
 30
0.0
 40
2.0
 50
270.0
 51
0.0
1001
GENIUS_GENODEF_13
1002
{
1000
HIER
1070
     0
1002
}
1002
{
1000
MANEDIT
1070
     0
1002
}
1002
{
1000
NOSEL
1070
     0
1002
}
1002
{
1000
BEHIND
1070
     0
1002
}
1002
{
1000
REACTOR
1002
}
1001
GENIUS_GENOBJ-N-FIL_13
1002
{
1000
OWNER
1000
GEN
1002
}
  0
LINE
  5
2D6
  8
0
 10
130.1177654882988
 20
140.26722121436569
 30
0.0
 11
129.1177655042988
 21
140.26722121436569
 31
0.0
  0
ARC
  5
2D8
  8
0
 10
130.1177654882988
 20
168.26722105436801
 30
0.0
 40
2.0
 50
0.0
 51
90.0
1001
GENIUS_GENODEF_13
1002
{
1000
HIER
1070
     0
1002
}
1002
{
1000
MANEDIT
1070
     0
1002
}
1002
{
1000
NOSEL
1070
     0
1002
}
1002
{
1000
BEHIND
1070
     0
1002
}
1002
{
1000
REACTOR
1002
}
1001
GENIUS_GENOBJ-N-FIL_13
1002
{
1000
OWNER
1000
GEN
1002
}
  0
LINE
  5
2D9
  8
0
 10
129.1177655042988
 20
170.26722105436801
 30
0.0
 11
130.1177654882988
 21
170.26722105436801
 31
0.0
  0
LINE
  5
2DA
  8
0
 10
169.8991803007317
 20
104.116471747142
 30
0.0
 11
195.8991801407341
 21
104.116471747142
 31
0.0
  0
LINE
  5
2DB
  8
0
 10
167.8991803007317
 20
101.116471763142
 30
0.0
 11
197.8991801407341
 21
101.116471763142
 31
0.0
  0
ARC
  5
2DC
  8
0
 10
195.8991801407341
 20
102.116471747142
 30
0.0
 40
2.0
 50
0.0
 51
90.0
1001
GENIUS_GENODEF_13
1002
{
1000
HIER
1070
     0
1002
}
1002
{
1000
MANEDIT
1070
     0
1002
}
1002
{
1000
NOSEL
1070
     0
1002
}
1002
{
1000
BEHIND
1070
     0
1002
}
1002
{
1000
REACTOR
1002
}
1001
GENIUS_GENOBJ-N-FIL_13
1002
{
1000
OWNER
1000
GEN
1002
}
  0
LINE
  5
2DE
  8
0
 10
197.8991801407341
 20
102.116471747142
 30
0.0
 11
197.8991801407341
 21
101.116471763142
 31
0.0
  0
ARC
  5
2DF
  8
0
 10
169.8991803007317
 20
102.116471747142
 30
0.0
 40
2.0
 50
90.0
 51
180.0
1001
GENIUS_GENODEF_13
1002
{
1000
HIER
1070
     0
1002
}
1002
{
1000
MANEDIT
1070
     0
1002
}
1002
{
1000
NOSEL
1070
     0
1002
}
1002
{
1000
BEHIND
1070
     0
1002
}
1002
{
1000
REACTOR
1002
}
1001
GENIUS_GENOBJ-N-FIL_13
1002
{
1000
OWNER
1000
GEN
1002
}
  0
LINE
  5
2E0
  8
0
 10
167.8991803007317
 20
101.116471763142
 30
0.0
 11
167.8991803007317
 21
102.116471747142
 31
0.0
  0
LINE
  5
2E2
  8
0
 10
198.1413853709679
 20
209.71923391710931
 30
0.0
 11
168.14138553096561
 21
209.71923391710931
 31
0.0
  0
LINE
  5
2E3
  8
0
 10
196.1413853709679
 20
206.71923393310931
 30
0.0
 11
170.14138553096561
 21
206.71923393310931
 31
0.0
  0
ARC
  5
2E4
  8
0
 10
170.14138553096561
 20
208.71923393310931
 30
0.0
 40
2.0
 50
180.0
 51
269.99999999999989
1001
GENIUS_GENODEF_13
1002
{
1000
HIER
1070
     0
1002
}
1002
{
1000
MANEDIT
1070
     0
1002
}
1002
{
1000
NOSEL
1070
     0
1002
}
1002
{
1000
BEHIND
1070
     0
1002
}
1002
{
1000
REACTOR
1002
}
1001
GENIUS_GENOBJ-N-FIL_13
1002
{
1000
OWNER
1000
GEN
1002
}
  0
LINE
  5
2E6
  8
0
 10
168.14138553096561
 20
208.71923393310931
 30
0.0
 11
168.14138553096561
 21
209.71923391710931
 31
0.0
  0
LINE
  5
2E7
  8
ITEM_25
 10
177.1413854829556
 20
209.28760196844681
 30
0.0
 11
177.14138548295489
 21
207.0402031500787
 31
0.0
  0
ARC
  5
2E8
  8
0
 10
196.1413853709679
 20
208.71923393310931
 30
0.0
 40
2.0
 50
269.99999999999989
 51
0.0000000000000799
1001
GENIUS_GENODEF_13
1002
{
1000
HIER
1070
     0
1002
}
1002
{
1000
MANEDIT
1070
     0
1002
}
1002
{
1000
NOSEL
1070
     0
1002
}
1002
{
1000
BEHIND
1070
     0
1002
}
1002
{
1000
REACTOR
1002
}
1001
GENIUS_GENOBJ-N-FIL_13
1002
{
1000
OWNER
1000
GEN
1002
}
  0
LINE
  5
2E9
  8
0
 10
198.1413853709679
 20
209.71923391710931
 30
0.0
 11
198.1413853709679
 21
208.71923393310931
 31
0.0
  0
TEXT
  5
422
  8
0
 62
     3
 10
0.0
 20
0.0
 30
0.0
 40
10.0
  1
L6-ECP3030-45
  7
STANDARD1
  0
ENDSEC
  0
EOF
