  0
SECTION
  2
HEADER
  9
$ACADVER
  1
AC1009
  9
$INSBASE
 10
0.0
 20
0.0
 30
0.0
  9
$EXTMIN
 10
0.0
 20
-1.4802182810368341
 30
0.0
  9
$EXTMAX
 10
159.0
 20
141.80000000003099
 30
0.0
  9
$LIMMIN
 10
0.0
 20
0.0
  9
$LIMMAX
 10
375.0
 20
270.0
  9
$ORTHOMODE
 70
     1
  9
$REGENMODE
 70
     1
  9
$FILLMODE
 70
     1
  9
$QTEXTMODE
 70
     0
  9
$MIRRTEXT
 70
     0
  9
$DRAGMODE
 70
     2
  9
$LTSCALE
 40
5.0
  9
$OSMODE
 70
    37
  9
$ATTMODE
 70
     1
  9
$TEXTSIZE
 40
4.000000000000048
  9
$TRACEWID
 40
0.05
  9
$TEXTSTYLE
  7
STANDARD
  9
$CLAYER
  8
0
  9
$CELTYPE
  6
BYLAYER
  9
$CECOLOR
 62
   256
  9
$DIMSCALE
 40
0.5
  9
$DIMASZ
 40
3.0
  9
$DIMEXO
 40
2.0
  9
$DIMDLI
 40
0.38
  9
$DIMRND
 40
0.0
  9
$DIMDLE
 40
0.0
  9
$DIMEXE
 40
2.0
  9
$DIMTP
 40
0.0
  9
$DIMTM
 40
0.0
  9
$DIMTXT
 40
3.2000000000000002
  9
$DIMCEN
 40
0.0
  9
$DIMTSZ
 40
0.0
  9
$DIMTOL
 70
     0
  9
$DIMLIM
 70
     0
  9
$DIMTIH
 70
     0
  9
$DIMTOH
 70
     0
  9
$DIMSE1
 70
     0
  9
$DIMSE2
 70
     0
  9
$DIMTAD
 70
     1
  9
$DIMZIN
 70
     0
  9
$DIMBLK
  1

  9
$DIMASO
 70
     0
  9
$DIMSHO
 70
     0
  9
$DIMPOST
  1

  9
$DIMAPOST
  1

  9
$DIMALT
 70
     0
  9
$DIMALTD
 70
     2
  9
$DIMALTF
 40
25.399999999999999
  9
$DIMLFAC
 40
1.0
  9
$DIMTOFL
 70
     0
  9
$DIMTVP
 40
1.6000000000000001
  9
$DIMTIX
 70
     1
  9
$DIMSOXD
 70
     0
  9
$DIMSAH
 70
     0
  9
$DIMBLK1
  1

  9
$DIMBLK2
  1

  9
$DIMSTYLE
  2
STANDARD
  9
$DIMCLRD
 70
     4
  9
$DIMCLRE
 70
     4
  9
$DIMCLRT
 70
     4
  9
$DIMTFAC
 40
1.0
  9
$DIMGAP
 40
0.09
  9
$LUNITS
 70
     2
  9
$LUPREC
 70
     1
  9
$SKETCHINC
 40
0.1
  9
$FILLETRAD
 40
0.0
  9
$AUNITS
 70
     0
  9
$AUPREC
 70
     0
  9
$MENU
  1
E:\r13\win\SUPPORT\ACAD
  9
$ELEVATION
 40
0.0
  9
$PELEVATION
 40
0.0
  9
$THICKNESS
 40
0.0
  9
$LIMCHECK
 70
     0
  9
$BLIPMODE
 70
     0
  9
$CHAMFERA
 40
1.1999999999999991
  9
$CHAMFERB
 40
1.1999999999999991
  9
$SKPOLY
 70
     0
  9
$TDCREATE
 40
2449983.5574884261
  9
$TDUPDATE
 40
2457968.4254051619
  9
$TDINDWG
 40
0.2794534375
  9
$TDUSRTIMER
 40
0.2794534375
  9
$USRTIMER
 70
     1
  9
$ANGBASE
 50
0.0
  9
$ANGDIR
 70
     0
  9
$PDMODE
 70
     0
  9
$PDSIZE
 40
0.0
  9
$PLINEWID
 40
0.0
  9
$COORDS
 70
     1
  9
$SPLFRAME
 70
     0
  9
$SPLINETYPE
 70
     6
  9
$SPLINESEGS
 70
     8
  9
$ATTDIA
 70
     0
  9
$ATTREQ
 70
     1
  9
$HANDLING
 70
     1
  9
$HANDSEED
  5
2AA9
  9
$SURFTAB1
 70
     6
  9
$SURFTAB2
 70
     6
  9
$SURFTYPE
 70
     6
  9
$SURFU
 70
     6
  9
$SURFV
 70
     6
  9
$UCSNAME
  2

  9
$UCSORG
 10
0.0
 20
0.0
 30
0.0
  9
$UCSXDIR
 10
1.0
 20
0.0
 30
0.0
  9
$UCSYDIR
 10
0.0
 20
1.0
 30
0.0
  9
$PUCSNAME
  2

  9
$PUCSORG
 10
0.0
 20
0.0
 30
0.0
  9
$PUCSXDIR
 10
1.0
 20
0.0
 30
0.0
  9
$PUCSYDIR
 10
0.0
 20
1.0
 30
0.0
  9
$USERI1
 70
     0
  9
$USERI2
 70
     1
  9
$USERI3
 70
     0
  9
$USERI4
 70
     0
  9
$USERI5
 70
     0
  9
$USERR1
 40
0.0
  9
$USERR2
 40
0.0
  9
$USERR3
 40
0.0
  9
$USERR4
 40
0.0
  9
$USERR5
 40
0.0
  9
$WORLDVIEW
 70
     1
  9
$SHADEDGE
 70
     3
  9
$SHADEDIF
 70
    70
  9
$TILEMODE
 70
     1
  9
$MAXACTVP
 70
    16
  9
$PLIMCHECK
 70
     0
  9
$PEXTMIN
 10
1.0000000000000000E+020
 20
1.0000000000000000E+020
 30
1.0000000000000000E+020
  9
$PEXTMAX
 10
-1.0000000000000000E+020
 20
-1.0000000000000000E+020
 30
-1.0000000000000000E+020
  9
$PLIMMIN
 10
0.0
 20
0.0
  9
$PLIMMAX
 10
12.0
 20
9.0
  9
$UNITMODE
 70
     0
  9
$VISRETAIN
 70
     0
  9
$PLINEGEN
 70
     0
  9
$PSLTSCALE
 70
     0
  0
ENDSEC
  0
SECTION
  2
TABLES
  0
TABLE
  2
VPORT
 70
     1
  0
VPORT
  2
*ACTIVE
 70
     0
 10
0.0
 20
0.0
 11
1.0
 21
1.0
 12
181.62393162393161
 22
100.0
 13
0.0
 23
0.0
 14
5.0
 24
5.0
 15
5.0
 25
5.0
 16
0.0
 26
0.0
 36
1.0
 17
0.0
 27
0.0
 37
0.0
 40
200.0
 41
1.816239316239316
 42
50.0
 43
0.0
 44
0.0
 50
0.0
 51
0.0
 71
     0
 72
   500
 73
     1
 74
     0
 75
     0
 76
     0
 77
     0
 78
     2
  0
ENDTAB
  0
TABLE
  2
LTYPE
 70
     3
  0
LTYPE
  2
CONTINUOUS
 70
     0
  3
Solid Line
 72
    65
 73
     0
 40
0.0
  0
LTYPE
  2
CENTER
 70
     0
  3
____ _ ____ _ ____ _ ____ _ ____ _ ____ _ ____
 72
    65
 73
     4
 40
2.0
 49
1.25
 49
-0.25
 49
0.25
 49
-0.25
  0
LTYPE
  2
PHANTOM2
 70
     0
  3
___ _ _ ___ _ _ ___ _ _ ___ _ _
 72
    65
 73
     6
 40
1.25
 49
0.625
 49
-0.125
 49
0.125
 49
-0.125
 49
0.125
 49
-0.125
  0
ENDTAB
  0
TABLE
  2
LAYER
 70
     2
  0
LAYER
  2
0
 70
     0
 62
     7
  6
CONTINUOUS
  0
LAYER
  2
1
 70
     0
 62
     1
  6
CENTER
  0
ENDTAB
  0
TABLE
  2
STYLE
 70
     2
  0
STYLE
  2
STANDARD
 70
     0
 40
0.0
 41
1.0
 50
0.0
 71
     0
 42
4.000000000000048
  3
SIMPLEX
  4
BIGFONT
  0
STYLE
  2
STANDARD1
 70
     0
 40
0.0
 41
1.0
 50
0.0
 71
     0
 42
3.0
  3
txt
  4

  0
ENDTAB
  0
TABLE
  2
VIEW
 70
     1
  0
VIEW
  2
ALL
 70
     0
 40
270.0
 10
220.78595317725751
 20
135.0
 41
441.57190635451502
 11
0.0
 21
0.0
 31
1.0
 12
0.0
 22
0.0
 32
0.0
 42
50.0
 43
0.0
 44
0.0
 50
0.0
 71
     0
  0
ENDTAB
  0
TABLE
  2
UCS
 70
     0
  0
ENDTAB
  0
TABLE
  2
APPID
 70
     6
  0
APPID
  2
ACAD
 70
     0
  0
APPID
  2
ACAD_MLEADERVER
 70
     0
  0
APPID
  2
ACAD_NAV_VCDISPLAY
 70
     0
  0
APPID
  2
ACAD_EXEMPT_FROM_CAD_STANDARDS
 70
     0
  0
APPID
  2
ACAECLAYERSTANDARD
 70
     0
  0
APPID
  2
ACCMTRANSPARENCY
 70
     0
  0
ENDTAB
  0
TABLE
  2
DIMSTYLE
 70
     1
  0
DIMSTYLE
  2
STANDARD
 70
     0
  3

  4

  5

  6

  7

 40
1.0
 41
0.18
 42
0.0625
 43
0.38
 44
0.18
 45
0.0
 46
0.0
 47
0.0
 48
0.0
140
0.18
141
0.09
142
0.0
143
25.399999999999999
144
1.0
145
0.0
146
1.0
147
0.09
 71
     0
 72
     0
 73
     1
 74
     1
 75
     0
 76
     0
 77
     0
 78
     0
170
     0
171
     2
172
     0
173
     0
174
     0
175
     0
176
     0
177
     0
178
     0
  0
ENDTAB
  0
ENDSEC
  0
SECTION
  2
BLOCKS
  0
BLOCK
  8
0
  2
$MODEL_SPACE
 70
     0
 10
0.0
 20
0.0
 30
0.0
  3
$MODEL_SPACE
  1

  0
ENDBLK
  5
34A
  8
0
  0
BLOCK
 67
     1
  8
0
  2
$PAPER_SPACE
 70
     0
 10
0.0
 20
0.0
 30
0.0
  3
$PAPER_SPACE
  1

  0
ENDBLK
  5
348
 67
     1
  8
0
  0
ENDSEC
  0
SECTION
  2
ENTITIES
  0
TEXT
  5
3F7
  8
0
 62
     3
 10
0.0
 20
0.0
 30
0.0
 40
5.0
  1
L6-EABJ6
  7
STANDARD1
  0
LINE
  5
1FAE
  8
0
 10
40.000000000005059
 20
80.732050807643859
 30
0.0
 11
43.00000000003547
 21
79.0
 31
0.0
  0
LINE
  5
1FAF
  8
0
 10
45.99999999996453
 20
79.0
 30
0.0
 11
48.999999999994941
 21
80.732050807643859
 31
0.0
  0
LINE
  5
1FB0
  8
0
 10
110.000000000005
 20
80.732050807643859
 30
0.0
 11
113.0000000000354
 21
79.0
 31
0.0
  0
LINE
  5
1FB1
  8
0
 10
115.9999999999645
 20
79.0
 30
0.0
 11
118.9999999999949
 21
80.732050807643859
 31
0.0
  0
LINE
  5
1FB2
  8
0
 10
49.0
 20
87.492768336784792
 30
0.0
 11
49.0
 21
97.800000000043866
 31
0.0
  0
LINE
  5
1FB3
  8
0
 10
49.0
 20
80.732050807643859
 30
0.0
 11
49.0
 21
82.507231663302946
 31
0.0
  0
LINE
  5
1FB4
  8
0
 10
40.0
 20
82.506316302230204
 30
0.0
 11
40.0
 21
80.732050807643859
 31
0.0
  0
LINE
  5
1FB5
  8
0
 10
40.0
 20
97.800000000043866
 30
0.0
 11
40.0
 21
87.491420804257643
 31
0.0
  0
LINE
  5
1FB6
  8
0
 10
119.0
 20
87.497713582925627
 30
0.0
 11
119.0
 21
97.800000000043866
 31
0.0
  0
LINE
  5
1FB7
  8
0
 10
119.0
 20
80.732050807643859
 30
0.0
 11
119.0
 21
82.502286417162097
 31
0.0
  0
LINE
  5
1FB8
  8
0
 10
110.0
 20
82.502286417162097
 30
0.0
 11
110.0
 21
80.732050807643859
 31
0.0
  0
LINE
  5
1FB9
  8
0
 10
110.0
 20
97.800000000043866
 30
0.0
 11
110.0
 21
87.497713582925627
 31
0.0
  0
LINE
  5
1FBA
  8
0
 10
73.19999999977955
 20
82.499999999822734
 30
0.0
 11
74.319615242304565
 21
83.146410161469646
 31
0.0
  0
ARC
  5
1FBB
  8
0
 10
79.947213595599976
 20
82.700000000243875
 30
0.0
 40
0.2000000002000064
 50
221.8103149056021
 51
269.99999997135239
  0
ARC
  5
1FBC
  8
0
 10
79.947213595599976
 20
87.299999999843877
 30
0.0
 40
0.2000000001999993
 50
90.000000028647591
 51
138.18968509440131
  0
LINE
  5
1FBD
  8
0
 10
76.0
 20
82.500000000043883
 30
0.0
 11
79.052786404399995
 21
82.500000000043883
 31
0.0
  0
LINE
  5
1FBE
  8
0
 10
79.052786404399995
 20
87.500000000043883
 30
0.0
 11
76.0
 21
87.500000000043883
 31
0.0
  0
LINE
  5
1FBF
  8
0
 10
64.999999999992724
 20
82.80000000002768
 30
0.0
 11
65.300000000000125
 21
82.500000000020236
 31
0.0
  0
ARC
  5
1FC0
  8
0
 10
79.052786404399995
 20
82.700000000243875
 30
0.0
 40
0.2000000001999851
 50
270.0
 51
318.18968507664152
  0
ARC
  5
1FC1
  8
0
 10
79.052786404399995
 20
87.299999999843891
 30
0.0
 40
0.2000000001999922
 50
41.810314923361233
 51
90.0
  0
LINE
  5
1FC2
  8
0
 10
79.947213595499974
 20
82.500000000043883
 30
0.0
 11
83.0
 21
82.500000000043883
 31
0.0
  0
LINE
  5
1FC3
  8
0
 10
83.0
 20
87.500000000043883
 30
0.0
 11
79.947213595499974
 21
87.500000000043883
 31
0.0
  0
ARC
  5
1FC4
  8
0
 10
79.5
 20
82.299999999943878
 30
0.0
 40
0.4000000000999968
 50
41.810314915379109
 51
138.18968509350199
  0
ARC
  5
1FC5
  8
0
 10
79.5
 20
87.700000000143874
 30
0.0
 40
0.4000000000999968
 50
221.81031490650221
 51
318.18968508462092
  0
ARC
  5
1FC6
  8
0
 10
83.200000000099976
 20
82.599999999943876
 30
0.0
 40
0.2000000001000046
 50
90.000000028647591
 51
180.0
  0
ARC
  5
1FC7
  8
0
 10
83.200000000099976
 20
87.400000000143876
 30
0.0
 40
0.2000000001000046
 50
180.0
 51
269.99999997135239
  0
ARC
  5
1FC8
  8
0
 10
75.600000000099982
 20
82.800000000143868
 30
0.0
 40
0.3999999999000039
 50
0.0
 51
90.000000012398985
  0
LINE
  5
1FC9
  8
0
 10
93.700000000137408
 20
82.800000000043866
 30
0.0
 11
94.000000000045944
 21
83.100000000009217
 31
0.0
  0
LINE
  5
1FCA
  8
0
 10
94.000000000045944
 20
86.900000000078521
 30
0.0
 11
93.700000000137408
 21
87.200000000043886
 31
0.0
  0
LINE
  5
1FCB
  8
0
 10
83.199999999999974
 20
82.800000000043866
 30
0.0
 11
93.699999999999946
 21
82.800000000043866
 31
0.0
  0
LINE
  5
1FCC
  8
0
 10
86.799999999949605
 20
87.200000000043886
 30
0.0
 11
83.199999999999974
 21
87.200000000043886
 31
0.0
  0
ARC
  5
1FCD
  8
0
 10
74.519615242499981
 20
82.799999999443855
 30
0.0
 40
0.4000000006000377
 50
90.000000028647591
 51
119.9999999827006
  0
LINE
  5
1FCE
  8
0
 10
74.519615242300006
 20
83.200000000043872
 30
0.0
 11
75.600000000013409
 21
83.200000000043872
 31
0.0
  0
LINE
  5
1FCF
  8
0
 10
40.000000000005059
 20
80.732050807643859
 30
0.0
 11
49.0
 21
80.732050807643859
 31
0.0
  0
LINE
  5
1FD0
  8
0
 10
43.00000000003547
 20
79.0
 30
0.0
 11
45.99999999996453
 21
79.0
 31
0.0
  0
LINE
  5
1FD1
  8
0
 10
110.000000000005
 20
80.732050807643859
 30
0.0
 11
119.0
 21
80.732050807643859
 31
0.0
  0
LINE
  5
1FD2
  8
0
 10
113.0000000000354
 20
79.0
 30
0.0
 11
115.9999999999645
 21
79.0
 31
0.0
  0
LINE
  5
1FD3
  8
0
 10
118.9370598373244
 20
99.600000000034271
 30
0.0
 11
110.06294016267719
 21
99.600000000035962
 31
0.0
  0
LINE
  5
1FD4
  8
0
 10
110.0629401626767
 20
99.600000000030477
 30
0.0
 11
110.26591214077391
 21
99.800000000008595
 31
0.0
  0
LINE
  5
1FD5
  8
0
 10
118.7340878592005
 20
99.800000000033705
 30
0.0
 11
110.2659121407815
 21
99.800000000016084
 31
0.0
  0
LINE
  5
1FD6
  8
0
 10
118.9370598373242
 20
99.600000000024664
 30
0.0
 11
118.7340878592189
 21
99.800000000015643
 31
0.0
  0
POLYLINE
  5
1FD7
  8
0
 66
     1
 10
0.0
 20
0.0
 30
0.0
 70
   128
  0
VERTEX
  5
2A16
  8
0
 10
40.300000000000523
 20
83.092121597211175
 30
0.0
  0
VERTEX
  5
2A17
  8
0
 10
40.19061485675374
 20
82.862056990319005
 30
0.0
  0
VERTEX
  5
2A18
  8
0
 10
40.097125887699093
 20
82.679374987516127
 30
0.0
  0
VERTEX
  5
2A19
  8
0
 10
40.032989033608366
 20
82.559879721479149
 30
0.0
  0
VERTEX
  5
2A1A
  8
0
 10
40.001758047449009
 20
82.503165871854819
 30
0.0
  0
VERTEX
  5
2A1B
  8
0
 10
40.003504465137212
 20
82.506316302230204
 30
0.0
  0
SEQEND
  5
2A1C
  8
0
  0
ARC
  5
1FD8
  8
0
 10
36.503895928123853
 20
84.988353779647554
 30
0.0
 40
4.2433598261550038
 50
333.45692712837467
 51
20.869340555908622
  0
ARC
  5
1FD9
  8
0
 10
33.469577697784977
 20
83.827783345507783
 30
0.0
 40
7.4920524785229263
 50
20.896044850955931
 51
29.275084279878151
  0
LINE
  5
1FDA
  8
0
 10
49.0
 20
97.800000000043866
 30
0.0
 11
48.937059837324682
 21
97.800000000043866
 31
0.0
  0
LINE
  5
1FDB
  8
0
 10
40.062940162675261
 20
97.800000000043866
 30
0.0
 11
40.0
 21
97.800000000043866
 31
0.0
  0
LINE
  5
1FDC
  8
0
 10
40.062940162677187
 20
99.600000000035962
 30
0.0
 11
40.062940162675261
 21
97.800000000043866
 31
0.0
  0
LINE
  5
1FDD
  8
0
 10
48.93705983732449
 20
99.600000000034271
 30
0.0
 11
40.062940162677187
 21
99.600000000035962
 31
0.0
  0
LINE
  5
1FDE
  8
0
 10
48.937059837324682
 20
97.800000000043866
 30
0.0
 11
48.93705983732449
 21
99.600000000034271
 31
0.0
  0
ARC
  5
1FDF
  8
0
 10
53.70224414930788
 20
84.708097314995683
 30
0.0
 40
5.4683832134095773
 50
149.38737002522339
 51
176.9400928714357
  0
POLYLINE
  5
1FE0
  8
0
 66
     1
 10
0.0
 20
0.0
 30
0.0
 70
   128
  0
VERTEX
  5
2A1D
  8
0
 10
48.995990621382781
 20
82.507231663302946
 30
0.0
  0
VERTEX
  5
2A1E
  8
0
 10
48.998493193976117
 20
82.502713269159855
 30
0.0
  0
VERTEX
  5
2A1F
  8
0
 10
48.974117492511368
 20
82.546894348671259
 30
0.0
  0
VERTEX
  5
2A20
  8
0
 10
48.920126707336429
 20
82.646806402205186
 30
0.0
  0
VERTEX
  5
2A21
  8
0
 10
48.842980673179561
 20
82.79512333056519
 30
0.0
  0
VERTEX
  5
2A22
  8
0
 10
48.745832527206403
 20
82.993237969038674
 30
0.0
  0
VERTEX
  5
2A23
  8
0
 10
48.62851135077409
 20
83.255120069082878
 30
0.0
  0
VERTEX
  5
2A24
  8
0
 10
48.506107452371801
 20
83.568603157812817
 30
0.0
  0
VERTEX
  5
2A25
  8
0
 10
48.387555163379737
 20
83.944971494115904
 30
0.0
  0
VERTEX
  5
2A26
  8
0
 10
48.293648825486059
 20
84.374083543069034
 30
0.0
  0
VERTEX
  5
2A27
  8
0
 10
48.255313864691772
 20
84.680027778833406
 30
0.0
  0
VERTEX
  5
2A28
  8
0
 10
48.241657386773909
 20
85.000000000043869
 30
0.0
  0
SEQEND
  5
2A29
  8
0
  0
LINE
  5
1FE1
  8
0
 10
40.06294016267676
 20
99.600000000030477
 30
0.0
 11
40.265912140773906
 21
99.800000000008581
 31
0.0
  0
LINE
  5
1FE2
  8
0
 10
48.734087859200542
 20
99.800000000033705
 30
0.0
 11
40.265912140781523
 21
99.800000000016084
 31
0.0
  0
LINE
  5
1FE3
  8
0
 10
48.937059837324277
 20
99.600000000024664
 30
0.0
 11
48.734087859218903
 21
99.800000000015643
 31
0.0
  0
POLYLINE
  5
1FE4
  8
0
 66
     1
 10
0.0
 20
0.0
 30
0.0
 70
   128
  0
VERTEX
  5
2A2A
  8
0
 10
110.75834261322601
 20
85.000000000043869
 30
0.0
  0
VERTEX
  5
2A2B
  8
0
 10
110.7536274034258
 20
84.812096747379854
 30
0.0
  0
VERTEX
  5
2A2C
  8
0
 10
110.7158872675442
 20
84.434748576397851
 30
0.0
  0
VERTEX
  5
2A2D
  8
0
 10
110.6835982761523
 20
84.248386989387797
 30
0.0
  0
VERTEX
  5
2A2E
  8
0
 10
110.6456709934582
 20
84.074877256474451
 30
0.0
  0
VERTEX
  5
2A2F
  8
0
 10
110.55257798010319
 20
83.742168293032023
 30
0.0
  0
VERTEX
  5
2A30
  8
0
 10
110.4996306931456
 20
83.584742217439526
 30
0.0
  0
VERTEX
  5
2A31
  8
0
 10
110.4404996601906
 20
83.425343526741486
 30
0.0
  0
VERTEX
  5
2A32
  8
0
 10
110.3187453564135
 20
83.13374964317461
 30
0.0
  0
VERTEX
  5
2A33
  8
0
 10
110.2590011772602
 20
83.003485283223526
 30
0.0
  0
VERTEX
  5
2A34
  8
0
 10
110.1998368119562
 20
82.880706852834749
 30
0.0
  0
VERTEX
  5
2A35
  8
0
 10
110.1454736752632
 20
82.772467842514999
 30
0.0
  0
VERTEX
  5
2A36
  8
0
 10
110.096778871051
 20
82.678716667397353
 30
0.0
  0
VERTEX
  5
2A37
  8
0
 10
110.05639549290061
 20
82.602997493680135
 30
0.0
  0
VERTEX
  5
2A38
  8
0
 10
110.0293360127438
 20
82.553198723489217
 30
0.0
  0
VERTEX
  5
2A39
  8
0
 10
110.0010701078986
 20
82.501926707675736
 30
0.0
  0
VERTEX
  5
2A3A
  8
0
 10
110.0012698182347
 20
82.502286417162097
 30
0.0
  0
SEQEND
  5
2A3B
  8
0
  0
ARC
  5
1FE5
  8
0
 10
105.2466596106332
 20
84.692967567814236
 30
0.0
 40
5.5202281144452501
 50
3.188409044644311
 51
30.536367545405788
  0
LINE
  5
1FE6
  8
0
 10
119.0
 20
97.800000000043866
 30
0.0
 11
118.9370598373246
 21
97.800000000043866
 31
0.0
  0
LINE
  5
1FE7
  8
0
 10
110.0629401626752
 20
97.800000000043866
 30
0.0
 11
110.0
 21
97.800000000043866
 31
0.0
  0
LINE
  5
1FE8
  8
0
 10
110.06294016267719
 20
99.600000000035962
 30
0.0
 11
110.0629401626752
 21
97.800000000043866
 31
0.0
  0
LINE
  5
1FE9
  8
0
 10
118.9370598373246
 20
97.800000000043866
 30
0.0
 11
118.9370598373244
 21
99.600000000034271
 31
0.0
  0
POLYLINE
  5
1FEA
  8
0
 66
     1
 10
0.0
 20
0.0
 30
0.0
 70
   128
  0
VERTEX
  5
2A3C
  8
0
 10
118.24165738677389
 20
85.000000000043869
 30
0.0
  0
VERTEX
  5
2A3D
  8
0
 10
118.2463725965741
 20
85.187903252707883
 30
0.0
  0
VERTEX
  5
2A3E
  8
0
 10
118.2841127324557
 20
85.565251423689901
 30
0.0
  0
VERTEX
  5
2A3F
  8
0
 10
118.3164017238476
 20
85.751613010699955
 30
0.0
  0
VERTEX
  5
2A40
  8
0
 10
118.3543290065417
 20
85.925122743613287
 30
0.0
  0
VERTEX
  5
2A41
  8
0
 10
118.44742201989671
 20
86.257831707055715
 30
0.0
  0
VERTEX
  5
2A42
  8
0
 10
118.5003693068543
 20
86.415257782648212
 30
0.0
  0
VERTEX
  5
2A43
  8
0
 10
118.5595003398094
 20
86.574656473346224
 30
0.0
  0
VERTEX
  5
2A44
  8
0
 10
118.6812546435865
 20
86.866250356913142
 30
0.0
  0
VERTEX
  5
2A45
  8
0
 10
118.7409988227398
 20
86.996514716864226
 30
0.0
  0
VERTEX
  5
2A46
  8
0
 10
118.8001631880437
 20
87.119293147252989
 30
0.0
  0
VERTEX
  5
2A47
  8
0
 10
118.8545263247367
 20
87.227532157572739
 30
0.0
  0
VERTEX
  5
2A48
  8
0
 10
118.9032211289489
 20
87.321283332690385
 30
0.0
  0
VERTEX
  5
2A49
  8
0
 10
118.94360450709939
 20
87.397002506407603
 30
0.0
  0
VERTEX
  5
2A4A
  8
0
 10
118.9706639872562
 20
87.446801276598535
 30
0.0
  0
VERTEX
  5
2A4B
  8
0
 10
118.9989298921013
 20
87.49807329241203
 30
0.0
  0
VERTEX
  5
2A4C
  8
0
 10
118.9987301817652
 20
87.497713582925627
 30
0.0
  0
SEQEND
  5
2A4D
  8
0
  0
ARC
  5
1FEB
  8
0
 10
123.753340389366
 20
85.307032432273274
 30
0.0
 40
5.5202281144444401
 50
183.18840904464301
 51
210.53636754540901
  0
LINE
  5
1FED
  8
0
 10
76.0
 20
87.500000000043883
 30
0.0
 11
76.0
 21
82.500000000043883
 31
0.0
  0
LINE
  5
1FEE
  8
0
 10
65.29999999999896
 20
86.500000000033197
 30
0.0
 11
65.300000000000153
 21
82.500000000020194
 31
0.0
  0
LINE
  5
1FEF
  8
0
 10
64.999999999992724
 20
82.80000000002768
 30
0.0
 11
64.999999999987352
 21
86.500000000043869
 31
0.0
  0
LINE
  5
1FF2
  8
0
 10
83.0
 20
87.500000000043883
 30
0.0
 11
83.0
 21
82.500000000043883
 31
0.0
  0
LINE
  5
1FF3
  8
0
 10
64.999999999987381
 20
86.500000000043869
 30
0.0
 11
76.0
 21
86.500000000043869
 31
0.0
  0
LINE
  5
1FF4
  8
0
 10
94.000000000045944
 20
83.100000000009217
 30
0.0
 11
94.000000000045944
 21
86.900000000078521
 31
0.0
  0
LINE
  5
1FF5
  8
0
 10
93.699999999999989
 20
82.800000000043866
 30
0.0
 11
93.699999999999989
 21
87.200000000043886
 31
0.0
  0
LINE
  5
1FF9
  8
0
 10
79.947213595499974
 20
87.500000000043883
 30
0.0
 11
79.947213595499974
 21
82.500000000043883
 31
0.0
  0
LINE
  5
1FFB
  8
0
 10
79.052786404399995
 20
87.500000000043883
 30
0.0
 11
79.052786404399995
 21
82.500000000043883
 31
0.0
  0
LINE
  5
1FFE
  8
0
 10
75.600000000013409
 20
83.200000000043872
 30
0.0
 11
75.600000000013409
 21
86.500000000043869
 31
0.0
  0
LINE
  5
1FFF
  8
0
 10
74.519615242300006
 20
86.500000000043869
 30
0.0
 11
74.519615242300006
 21
83.200000000043872
 31
0.0
  0
LINE
  5
2003
  8
0
 10
73.200000000100033
 20
86.500000000043869
 30
0.0
 11
73.200000000000045
 21
82.500000000016598
 31
0.0
  0
ARC
  5
2008
  8
0
 10
89.499999999995325
 20
91.235994408830663
 30
0.0
 40
4.8558470803769271
 50
236.21826451043609
 51
303.7817354896697
  0
LINE
  5
2050
  8
0
 10
93.699999999999989
 20
87.200000000043886
 30
0.0
 11
92.200000000041086
 21
87.200000000043886
 31
0.0
  0
ARC
  5
205D
  8
0
 10
79.947213595599976
 20
132.00000000023101
 30
0.0
 40
0.2000000001999991
 50
221.8103149055988
 51
269.99999997135239
  0
ARC
  5
205E
  8
0
 10
79.947213595599976
 20
136.59999999983111
 30
0.0
 40
0.2000000001999991
 50
90.000000028647591
 51
138.18968509440131
  0
LINE
  5
205F
  8
0
 10
76.0
 20
131.80000000003099
 30
0.0
 11
79.052786404399995
 21
131.80000000003099
 31
0.0
  0
LINE
  5
2060
  8
0
 10
79.052786404399995
 20
136.80000000003099
 30
0.0
 11
76.0
 21
136.80000000003099
 31
0.0
  0
LINE
  5
2061
  8
0
 10
79.947213595499974
 20
131.80000000003099
 30
0.0
 11
83.0
 21
131.80000000003099
 31
0.0
  0
LINE
  5
2062
  8
0
 10
83.0
 20
136.80000000003099
 30
0.0
 11
79.947213595499974
 21
136.80000000003099
 31
0.0
  0
ARC
  5
2063
  8
0
 10
79.052786404399995
 20
132.00000000023101
 30
0.0
 40
0.2000000001999922
 50
270.0
 51
318.1896850766388
  0
ARC
  5
2064
  8
0
 10
79.052786404399995
 20
136.59999999983111
 30
0.0
 40
0.200000000199978
 50
41.810314923357872
 51
90.0
  0
ARC
  5
2065
  8
0
 10
79.5
 20
131.5999999999311
 30
0.0
 40
0.4000000000999968
 50
41.810314915379109
 51
138.18968509350199
  0
ARC
  5
2066
  8
0
 10
79.5
 20
137.00000000013111
 30
0.0
 40
0.4000000000999968
 50
221.81031490650221
 51
318.18968508462092
  0
ARC
  5
2067
  8
0
 10
83.200000000099976
 20
131.899999999931
 30
0.0
 40
0.2000000001000188
 50
90.000000028647591
 51
180.0
  0
ARC
  5
2068
  8
0
 10
83.200000000099976
 20
136.70000000013101
 30
0.0
 40
0.2000000001000046
 50
180.0
 51
269.99999997135239
  0
LINE
  5
2069
  8
0
 10
83.199999999999974
 20
132.100000000031
 30
0.0
 11
93.699999999999946
 21
132.100000000031
 31
0.0
  0
LINE
  5
206C
  8
0
 10
93.700000000000017
 20
136.50000000003101
 30
0.0
 11
83.199999999999974
 21
136.50000000003101
 31
0.0
  0
LINE
  5
206D
  8
0
 10
93.699999999999989
 20
132.09999999989361
 30
0.0
 11
94.000000000045944
 21
132.3999999999964
 31
0.0
  0
LINE
  5
206E
  8
0
 10
94.000000000045944
 20
136.2000000000657
 30
0.0
 11
93.699999999999989
 21
136.50000000016851
 31
0.0
  0
ARC
  5
206F
  8
0
 10
75.600000000099982
 20
132.10000000013099
 30
0.0
 40
0.3999999999000039
 50
0.0
 51
90.000000012398985
  0
ARC
  5
2070
  8
0
 10
75.600000000099982
 20
136.49999999993099
 30
0.0
 40
0.3999999999000039
 50
269.99999998759779
 51
0.0
  0
ARC
  5
2071
  8
0
 10
74.519615242499981
 20
132.09999999943099
 30
0.0
 40
0.4000000006000306
 50
90.000000028647591
 51
119.9999999827006
  0
ARC
  5
2072
  8
0
 10
74.519615242499981
 20
136.50000000063099
 30
0.0
 40
0.4000000006000306
 50
240.0000000172993
 51
269.99999997135239
  0
LINE
  5
2073
  8
0
 10
65.299999999999983
 20
136.8000000000545
 30
0.0
 11
64.999999999992724
 21
136.50000000004721
 31
0.0
  0
LINE
  5
2074
  8
0
 10
64.999999999992724
 20
132.1000000000148
 30
0.0
 11
65.299999999999983
 21
131.80000000000749
 31
0.0
  0
LINE
  5
2075
  8
0
 10
73.200000000037534
 20
131.79999999995891
 30
0.0
 11
74.319615242304565
 21
132.44641016145681
 31
0.0
  0
LINE
  5
2076
  8
0
 10
74.319615242304565
 20
136.15358983860531
 30
0.0
 11
73.200000000037591
 21
136.80000000010321
 31
0.0
  0
LINE
  5
2077
  8
0
 10
73.200000000037562
 20
136.80000000003099
 30
0.0
 11
65.299999999999983
 21
136.80000000003099
 31
0.0
  0
LINE
  5
2078
  8
0
 10
74.519615242300006
 20
132.50000000003101
 30
0.0
 11
75.600000000013409
 21
132.50000000003101
 31
0.0
  0
LINE
  5
2079
  8
0
 10
75.600000000013409
 20
136.100000000031
 30
0.0
 11
74.519615242300006
 21
136.100000000031
 31
0.0
  0
LINE
  5
207A
  8
0
 10
65.299999999999983
 20
131.80000000003099
 30
0.0
 11
73.200000000137607
 21
131.80000000003099
 31
0.0
  0
ARC
  5
207B
  8
0
 10
44.5
 20
134.30000000003099
 30
0.0
 40
4.299999999947766
 50
10.044826276104599
 51
169.95517372392871
  0
LINE
  5
207C
  8
0
 10
48.937059837324711
 20
135.05000000003099
 30
0.0
 11
46.884848003542338
 21
135.05000000003099
 31
0.0
  0
LINE
  5
207E
  8
0
 10
40.062940162675289
 20
135.05000000003099
 30
0.0
 11
42.11515199645762
 21
135.05000000003099
 31
0.0
  0
ARC
  5
207F
  8
0
 10
114.5
 20
134.30000000003099
 30
0.0
 40
4.2999999999477589
 50
10.044826276104599
 51
169.95517372392871
  0
LINE
  5
2080
  8
0
 10
118.9370598373245
 20
135.0500000000311
 30
0.0
 11
116.8848480035424
 21
135.05000000003099
 31
0.0
  0
LINE
  5
2082
  8
0
 10
110.0629401626755
 20
135.05000000003099
 30
0.0
 11
112.1151519964576
 21
135.05000000003099
 31
0.0
  0
LINE
  5
2083
  8
0
 10
46.884848003542338
 20
133.55000000003099
 30
0.0
 11
48.937059837324711
 21
133.55000000003099
 31
0.0
  0
ARC
  5
2084
  8
0
 10
44.5
 20
134.30000000003099
 30
0.0
 40
4.2999999999513001
 50
190.0448262760639
 51
349.95517372389622
  0
LINE
  5
2085
  8
0
 10
42.11515199645762
 20
133.55000000003099
 30
0.0
 11
40.062940162675289
 21
133.55000000003099
 31
0.0
  0
LINE
  5
2087
  8
0
 10
116.8848480035424
 20
133.55000000003099
 30
0.0
 11
118.9370598373245
 21
133.55000000003099
 31
0.0
  0
ARC
  5
2088
  8
0
 10
114.5
 20
134.30000000003099
 30
0.0
 40
4.2999999999513001
 50
190.0448262760639
 51
349.95517372389622
  0
LINE
  5
2089
  8
0
 10
112.1151519964576
 20
133.55000000003099
 30
0.0
 11
110.0629401626755
 21
133.55000000003099
 31
0.0
  0
LINE
  5
20A0
  8
0
 10
46.232050807570829
 20
134.30000000005461
 30
0.0
 11
45.366025403798517
 21
135.8000000000302
 31
0.0
  0
LINE
  5
20A1
  8
0
 10
45.366025403798517
 20
135.8000000000302
 30
0.0
 11
43.633974596202897
 21
135.8000000000294
 31
0.0
  0
LINE
  5
20A2
  8
0
 10
43.633974596202897
 20
135.8000000000294
 30
0.0
 11
42.76794919243499
 21
134.30000000001081
 31
0.0
  0
LINE
  5
20A3
  8
0
 10
42.76794919243499
 20
134.30000000001081
 30
0.0
 11
43.633974596202897
 21
132.8000000000327
 31
0.0
  0
LINE
  5
20A4
  8
0
 10
43.633974596202897
 20
132.8000000000327
 30
0.0
 11
45.366025403798517
 21
132.8000000000319
 31
0.0
  0
LINE
  5
20A5
  8
0
 10
45.366025403798517
 20
132.8000000000319
 30
0.0
 11
46.232050807570829
 21
134.30000000005461
 31
0.0
  0
LINE
  5
20A7
  8
0
 10
116.2320508075708
 20
134.30000000005461
 30
0.0
 11
115.3660254037985
 21
135.8000000000302
 31
0.0
  0
LINE
  5
20A8
  8
0
 10
115.3660254037985
 20
135.8000000000302
 30
0.0
 11
113.6339745962029
 21
135.8000000000294
 31
0.0
  0
LINE
  5
20A9
  8
0
 10
113.6339745962029
 20
135.8000000000294
 30
0.0
 11
112.767949192435
 21
134.30000000001081
 31
0.0
  0
LINE
  5
20AA
  8
0
 10
112.767949192435
 20
134.30000000001081
 30
0.0
 11
113.6339745962029
 21
132.8000000000327
 31
0.0
  0
LINE
  5
20AB
  8
0
 10
113.6339745962029
 20
132.8000000000327
 30
0.0
 11
115.3660254037985
 21
132.8000000000319
 31
0.0
  0
LINE
  5
20AC
  8
0
 10
115.3660254037985
 20
132.8000000000319
 30
0.0
 11
116.2320508075708
 21
134.30000000005461
 31
0.0
  0
LINE
  5
20AD
  8
0
 10
76.0
 20
136.80000000003099
 30
0.0
 11
76.0
 21
131.80000000003099
 31
0.0
  0
LINE
  5
20AE
  8
0
 10
83.0
 20
136.80000000003099
 30
0.0
 11
83.0
 21
131.80000000003099
 31
0.0
  0
LINE
  5
20AF
  8
0
 10
93.699999999999989
 20
132.100000000031
 30
0.0
 11
93.699999999999989
 21
136.50000000003109
 31
0.0
  0
LINE
  5
20B1
  8
0
 10
94.000000000045944
 20
132.3999999999964
 30
0.0
 11
94.000000000045944
 21
136.2000000000657
 31
0.0
  0
POLYLINE
  5
20B2
  8
0
 66
     1
 10
0.0
 20
0.0
 30
0.0
 70
   128
  0
VERTEX
  5
2A4E
  8
0
 10
75.600000000013409
 20
133.30501256292439
 30
0.0
  0
VERTEX
  5
2A4F
  8
0
 10
75.678602278789867
 20
133.2909722700328
 30
0.0
  0
VERTEX
  5
2A50
  8
0
 10
75.765748808368784
 20
133.24135087440541
 30
0.0
  0
VERTEX
  5
2A51
  8
0
 10
75.870607048897256
 20
133.1249845600542
 30
0.0
  0
VERTEX
  5
2A52
  8
0
 10
75.97168816762877
 20
132.89947071818781
 30
0.0
  0
VERTEX
  5
2A53
  8
0
 10
76.0
 20
132.69065230622459
 30
0.0
  0
SEQEND
  5
2A54
  8
0
  0
POLYLINE
  5
20B3
  8
0
 66
     1
 10
0.0
 20
0.0
 30
0.0
 70
   128
  0
VERTEX
  5
2A55
  8
0
 10
76.0
 20
135.90934769384469
 30
0.0
  0
VERTEX
  5
2A56
  8
0
 10
75.954787481937615
 20
135.64584763852369
 30
0.0
  0
VERTEX
  5
2A57
  8
0
 10
75.821188361438658
 20
135.41114477728991
 30
0.0
  0
VERTEX
  5
2A58
  8
0
 10
75.742596894320599
 20
135.3417778763482
 30
0.0
  0
VERTEX
  5
2A59
  8
0
 10
75.645499889552809
 20
135.29967652364181
 30
0.0
  0
VERTEX
  5
2A5A
  8
0
 10
75.600000000013409
 20
135.29498743713771
 30
0.0
  0
SEQEND
  5
2A5B
  8
0
  0
ARC
  5
20B4
  8
0
 10
74.531897615357138
 20
133.01902165493661
 30
0.0
 40
0.2862545303390373
 50
92.459154959352077
 51
137.86670048263761
  0
ARC
  5
20B5
  8
0
 10
74.536616945342359
 20
135.59102429876049
 30
0.0
 40
0.2965246724066546
 50
222.96108978438301
 51
266.71305477314678
  0
POLYLINE
  5
20B6
  8
0
 66
     1
 10
0.0
 20
0.0
 30
0.0
 70
   128
  0
VERTEX
  5
2A5C
  8
0
 10
73.670555003172296
 20
135.9443056138588
 30
0.0
  0
VERTEX
  5
2A5D
  8
0
 10
73.774921977026906
 20
135.86541420591911
 30
0.0
  0
VERTEX
  5
2A5E
  8
0
 10
74.319615242357713
 20
135.3889422802057
 30
0.0
  0
SEQEND
  5
2A5F
  8
0
  0
LINE
  5
20B7
  8
0
 10
75.600000000013409
 20
135.29498743713771
 30
0.0
 11
74.519615242300006
 21
135.29498743713771
 31
0.0
  0
LINE
  5
20B8
  8
0
 10
74.519615242300006
 20
133.30501256292439
 30
0.0
 11
75.600000000013409
 21
133.30501256292439
 31
0.0
  0
POLYLINE
  5
20B9
  8
0
 66
     1
 10
0.0
 20
0.0
 30
0.0
 70
   128
  0
VERTEX
  5
2A60
  8
0
 10
74.319615242353223
 20
133.21105771986259
 30
0.0
  0
VERTEX
  5
2A61
  8
0
 10
73.777983168311664
 20
132.73703449849381
 30
0.0
  0
VERTEX
  5
2A62
  8
0
 10
73.683611989141113
 20
132.66567695171631
 30
0.0
  0
SEQEND
  5
2A63
  8
0
  0
LINE
  5
20BA
  8
0
 10
73.200000000127602
 20
132.299999999997
 30
0.0
 11
65.29999999999896
 21
132.30000000000959
 31
0.0
  0
LINE
  5
20BB
  8
0
 10
65.299999999997937
 20
132.3000000000043
 30
0.0
 11
64.999999999981725
 21
132.69065230608021
 31
0.0
  0
LINE
  5
20BD
  8
0
 10
64.999999999981981
 20
135.9093476939816
 30
0.0
 11
65.299999999993901
 21
136.30000000005299
 31
0.0
  0
LINE
  5
20BE
  8
0
 10
65.299999999996999
 20
136.30000000004199
 30
0.0
 11
73.200000000047595
 21
136.2999999999044
 31
0.0
  0
LINE
  5
20BF
  8
0
 10
65.29999999999896
 20
132.30000000000959
 30
0.0
 11
65.299999999999983
 21
131.80000000000749
 31
0.0
  0
LINE
  5
20C0
  8
0
 10
65.299999999999983
 20
136.8000000000545
 30
0.0
 11
65.299999999996999
 21
136.30000000004199
 31
0.0
  0
LINE
  5
20C2
  8
0
 10
64.999999999992724
 20
132.1000000000148
 30
0.0
 11
64.999999999952706
 21
136.50000000000719
 31
0.0
  0
LINE
  5
20C3
  8
0
 10
79.947213595499974
 20
136.80000000003099
 30
0.0
 11
79.947213595499974
 21
131.80000000003099
 31
0.0
  0
LINE
  5
20C7
  8
0
 10
79.052786404399995
 20
136.80000000003099
 30
0.0
 11
79.052786404399995
 21
131.80000000003099
 31
0.0
  0
LINE
  5
20CB
  8
0
 10
75.600000000013409
 20
135.29498743713771
 30
0.0
 11
75.600000000013409
 21
136.100000000031
 31
0.0
  0
LINE
  5
20CC
  8
0
 10
75.600000000013409
 20
132.50000000003101
 30
0.0
 11
75.600000000013409
 21
133.30501256292439
 31
0.0
  0
LINE
  5
20CD
  8
0
 10
74.519615242300006
 20
133.30501256292439
 30
0.0
 11
74.519615242300006
 21
132.50000000003101
 31
0.0
  0
LINE
  5
20CE
  8
0
 10
74.519615242300006
 20
136.100000000031
 30
0.0
 11
74.519615242300006
 21
135.29498743713771
 31
0.0
  0
LINE
  5
2109
  8
0
 10
149.000000000005
 20
80.732050807643859
 30
0.0
 11
152.0000000000355
 21
79.0
 31
0.0
  0
LINE
  5
210A
  8
0
 10
154.9999999999645
 20
79.0
 30
0.0
 11
157.99999999999491
 21
80.732050807643859
 31
0.0
  0
LINE
  5
210B
  8
0
 10
158.0
 20
80.732050807643859
 30
0.0
 11
158.0
 21
99.600000000043877
 31
0.0
  0
LINE
  5
210C
  8
0
 10
149.0
 20
99.600000000043877
 30
0.0
 11
149.0
 21
80.732050807643859
 31
0.0
  0
LINE
  5
210D
  8
0
 10
149.20000000005621
 20
99.800000000023616
 30
0.0
 11
149.00000000001961
 21
99.600000000043877
 31
0.0
  0
LINE
  5
210E
  8
0
 10
157.99999999998039
 20
99.600000000043877
 30
0.0
 11
157.79999999994379
 21
99.800000000023587
 31
0.0
  0
CIRCLE
  5
2112
  8
0
 10
153.5
 20
85.000000000043869
 30
0.0
 40
2.1999999999999948
  0
LINE
  5
2114
  8
0
 10
149.000000000005
 20
80.732050807643859
 30
0.0
 11
157.99999999999491
 21
80.732050807643859
 31
0.0
  0
LINE
  5
2115
  8
0
 10
152.0000000000355
 20
79.0
 30
0.0
 11
154.9999999999645
 21
79.0
 31
0.0
  0
LINE
  5
2116
  8
0
 10
154.25
 20
97.800000000043866
 30
0.0
 11
152.75
 21
97.800000000043866
 31
0.0
  0
LINE
  5
2117
  8
0
 10
154.24999999999989
 20
99.800000000033734
 30
0.0
 11
154.25
 21
97.800000000043866
 31
0.0
  0
LINE
  5
2118
  8
0
 10
158.0
 20
99.600000000043877
 30
0.0
 11
154.25
 21
99.600000000035962
 31
0.0
  0
LINE
  5
2119
  8
0
 10
152.75
 20
99.600000000034271
 30
0.0
 11
149.0
 21
99.600000000043877
 31
0.0
  0
LINE
  5
211A
  8
0
 10
152.75
 20
97.800000000043866
 30
0.0
 11
152.75
 21
99.800000000033705
 31
0.0
  0
CIRCLE
  5
211B
  8
0
 10
153.5
 20
85.000000000043343
 30
0.0
 40
2.5
  0
LINE
  5
211C
  8
0
 10
152.75
 20
99.800000000033705
 30
0.0
 11
149.20000000006641
 21
99.800000000025364
 31
0.0
  0
LINE
  5
211E
  8
0
 10
157.7999999999478
 20
99.800000000022905
 30
0.0
 11
154.25
 21
99.800000000033705
 31
0.0
  0
LINE
  5
214B
  8
0
 10
73.200000000037534
 20
41.999999999927851
 30
0.0
 11
74.319615242304565
 21
42.646410161425749
 31
0.0
  0
LINE
  5
214C
  8
0
 10
74.319615242304565
 20
46.35358983857423
 30
0.0
 11
73.200000000037534
 21
47.000000000072141
 31
0.0
  0
ARC
  5
214D
  8
0
 10
79.947213595599976
 20
42.200000000199992
 30
0.0
 40
0.2000000002000038
 50
221.8103149056021
 51
269.99999997135239
  0
ARC
  5
214E
  8
0
 10
79.947213595599976
 20
46.799999999799986
 30
0.0
 40
0.2000000002000015
 50
90.000000028647591
 51
138.1896850944012
  0
ARC
  5
214F
  8
0
 10
79.052786404399995
 20
42.200000000199978
 30
0.0
 40
0.2000000001999886
 50
270.0
 51
318.1896850766388
  0
ARC
  5
2150
  8
0
 10
79.052786404399995
 20
46.799999999800001
 30
0.0
 40
0.2000000001999886
 50
41.810314923361233
 51
90.0
  0
LINE
  5
2151
  8
0
 10
76.0
 20
41.999999999999993
 30
0.0
 11
79.052786404399995
 21
41.999999999999993
 31
0.0
  0
LINE
  5
2152
  8
0
 10
79.052786404399995
 20
46.999999999999993
 30
0.0
 11
76.0
 21
46.999999999999993
 31
0.0
  0
LINE
  5
2153
  8
0
 10
79.947213595499974
 20
41.999999999999993
 30
0.0
 11
83.0
 21
41.999999999999993
 31
0.0
  0
LINE
  5
2154
  8
0
 10
83.0
 20
46.999999999999993
 30
0.0
 11
79.947213595499974
 21
46.999999999999993
 31
0.0
  0
LINE
  5
2155
  8
0
 10
65.299999999999983
 20
47.000000000023448
 30
0.0
 11
64.999999999992724
 21
46.700000000016182
 31
0.0
  0
LINE
  5
2156
  8
0
 10
64.999999999992724
 20
42.299999999983797
 30
0.0
 11
65.299999999999983
 21
41.999999999976531
 31
0.0
  0
ARC
  5
2157
  8
0
 10
79.5
 20
41.799999999899981
 30
0.0
 40
0.4000000000999945
 50
41.810314915379109
 51
138.18968509350199
  0
ARC
  5
2158
  8
0
 10
79.5
 20
47.20000000009999
 30
0.0
 40
0.4000000000999968
 50
221.81031490650221
 51
318.18968508462092
  0
ARC
  5
2159
  8
0
 10
83.200000000099976
 20
42.099999999899993
 30
0.0
 40
0.2000000001000046
 50
90.000000028647591
 51
180.0
  0
ARC
  5
215A
  8
0
 10
83.200000000099976
 20
46.900000000099979
 30
0.0
 40
0.2000000001000046
 50
180.0
 51
269.99999997135239
  0
ARC
  5
215B
  8
0
 10
75.600000000099982
 20
42.300000000099992
 30
0.0
 40
0.3999999999000039
 50
0.0
 51
90.000000012398985
  0
ARC
  5
215C
  8
0
 10
75.600000000099982
 20
46.699999999899987
 30
0.0
 40
0.3999999999000039
 50
269.99999998759779
 51
0.0
  0
LINE
  5
215D
  8
0
 10
93.699999999999989
 20
42.299999999862571
 30
0.0
 11
94.000000000045944
 21
42.599999999965341
 31
0.0
  0
LINE
  5
215E
  8
0
 10
94.000000000045944
 20
46.400000000034638
 30
0.0
 11
93.699999999999989
 21
46.700000000137408
 31
0.0
  0
LINE
  5
215F
  8
0
 10
83.199999999999974
 20
42.29999999999999
 30
0.0
 11
93.700000000137351
 21
42.29999999999999
 31
0.0
  0
LINE
  5
2162
  8
0
 10
93.700000000137365
 20
46.699999999999989
 30
0.0
 11
83.199999999999974
 21
46.699999999999989
 31
0.0
  0
LINE
  5
2163
  8
0
 10
65.299999999999983
 20
41.999999999999993
 30
0.0
 11
73.200000000037505
 21
41.999999999999993
 31
0.0
  0
LINE
  5
2164
  8
0
 10
73.200000000037534
 20
46.999999999999993
 30
0.0
 11
65.299999999999983
 21
46.999999999999993
 31
0.0
  0
ARC
  5
2165
  8
0
 10
74.519615242499981
 20
42.299999999399958
 30
0.0
 40
0.4000000006000306
 50
90.000000028647591
 51
119.9999999827006
  0
ARC
  5
2166
  8
0
 10
74.519615242499981
 20
46.700000000600021
 30
0.0
 40
0.4000000006000342
 50
240.00000001730311
 51
269.99999997135239
  0
LINE
  5
2167
  8
0
 10
74.519615242300006
 20
42.699999999999989
 30
0.0
 11
75.600000000013409
 21
42.699999999999989
 31
0.0
  0
LINE
  5
2168
  8
0
 10
75.600000000013409
 20
46.29999999999999
 30
0.0
 11
74.519615242300006
 21
46.29999999999999
 31
0.0
  0
CIRCLE
  5
2169
  8
0
 10
114.5
 20
44.499999999999993
 30
0.0
 40
1.499999999964529
  0
CIRCLE
  5
216A
  8
0
 10
44.5
 20
44.499999999999993
 30
0.0
 40
1.499999999964529
  0
CIRCLE
  5
216B
  8
0
 10
114.5
 20
44.499999999999993
 30
0.0
 40
4.5
  0
CIRCLE
  5
216C
  8
0
 10
44.5
 20
44.499999999999993
 30
0.0
 40
4.5
  0
LINE
  5
216D
  8
0
 10
76.0
 20
46.999999999999993
 30
0.0
 11
76.0
 21
41.999999999999993
 31
0.0
  0
LINE
  5
216F
  8
0
 10
83.0
 20
46.999999999999993
 30
0.0
 11
83.0
 21
41.999999999999993
 31
0.0
  0
LINE
  5
2172
  8
0
 10
65.299999999999983
 20
46.999999999999993
 30
0.0
 11
65.299999999999983
 21
41.999999999976531
 31
0.0
  0
LINE
  5
2173
  8
0
 10
64.999999999992724
 20
42.299999999983797
 30
0.0
 11
64.999999999992724
 21
46.700000000016182
 31
0.0
  0
LINE
  5
2174
  8
0
 10
94.000000000045944
 20
42.599999999965341
 30
0.0
 11
94.000000000045944
 21
46.400000000034638
 31
0.0
  0
LINE
  5
2175
  8
0
 10
93.700000000000017
 20
42.299999999862628
 30
0.0
 11
93.699999999999989
 21
46.699999999999989
 31
0.0
  0
LINE
  5
2179
  8
0
 10
79.947213595499974
 20
46.999999999999993
 30
0.0
 11
79.947213595500017
 21
41.999999999999979
 31
0.0
  0
LINE
  5
217C
  8
0
 10
79.052786404399995
 20
46.999999999999993
 30
0.0
 11
79.052786404399995
 21
41.999999999999993
 31
0.0
  0
LINE
  5
217F
  8
0
 10
75.600000000013409
 20
42.699999999999982
 30
0.0
 11
75.600000000013409
 21
46.29999999999999
 31
0.0
  0
LINE
  5
2180
  8
0
 10
74.519615242300006
 20
46.29999999999999
 30
0.0
 11
74.519615242300006
 21
42.699999999999989
 31
0.0
  0
LINE
  5
257E
  8
0
 10
73.200000000037562
 20
136.8000000000311
 30
0.0
 11
73.200000000047567
 21
136.30000000006891
 31
0.0
  0
POLYLINE
  5
2583
  8
0
 66
     1
 10
0.0
 20
0.0
 30
0.0
 70
   128
  0
VERTEX
  5
2A64
  8
0
 10
86.799999999956924
 20
134.3000000000311
 30
0.0
  0
VERTEX
  5
2A65
  8
0
 10
86.817474621125015
 20
134.09452371765019
 30
0.0
  0
VERTEX
  5
2A66
  8
0
 10
86.870644011511175
 20
133.88904743526919
 30
0.0
  0
VERTEX
  5
2A67
  8
0
 10
86.950907709488703
 20
133.7042148800403
 30
0.0
  0
VERTEX
  5
2A68
  8
0
 10
87.057023725923116
 20
133.53089342258829
 30
0.0
  0
VERTEX
  5
2A69
  8
0
 10
87.152398797261824
 20
133.408375484819
 30
0.0
  0
VERTEX
  5
2A6A
  8
0
 10
87.258125386505057
 20
133.29478376669891
 30
0.0
  0
VERTEX
  5
2A6B
  8
0
 10
87.374278438541623
 20
133.18869613168621
 30
0.0
  0
VERTEX
  5
2A6C
  8
0
 10
87.49815351682048
 20
133.0914972048221
 30
0.0
  0
VERTEX
  5
2A6D
  8
0
 10
87.694037614058175
 20
132.96292105362181
 30
0.0
  0
VERTEX
  5
2A6E
  8
0
 10
87.902751915632621
 20
132.8517479501059
 30
0.0
  0
VERTEX
  5
2A6F
  8
0
 10
88.125795592895543
 20
132.75587799971331
 30
0.0
  0
VERTEX
  5
2A70
  8
0
 10
88.359275484433269
 20
132.6762477658807
 30
0.0
  0
VERTEX
  5
2A71
  8
0
 10
88.600354846787226
 20
132.61289900196101
 30
0.0
  0
VERTEX
  5
2A72
  8
0
 10
88.850374924542621
 20
132.56497214759401
 30
0.0
  0
VERTEX
  5
2A73
  8
0
 10
89.11284786038425
 20
132.5322694678905
 30
0.0
  0
VERTEX
  5
2A74
  8
0
 10
89.382221057193703
 20
132.5162118444419
 30
0.0
  0
VERTEX
  5
2A75
  8
0
 10
89.618079410179462
 20
132.51622016185371
 30
0.0
  0
VERTEX
  5
2A76
  8
0
 10
89.854996307847784
 20
132.52943838940291
 30
0.0
  0
VERTEX
  5
2A77
  8
0
 10
90.095011205480318
 20
132.55673022860589
 30
0.0
  0
VERTEX
  5
2A78
  8
0
 10
90.332001623820915
 20
132.59823031661119
 30
0.0
  0
VERTEX
  5
2A79
  8
0
 10
90.584910903735704
 20
132.6599749228364
 30
0.0
  0
VERTEX
  5
2A7A
  8
0
 10
90.830973325482205
 20
132.7396456861874
 30
0.0
  0
VERTEX
  5
2A7B
  8
0
 10
91.072214650095816
 20
132.83990147451581
 30
0.0
  0
VERTEX
  5
2A7C
  8
0
 10
91.303548232465573
 20
132.96149654654951
 30
0.0
  0
VERTEX
  5
2A7D
  8
0
 10
91.572076414672551
 20
133.14483307433019
 30
0.0
  0
VERTEX
  5
2A7E
  8
0
 10
91.698139786292813
 20
133.25286228129741
 30
0.0
  0
VERTEX
  5
2A7F
  8
0
 10
91.816147682659107
 20
133.3725294806795
 30
0.0
  0
VERTEX
  5
2A80
  8
0
 10
91.960396091122846
 20
133.55607291393761
 30
0.0
  0
VERTEX
  5
2A81
  8
0
 10
92.080022205789419
 20
133.76709849771299
 30
0.0
  0
VERTEX
  5
2A82
  8
0
 10
92.146757994286887
 20
133.9426138863144
 30
0.0
  0
VERTEX
  5
2A83
  8
0
 10
92.188474164034346
 20
134.1330253963992
 30
0.0
  0
VERTEX
  5
2A84
  8
0
 10
92.200000000041086
 20
134.30000000003091
 30
0.0
  0
SEQEND
  5
2A85
  8
0
  0
POLYLINE
  5
2584
  8
0
 66
     1
 10
0.0
 20
0.0
 30
0.0
 70
   128
  0
VERTEX
  5
2A86
  8
0
 10
92.200000000067803
 20
134.3000000000311
 30
0.0
  0
VERTEX
  5
2A87
  8
0
 10
92.182525378903392
 20
134.50547628240699
 30
0.0
  0
VERTEX
  5
2A88
  8
0
 10
92.129355988517432
 20
134.71095256478301
 30
0.0
  0
VERTEX
  5
2A89
  8
0
 10
92.049092290540329
 20
134.8957851200071
 30
0.0
  0
VERTEX
  5
2A8A
  8
0
 10
91.942976274106854
 20
135.06910657745451
 30
0.0
  0
VERTEX
  5
2A8B
  8
0
 10
91.847601202767905
 20
135.191624515222
 30
0.0
  0
VERTEX
  5
2A8C
  8
0
 10
91.741874613524601
 20
135.3052162333403
 30
0.0
  0
VERTEX
  5
2A8D
  8
0
 10
91.625721561488035
 20
135.4113038683513
 30
0.0
  0
VERTEX
  5
2A8E
  8
0
 10
91.501846483209434
 20
135.5085027952139
 30
0.0
  0
VERTEX
  5
2A8F
  8
0
 10
91.30596238596803
 20
135.6370789464149
 30
0.0
  0
VERTEX
  5
2A90
  8
0
 10
91.097248084389832
 20
135.7482520499313
 30
0.0
  0
VERTEX
  5
2A91
  8
0
 10
90.874204407123216
 20
135.84412200032421
 30
0.0
  0
VERTEX
  5
2A92
  8
0
 10
90.640724515581937
 20
135.92375223415709
 30
0.0
  0
VERTEX
  5
2A93
  8
0
 10
90.424878070862064
 20
135.9812930023148
 30
0.0
  0
VERTEX
  5
2A94
  8
0
 10
90.201922548519065
 20
136.026405071938
 30
0.0
  0
VERTEX
  5
2A95
  8
0
 10
89.969460683009899
 20
136.05933184377301
 30
0.0
  0
VERTEX
  5
2A96
  8
0
 10
89.731271661920346
 20
136.07913081682611
 30
0.0
  0
VERTEX
  5
2A97
  8
0
 10
89.500000000000014
 20
136.0854152533208
 30
0.0
  0
VERTEX
  5
2A98
  8
0
 10
89.287298242945823
 20
136.08010140817879
 30
0.0
  0
VERTEX
  5
2A99
  8
0
 10
89.074596485891675
 20
136.06403448642149
 30
0.0
  0
VERTEX
  5
2A9A
  8
0
 10
88.860474355162296
 20
136.03661031069601
 30
0.0
  0
VERTEX
  5
2A9B
  8
0
 10
88.64919297178335
 20
135.9978219496856
 30
0.0
  0
VERTEX
  5
2A9C
  8
0
 10
88.396606694119782
 20
135.9347477341131
 30
0.0
  0
VERTEX
  5
2A9D
  8
0
 10
88.150975855076425
 20
135.85366310571749
 30
0.0
  0
VERTEX
  5
2A9E
  8
0
 10
87.910282145860663
 20
135.75184646750759
 30
0.0
  0
VERTEX
  5
2A9F
  8
0
 10
87.679637186687145
 20
135.62850782992609
 30
0.0
  0
VERTEX
  5
2AA0
  8
0
 10
87.416244166962315
 20
135.44586067914261
 30
0.0
  0
VERTEX
  5
2AA1
  8
0
 10
87.292664760310117
 20
135.3385362302827
 30
0.0
  0
VERTEX
  5
2AA2
  8
0
 10
87.177028083073367
 20
135.21985527491989
 30
0.0
  0
VERTEX
  5
2AA3
  8
0
 10
87.034320391445249
 20
135.03608099621499
 30
0.0
  0
VERTEX
  5
2AA4
  8
0
 10
86.916348725639807
 20
134.82497266818891
 30
0.0
  0
VERTEX
  5
2AA5
  8
0
 10
86.850849313657136
 20
134.64934685712649
 30
0.0
  0
VERTEX
  5
2AA6
  8
0
 10
86.810450892907625
 20
134.4590146741113
 30
0.0
  0
VERTEX
  5
2AA7
  8
0
 10
86.799999999930478
 20
134.30000000003099
 30
0.0
  0
SEQEND
  5
2AA8
  8
0
  0
LINE
  5
2585
  8
0
 10
73.200000000053365
 20
136.30000000010079
 30
0.0
 11
73.670555003172296
 21
135.94430561385889
 31
0.0
  0
LINE
  5
2586
  8
0
 10
73.683611989141113
 20
132.66567695171631
 30
0.0
 11
73.200000000058537
 21
132.29999999995599
 31
0.0
  0
LINE
  5
25A6
  8
0
 10
75.600000000013438
 20
136.10000000003109
 30
0.0
 11
75.600000000013438
 21
135.29498743713771
 31
0.0
  0
LINE
  5
25A7
  8
0
 10
74.519615242300006
 20
132.50000000003109
 30
0.0
 11
74.519615242300006
 21
133.30501256292439
 31
0.0
  0
LINE
  5
2628
  8
0
 10
73.200000000037562
 20
46.999999999999993
 30
0.0
 11
73.200000000037562
 21
41.999999999999993
 31
0.0
  0
LINE
  5
2694
  8
0
 10
65.300000000000153
 20
82.500000000020208
 30
0.0
 11
73.200000000000045
 21
82.499999999822734
 31
0.0
  0
CIRCLE
  5
26DA
  8
0
 10
114.5
 20
134.30000000003099
 30
0.0
 40
4.4999999999997859
  0
CIRCLE
  5
26DB
  8
0
 10
114.5
 20
134.30000000003099
 30
0.0
 40
2.500000000000028
  0
CIRCLE
  5
2770
  8
0
 10
44.5
 20
134.30000000003099
 30
0.0
 40
4.5
  0
CIRCLE
  5
2771
  8
0
 10
44.5
 20
134.30000000003099
 30
0.0
 40
2.5
  0
LINE
  5
2774
  8
0
 10
75.600000000013438
 20
133.30501256292439
 30
0.0
 11
75.600000000013438
 21
132.50000000003109
 31
0.0
  0
LINE
  5
2775
  8
0
 10
74.519615242300006
 20
135.29498743713771
 30
0.0
 11
74.519615242300006
 21
136.100000000031
 31
0.0
  0
LINE
  5
2776
  8
0
 10
73.200000000127602
 20
132.299999999997
 30
0.0
 11
73.200000000137607
 21
131.80000000001661
 31
0.0
  0
LINE
  5
2840
  8
1
 10
44.5
 20
36.999999999999993
 30
0.0
 11
44.5
 21
51.999999999999993
 31
0.0
  0
LINE
  5
2841
  8
1
 10
114.5
 20
36.999999999999993
 30
0.0
 11
114.5
 21
51.999999999999993
 31
0.0
  0
LINE
  5
2842
  8
1
 10
153.5
 20
104.8000000003002
 30
0.0
 11
153.5
 21
74.0
 31
0.0
  0
LINE
  5
2843
  8
1
 10
37.0
 20
134.30000000003099
 30
0.0
 11
52.0
 21
134.30000000003099
 31
0.0
  0
LINE
  5
2844
  8
1
 10
122.0
 20
44.499999999999993
 30
0.0
 11
107.0
 21
44.499999999999993
 31
0.0
  0
LINE
  5
2845
  8
1
 10
37.0
 20
85.000000000043869
 30
0.0
 11
52.0
 21
85.000000000043869
 31
0.0
  0
LINE
  5
289B
  8
1
 10
114.5
 20
74.0
 30
0.0
 11
114.5
 21
104.8000000001707
 31
0.0
  0
LINE
  5
289C
  8
1
 10
44.5
 20
73.999999999999986
 30
0.0
 11
44.5
 21
104.80000000002489
 31
0.0
  0
LINE
  5
289D
  8
1
 10
114.5
 20
126.8000000000313
 30
0.0
 11
114.5
 21
141.80000000003079
 31
0.0
  0
LINE
  5
289E
  8
1
 10
44.5
 20
126.80000000003101
 30
0.0
 11
44.5
 21
141.80000000003099
 31
0.0
  0
LINE
  5
28A7
  8
1
 10
52.0
 20
44.499999999999993
 30
0.0
 11
37.0
 21
44.499999999999993
 31
0.0
  0
LINE
  5
28A8
  8
1
 10
97.000000000045915
 20
44.499999999999993
 30
0.0
 11
62.000000000804867
 21
44.499999999999993
 31
0.0
  0
LINE
  5
28A9
  8
1
 10
107.0000000000002
 20
134.30000000003099
 30
0.0
 11
121.9999999999997
 21
134.30000000003099
 31
0.0
  0
LINE
  5
28AA
  8
1
 10
61.999999999972708
 20
134.30000000003099
 30
0.0
 11
97.000000000045915
 21
134.30000000003099
 31
0.0
  0
LINE
  5
28AB
  8
1
 10
62.000000000439847
 20
85.000000000043869
 30
0.0
 11
97.000000000045915
 21
85.000000000043869
 31
0.0
  0
LINE
  5
28AC
  8
1
 10
107.0
 20
85.000000000043869
 30
0.0
 11
122.0
 21
85.000000000043869
 31
0.0
  0
LINE
  5
28AD
  8
1
 10
148.0
 20
85.000000000043869
 30
0.0
 11
159.0
 21
85.000000000043869
 31
0.0
  0
ENDSEC
  0
EOF
