  0
SECTION
  2
HEADER
  9
$ACADVER
  1
AC1009
  9
$INSBASE
 10
0.0
 20
0.0
 30
0.0
  9
$EXTMIN
 10
0.0
 20
-2.960436562073669
 30
0.0
  9
$EXTMAX
 10
234.894845544969
 20
185.73897733537601
 30
0.0
  9
$LIMMIN
 10
0.0
 20
0.0
  9
$LIMMAX
 10
375.0
 20
270.0
  9
$ORTHOMODE
 70
     1
  9
$REGENMODE
 70
     1
  9
$FILLMODE
 70
     1
  9
$QTEXTMODE
 70
     0
  9
$MIRRTEXT
 70
     0
  9
$DRAGMODE
 70
     2
  9
$LTSCALE
 40
10.0
  9
$OSMODE
 70
  3071
  9
$ATTMODE
 70
     1
  9
$TEXTSIZE
 40
0.2
  9
$TRACEWID
 40
0.05
  9
$TEXTSTYLE
  7
STANDARD
  9
$CLAYER
  8
0
  9
$CELTYPE
  6
BYLAYER
  9
$CECOLOR
 62
   256
  9
$DIMSCALE
 40
1.0
  9
$DIMASZ
 40
3.0
  9
$DIMEXO
 40
0.0625
  9
$DIMDLI
 40
0.38
  9
$DIMRND
 40
0.0
  9
$DIMDLE
 40
0.0
  9
$DIMEXE
 40
0.18
  9
$DIMTP
 40
0.0
  9
$DIMTM
 40
0.0
  9
$DIMTXT
 40
3.0
  9
$DIMCEN
 40
0.09
  9
$DIMTSZ
 40
0.0
  9
$DIMTOL
 70
     0
  9
$DIMLIM
 70
     0
  9
$DIMTIH
 70
     1
  9
$DIMTOH
 70
     1
  9
$DIMSE1
 70
     0
  9
$DIMSE2
 70
     0
  9
$DIMTAD
 70
     0
  9
$DIMZIN
 70
     0
  9
$DIMBLK
  1

  9
$DIMASO
 70
     1
  9
$DIMSHO
 70
     1
  9
$DIMPOST
  1

  9
$DIMAPOST
  1

  9
$DIMALT
 70
     0
  9
$DIMALTD
 70
     2
  9
$DIMALTF
 40
25.399999999999999
  9
$DIMLFAC
 40
1.0
  9
$DIMTOFL
 70
     0
  9
$DIMTVP
 40
0.0
  9
$DIMTIX
 70
     0
  9
$DIMSOXD
 70
     0
  9
$DIMSAH
 70
     0
  9
$DIMBLK1
  1

  9
$DIMBLK2
  1

  9
$DIMSTYLE
  2
STANDARD
  9
$DIMCLRD
 70
     0
  9
$DIMCLRE
 70
     0
  9
$DIMCLRT
 70
     0
  9
$DIMTFAC
 40
1.0
  9
$DIMGAP
 40
0.09
  9
$LUNITS
 70
     2
  9
$LUPREC
 70
     4
  9
$SKETCHINC
 40
0.1
  9
$FILLETRAD
 40
0.0
  9
$AUNITS
 70
     0
  9
$AUPREC
 70
     0
  9
$MENU
  1
E:\r13\win\SUPPORT\ACAD
  9
$ELEVATION
 40
0.0
  9
$PELEVATION
 40
0.0
  9
$THICKNESS
 40
0.0
  9
$LIMCHECK
 70
     0
  9
$BLIPMODE
 70
     0
  9
$CHAMFERA
 40
0.0
  9
$CHAMFERB
 40
0.0
  9
$SKPOLY
 70
     0
  9
$TDCREATE
 40
2450359.4744608798
  9
$TDUPDATE
 40
2456597.5617195838
  9
$TDINDWG
 40
0.0068015046
  9
$TDUSRTIMER
 40
0.0068015046
  9
$USRTIMER
 70
     1
  9
$ANGBASE
 50
0.0
  9
$ANGDIR
 70
     0
  9
$PDMODE
 70
     0
  9
$PDSIZE
 40
0.0
  9
$PLINEWID
 40
0.0
  9
$COORDS
 70
     1
  9
$SPLFRAME
 70
     0
  9
$SPLINETYPE
 70
     6
  9
$SPLINESEGS
 70
     8
  9
$ATTDIA
 70
     0
  9
$ATTREQ
 70
     1
  9
$HANDLING
 70
     1
  9
$HANDSEED
  5
6A3
  9
$SURFTAB1
 70
     6
  9
$SURFTAB2
 70
     6
  9
$SURFTYPE
 70
     6
  9
$SURFU
 70
     6
  9
$SURFV
 70
     6
  9
$UCSNAME
  2

  9
$UCSORG
 10
0.0
 20
0.0
 30
0.0
  9
$UCSXDIR
 10
1.0
 20
0.0
 30
0.0
  9
$UCSYDIR
 10
0.0
 20
1.0
 30
0.0
  9
$PUCSNAME
  2

  9
$PUCSORG
 10
0.0
 20
0.0
 30
0.0
  9
$PUCSXDIR
 10
1.0
 20
0.0
 30
0.0
  9
$PUCSYDIR
 10
0.0
 20
1.0
 30
0.0
  9
$USERI1
 70
     4
  9
$USERI2
 70
     1
  9
$USERI3
 70
     0
  9
$USERI4
 70
     0
  9
$USERI5
 70
     0
  9
$USERR1
 40
1.0
  9
$USERR2
 40
3.0
  9
$USERR3
 40
3.0
  9
$USERR4
 40
3.0
  9
$USERR5
 40
10.0
  9
$WORLDVIEW
 70
     1
  9
$SHADEDGE
 70
     3
  9
$SHADEDIF
 70
    70
  9
$TILEMODE
 70
     1
  9
$MAXACTVP
 70
    16
  9
$PLIMCHECK
 70
     0
  9
$PEXTMIN
 10
1.0000000000000000E+020
 20
1.0000000000000000E+020
 30
1.0000000000000000E+020
  9
$PEXTMAX
 10
-1.0000000000000000E+020
 20
-1.0000000000000000E+020
 30
-1.0000000000000000E+020
  9
$PLIMMIN
 10
0.0
 20
0.0
  9
$PLIMMAX
 10
12.0
 20
9.0
  9
$UNITMODE
 70
     0
  9
$VISRETAIN
 70
     0
  9
$PLINEGEN
 70
     0
  9
$PSLTSCALE
 70
     1
  0
ENDSEC
  0
SECTION
  2
TABLES
  0
TABLE
  2
VPORT
 70
     1
  0
VPORT
  2
*ACTIVE
 70
     0
 10
0.0
 20
0.0
 11
1.0
 21
1.0
 12
187.49427839065231
 22
162.8616388594717
 13
0.0
 23
0.0
 14
5.0
 24
5.0
 15
0.0
 25
0.0
 16
0.0
 26
0.0
 36
1.0
 17
0.0
 27
0.0
 37
0.0
 40
334.81001162774987
 41
1.9089595375722539
 42
50.0
 43
0.0
 44
0.0
 50
0.0
 51
0.0
 71
     0
 72
   100
 73
     1
 74
     0
 75
     0
 76
     0
 77
     0
 78
     0
  0
ENDTAB
  0
TABLE
  2
LTYPE
 70
     4
  0
LTYPE
  2
CONTINUOUS
 70
     0
  3
Solid Line
 72
    65
 73
     0
 40
0.0
  0
LTYPE
  2
CENTER
 70
     0
  3
____ _ ____ _ ____ _ ____ _ ____ _ ____ _ ____
 72
    65
 73
     4
 40
2.0
 49
1.25
 49
-0.25
 49
0.25
 49
-0.25
  0
LTYPE
  2
HIDDEN
 70
     0
  3
_ _ _ _ _ _ _ _ _ _ _ _ _ _ _ _ _ _ _ _ _ _ _
 72
    65
 73
     2
 40
0.375
 49
0.25
 49
-0.125
  0
LTYPE
  2
PHANTOM2
 70
     0
  3
___ _ _ ___ _ _ ___ _ _ ___ _ _
 72
    65
 73
     6
 40
1.25
 49
0.625
 49
-0.125
 49
0.125
 49
-0.125
 49
0.125
 49
-0.125
  0
ENDTAB
  0
TABLE
  2
LAYER
 70
     3
  0
LAYER
  2
0
 70
     0
 62
     7
  6
CONTINUOUS
  0
LAYER
  2
1
 70
     0
 62
     1
  6
CENTER
  0
LAYER
  2
2
 70
     0
 62
     2
  6
HIDDEN
  0
ENDTAB
  0
TABLE
  2
STYLE
 70
     2
  0
STYLE
  2
STANDARD
 70
     0
 40
0.0
 41
1.0
 50
0.0
 71
     0
 42
0.2
  3
simplex
  4
bigfont
  0
STYLE
  2
STANDARD1
 70
     0
 40
0.0
 41
1.0
 50
0.0
 71
     0
 42
3.0
  3
txt
  4

  0
ENDTAB
  0
TABLE
  2
VIEW
 70
     0
  0
ENDTAB
  0
TABLE
  2
UCS
 70
     0
  0
ENDTAB
  0
TABLE
  2
APPID
 70
     3
  0
APPID
  2
ACAD
 70
     0
  0
APPID
  2
ACAD_MLEADERVER
 70
     0
  0
APPID
  2
ACAD_NAV_VCDISPLAY
 70
     0
  0
ENDTAB
  0
TABLE
  2
DIMSTYLE
 70
     1
  0
DIMSTYLE
  2
STANDARD
 70
     0
  3

  4

  5

  6

  7

 40
1.0
 41
0.18
 42
0.0625
 43
0.38
 44
0.18
 45
0.0
 46
0.0
 47
0.0
 48
0.0
140
0.18
141
0.09
142
0.0
143
25.399999999999999
144
1.0
145
0.0
146
1.0
147
0.09
 71
     0
 72
     0
 73
     1
 74
     1
 75
     0
 76
     0
 77
     0
 78
     0
170
     0
171
     2
172
     0
173
     0
174
     0
175
     0
176
     0
177
     0
178
     0
  0
ENDTAB
  0
ENDSEC
  0
SECTION
  2
BLOCKS
  0
BLOCK
  8
0
  2
$MODEL_SPACE
 70
     0
 10
0.0
 20
0.0
 30
0.0
  3
$MODEL_SPACE
  1

  0
ENDBLK
  5
562
  8
0
  0
BLOCK
 67
     1
  8
0
  2
$PAPER_SPACE
 70
     0
 10
0.0
 20
0.0
 30
0.0
  3
$PAPER_SPACE
  1

  0
ENDBLK
  5
560
 67
     1
  8
0
  0
ENDSEC
  0
SECTION
  2
ENTITIES
  0
LINE
  5
3D0
  8
0
  6
CONTINUOUS
 62
     7
 10
188.24484554496911
 20
150.73897733537589
 30
0.0
 11
230.24484554496911
 21
150.73897733537589
 31
0.0
  0
CIRCLE
  5
3D1
  8
0
  6
CONTINUOUS
 62
     7
 10
194.09484554496899
 20
165.73897733537589
 30
0.0
 40
5.5
  0
LINE
  5
3D2
  8
0
  6
CONTINUOUS
 62
     7
 10
230.24484554496911
 20
180.73897733537601
 30
0.0
 11
188.244845544969
 21
180.73897733537601
 31
0.0
  0
LINE
  5
3D3
  8
0
  6
CONTINUOUS
 62
     7
 10
157.9448455449691
 20
180.73897733537601
 30
0.0
 11
199.94484554496921
 21
180.73897733537601
 31
0.0
  0
CIRCLE
  5
3D4
  8
0
  6
CONTINUOUS
 62
     7
 10
194.09484554496919
 20
165.73897733537589
 30
0.0
 40
5.5
  0
LINE
  5
3D5
  8
0
  6
CONTINUOUS
 62
     7
 10
199.9448455449691
 20
150.73897733537589
 30
0.0
 11
157.9448455449691
 21
150.73897733537589
 31
0.0
  0
LINE
  5
3D6
  8
0
  6
CONTINUOUS
 62
     7
 10
202.94484554496921
 20
92.607755640643646
 30
0.0
 11
178.9448455449691
 21
92.607755640643646
 31
0.0
  0
LINE
  5
3D7
  8
0
  6
CONTINUOUS
 62
     7
 10
200.94484554496921
 20
97.607755640643674
 30
0.0
 11
185.36746183430171
 21
97.607755640643674
 31
0.0
  0
LINE
  5
3D8
  8
0
  6
CONTINUOUS
 62
     7
 10
187.244845544969
 20
97.607755640643674
 30
0.0
 11
202.8222292556365
 21
97.607755640643674
 31
0.0
  0
LINE
  5
3D9
  8
0
  6
CONTINUOUS
 62
     7
 10
185.244845544969
 20
92.607755640643646
 30
0.0
 11
209.24484554496911
 21
92.607755640643646
 31
0.0
  0
LINE
  5
3DA
  8
0
  6
CONTINUOUS
 62
     7
 10
178.9448455449691
 20
92.607755640643646
 30
0.0
 11
154.9448455449691
 21
92.607755640643646
 31
0.0
  0
LINE
  5
3DB
  8
0
  6
CONTINUOUS
 62
     7
 10
171.9448455449693
 20
97.607755640643674
 30
0.0
 11
156.9448455449691
 21
97.607755640643674
 31
0.0
  0
ARC
  5
3DC
  8
0
  6
CONTINUOUS
 62
     7
 10
156.9448455449691
 20
95.60775564064366
 30
0.0
 40
2.0
 50
90.0
 51
180.00000000000011
  0
LINE
  5
3DD
  8
0
  6
CONTINUOUS
 62
     7
 10
154.9448455449691
 20
92.607755640643646
 30
0.0
 11
154.9448455449691
 21
95.60775564064366
 31
0.0
  0
ARC
  5
3E1
  8
0
  6
CONTINUOUS
 62
     7
 10
178.9448455449691
 20
98.607755640643674
 30
0.0
 40
6.0
 50
270.0
 51
180.0
  0
ARC
  5
3E3
  8
0
  6
CONTINUOUS
 62
     7
 10
171.9448455449693
 20
98.607755640643674
 30
0.0
 40
1.0
 50
270.0
 51
0.0
  0
ARC
  5
3E4
  8
0
  6
CONTINUOUS
 62
     7
 10
178.9448455449691
 20
98.607755640643674
 30
0.0
 40
6.5
 50
309.71513723182608
 51
351.15011690157098
  0
ARC
  5
3E5
  8
0
  6
CONTINUOUS
 62
     7
 10
185.9448455449689
 20
98.607755640643674
 30
0.0
 40
1.0
 50
180.0
 51
270.0
  0
LINE
  5
3E6
  8
0
  6
CONTINUOUS
 62
     7
 10
183.0981574764281
 20
93.607755640643674
 30
0.0
 11
183.09815747642821
 21
92.607755640643646
 31
0.0
  0
CIRCLE
  5
3EB
  8
0
  6
CONTINUOUS
 62
     7
 10
163.79484554496921
 20
165.73897733537589
 30
0.0
 40
5.5
  0
LINE
  5
3EC
  8
0
  6
CONTINUOUS
 62
     7
 10
154.9448455449691
 20
153.73897733537589
 30
0.0
 11
154.9448455449691
 21
177.73897733537601
 31
0.0
  0
ARC
  5
3ED
  8
0
  6
CONTINUOUS
 62
     7
 10
157.9448455449691
 20
177.73897733537601
 30
0.0
 40
3.0
 50
90.0
 51
180.0
  0
ARC
  5
3EF
  8
0
  6
CONTINUOUS
 62
     7
 10
157.9448455449691
 20
153.73897733537589
 30
0.0
 40
3.0
 50
180.0
 51
270.00000000000011
  0
LINE
  5
3F0
  8
0
  6
CONTINUOUS
 62
     7
 10
185.36746183430171
 20
166.48897733537589
 30
0.0
 11
185.36746183430171
 21
150.73897733537589
 31
0.0
  0
LINE
  5
3F1
  8
0
  6
CONTINUOUS
 62
     7
 10
172.94484554496921
 20
150.73897733537589
 30
0.0
 11
172.94484554496921
 21
180.73897733537601
 31
0.0
  0
LINE
  5
3F2
  8
0
  6
CONTINUOUS
 62
     7
 10
184.94484554496921
 20
150.73897733537589
 30
0.0
 11
184.94484554496921
 21
180.73897733537601
 31
0.0
  0
LINE
  5
3F4
  8
0
  6
CONTINUOUS
 62
     7
 10
172.5222292556366
 20
164.98897733537589
 30
0.0
 11
172.5222292556366
 21
180.73897733537601
 31
0.0
  0
LINE
  5
3F5
  8
0
  6
CONTINUOUS
 62
     7
 10
185.36746183430171
 20
166.48897733537589
 30
0.0
 11
172.94484554496921
 21
166.48897733537589
 31
0.0
  0
LINE
  5
3F6
  8
0
  6
CONTINUOUS
 62
     7
 10
184.94484554496921
 20
164.98897733537601
 30
0.0
 11
181.4448455449691
 21
164.98897733537601
 31
0.0
  0
LINE
  5
3F7
  8
0
  6
CONTINUOUS
 62
     7
 10
184.94484554496921
 20
164.98897733537589
 30
0.0
 11
172.5222292556366
 21
164.98897733537589
 31
0.0
  0
LINE
  5
3FA
  8
0
  6
CONTINUOUS
 62
     7
 10
216.24484554496891
 20
97.607755640643674
 30
0.0
 11
231.24484554496911
 21
97.607755640643674
 31
0.0
  0
LINE
  5
3FB
  8
0
  6
CONTINUOUS
 62
     7
 10
209.24484554496911
 20
92.607755640643646
 30
0.0
 11
233.24484554496911
 21
92.607755640643646
 31
0.0
  0
ARC
  5
3FD
  8
0
  6
CONTINUOUS
 62
     7
 10
209.24484554496911
 20
98.607755640643674
 30
0.0
 40
6.0
 50
0.0
 51
270.0
  0
ARC
  5
3FF
  8
0
  6
CONTINUOUS
 62
     7
 10
209.24484554496911
 20
98.607755640643674
 30
0.0
 40
6.5
 50
188.8498830984291
 51
230.28486276817389
  0
ARC
  5
400
  8
0
  6
CONTINUOUS
 62
     7
 10
202.24484554496931
 20
98.607755640643674
 30
0.0
 40
1.0
 50
270.0
 51
0.0
  0
LINE
  5
401
  8
0
  6
CONTINUOUS
 62
     7
 10
205.09153361351011
 20
93.607755640643674
 30
0.0
 11
205.09153361350999
 21
92.607755640643646
 31
0.0
  0
ARC
  5
402
  8
0
  6
CONTINUOUS
 62
     7
 10
216.24484554496891
 20
98.607755640643674
 30
0.0
 40
1.0
 50
180.0
 51
270.0
  0
ARC
  5
405
  8
0
  6
CONTINUOUS
 62
     7
 10
231.24484554496911
 20
95.60775564064366
 30
0.0
 40
2.0
 50
359.99999999999989
 51
90.0
  0
LINE
  5
406
  8
0
  6
CONTINUOUS
 62
     7
 10
233.24484554496911
 20
92.607755640643646
 30
0.0
 11
233.24484554496911
 21
95.60775564064366
 31
0.0
  0
CIRCLE
  5
407
  8
0
  6
CONTINUOUS
 62
     7
 10
224.394845544969
 20
165.73897733537589
 30
0.0
 40
5.5
  0
LINE
  5
409
  8
0
  6
CONTINUOUS
 62
     7
 10
215.6674618343016
 20
164.98897733537589
 30
0.0
 11
215.6674618343016
 21
180.73897733537601
 31
0.0
  0
LINE
  5
40A
  8
0
  6
CONTINUOUS
 62
     7
 10
202.82222925563661
 20
166.48897733537589
 30
0.0
 11
202.82222925563661
 21
150.73897733537589
 31
0.0
  0
LINE
  5
40B
  8
0
  6
CONTINUOUS
 62
     7
 10
215.244845544969
 20
150.73897733537589
 30
0.0
 11
215.244845544969
 21
180.73897733537601
 31
0.0
  0
LINE
  5
40C
  8
0
  6
CONTINUOUS
 62
     7
 10
203.244845544969
 20
150.73897733537589
 30
0.0
 11
203.244845544969
 21
180.73897733537601
 31
0.0
  0
LINE
  5
40D
  8
0
  6
CONTINUOUS
 62
     7
 10
202.82222925563661
 20
166.48897733537589
 30
0.0
 11
215.244845544969
 21
166.48897733537589
 31
0.0
  0
LINE
  5
40E
  8
0
  6
CONTINUOUS
 62
     7
 10
203.244845544969
 20
164.98897733537589
 30
0.0
 11
215.6674618343016
 21
164.98897733537589
 31
0.0
  0
LINE
  5
40F
  8
0
  6
CONTINUOUS
 62
     7
 10
203.244845544969
 20
164.98897733537601
 30
0.0
 11
206.74484554496911
 21
164.98897733537601
 31
0.0
  0
LINE
  5
411
  8
0
  6
CONTINUOUS
 62
     7
 10
233.24484554496911
 20
153.73897733537589
 30
0.0
 11
233.24484554496911
 21
177.73897733537601
 31
0.0
  0
ARC
  5
417
  8
0
  6
CONTINUOUS
 62
     7
 10
230.24484554496911
 20
177.73897733537601
 30
0.0
 40
3.0
 50
360.0
 51
90.0
  0
ARC
  5
41C
  8
0
  6
CONTINUOUS
 62
     7
 10
230.24484554496911
 20
153.73897733537589
 30
0.0
 40
3.0
 50
269.99999999999989
 51
360.0
  0
LINE
  5
428
  8
0
  6
CENTER
 62
     1
 10
234.894845544969
 20
165.73897733537589
 30
0.0
 11
213.894845544969
 21
165.73897733537589
 31
0.0
  0
LINE
  5
42A
  8
0
  6
CENTER
 62
     1
 10
204.5948455449691
 20
165.73897733537589
 30
0.0
 11
183.59484554496899
 21
165.73897733537589
 31
0.0
  0
LINE
  5
42C
  8
0
  6
CENTER
 62
     1
 10
174.29484554496921
 20
165.73897733537589
 30
0.0
 11
153.29484554496921
 21
165.73897733537589
 31
0.0
  0
LINE
  5
42E
  8
0
  6
CENTER
 62
     1
 10
178.9448455449691
 20
145.73897733537589
 30
0.0
 11
178.9448455449691
 21
185.73897733537601
 31
0.0
  0
LINE
  5
42F
  8
0
  6
CENTER
 62
     1
 10
209.24484554496911
 20
145.73897733537589
 30
0.0
 11
209.24484554496911
 21
185.73897733537601
 31
0.0
  0
LINE
  5
430
  8
0
  6
CENTER
 62
     1
 10
220.24484554496911
 20
98.607755640643674
 30
0.0
 11
198.24484554496911
 21
98.607755640643674
 31
0.0
  0
LINE
  5
431
  8
0
  6
CENTER
 62
     1
 10
209.24484554496911
 20
87.607755640643646
 30
0.0
 11
209.24484554496911
 21
109.6077556406436
 31
0.0
  0
LINE
  5
432
  8
0
  6
CENTER
 62
     1
 10
189.9448455449691
 20
98.607755640643674
 30
0.0
 11
167.9448455449691
 21
98.607755640643674
 31
0.0
  0
LINE
  5
433
  8
0
  6
CENTER
 62
     1
 10
178.9448455449691
 20
87.607755640643646
 30
0.0
 11
178.9448455449691
 21
109.6077556406436
 31
0.0
  0
ARC
  5
483
  8
0
  6
CONTINUOUS
 62
     7
 10
106.9226970334182
 20
178.73897733537589
 30
0.0
 40
2.0
 50
0.0000000000060049
 51
90.0
  0
LINE
  5
484
  8
0
  6
CONTINUOUS
 62
     7
 10
103.9226970334205
 20
180.73897733537589
 30
0.0
 11
103.9226970334206
 21
150.73897733537589
 31
0.0
  0
LINE
  5
485
  8
0
  6
CONTINUOUS
 62
     7
 10
115.9226970334206
 20
150.73897733537589
 30
0.0
 11
115.9226970334206
 21
180.73897733537589
 31
0.0
  0
LINE
  5
486
  8
0
  6
CONTINUOUS
 62
     7
 10
108.9226970334182
 20
178.73897733537609
 30
0.0
 11
108.92269703342031
 21
152.73897733537601
 31
0.0
  0
ARC
  5
487
  8
0
  6
CONTINUOUS
 62
     7
 10
106.92269703342031
 20
152.73897733537589
 30
0.0
 40
2.0
 50
269.9999999999992
 51
0.0000000000060049
  0
LINE
  5
488
  8
0
  6
CONTINUOUS
 62
     7
 10
106.92269703342031
 20
150.73897733537589
 30
0.0
 11
115.9226970334206
 21
150.73897733537589
 31
0.0
  0
LINE
  5
489
  8
1
 10
98.422697033420576
 20
154.73897733537601
 30
0.0
 11
106.4226970334205
 21
154.73897733537601
 31
0.0
  0
LINE
  5
48A
  8
0
 10
100.9226970334206
 20
157.73897733537601
 30
0.0
 11
103.9226970334206
 21
157.73897733537601
 31
0.0
  0
LINE
  5
48B
  8
0
 10
100.9226970334206
 20
151.73897733537601
 30
0.0
 11
103.9226970334206
 21
151.73897733537601
 31
0.0
  0
LINE
  5
48C
  8
0
  6
CONTINUOUS
 62
     7
 10
100.9226970334205
 20
157.73897733537601
 30
0.0
 11
100.9226970334206
 21
151.73897733537601
 31
0.0
  0
LINE
  5
48D
  8
0
  6
CONTINUOUS
 62
     7
 10
106.92269703342031
 20
150.73897733537589
 30
0.0
 11
103.9226970334205
 21
150.73897733537589
 31
0.0
  0
LINE
  5
48E
  8
1
 10
120.9226970334206
 20
165.73897733537589
 30
0.0
 11
98.92269703342059
 21
165.73897733537581
 31
0.0
  0
LINE
  5
48F
  8
0
 10
100.9226970334206
 20
179.73897733537601
 30
0.0
 11
103.9226970334206
 21
179.73897733537601
 31
0.0
  0
LINE
  5
490
  8
0
 10
100.9226970334206
 20
173.73897733537589
 30
0.0
 11
103.9226970334206
 21
173.73897733537589
 31
0.0
  0
LINE
  5
491
  8
1
 10
98.422697033420576
 20
176.73897733537601
 30
0.0
 11
106.4226970334205
 21
176.73897733537601
 31
0.0
  0
LINE
  5
492
  8
0
  6
CONTINUOUS
 62
     7
 10
100.9226970334205
 20
173.73897733537589
 30
0.0
 11
100.9226970334206
 21
179.73897733537601
 31
0.0
  0
LINE
  5
493
  8
0
  6
CONTINUOUS
 62
     7
 10
108.9226970334194
 20
165.02343623267021
 30
0.0
 11
115.9226970334206
 21
165.02343623267029
 31
0.0
  0
LINE
  5
494
  8
0
  6
CONTINUOUS
 62
     7
 10
108.9226970334191
 20
166.52343623267021
 30
0.0
 11
115.9226970334206
 21
166.52343623267029
 31
0.0
  0
LINE
  5
495
  8
0
  6
CONTINUOUS
 62
     7
 10
106.9226970334182
 20
180.73897733537589
 30
0.0
 11
115.9226970334206
 21
180.73897733537589
 31
0.0
  0
LINE
  5
496
  8
0
  6
CONTINUOUS
 62
     7
 10
106.9226970334182
 20
180.73897733537589
 30
0.0
 11
103.9226970334205
 21
180.73897733537589
 31
0.0
  0
LINE
  5
4BD
  8
1
 10
158.29484554496909
 20
154.73897733537589
 30
0.0
 11
169.29484554496909
 21
154.73897733537589
 31
0.0
  0
CIRCLE
  5
4BE
  8
2
 10
163.79484554496909
 20
154.73897733537589
 30
0.0
 40
3.0
  0
LINE
  5
4BF
  8
1
 10
163.79484554496909
 20
184.73897733537589
 30
0.0
 11
163.79484554496909
 21
146.73897733537589
 31
0.0
  0
CIRCLE
  5
4C0
  8
2
 10
163.79484554496909
 20
176.73897733537589
 30
0.0
 40
3.0
  0
LINE
  5
4C1
  8
1
 10
158.29484554496909
 20
176.73897733537589
 30
0.0
 11
169.29484554496909
 21
176.73897733537589
 31
0.0
  0
CIRCLE
  5
4C2
  8
0
 10
163.79484554496921
 20
165.73897733537589
 30
0.0
 40
3.0
  0
CIRCLE
  5
4C3
  8
2
 10
194.09484554496919
 20
154.73897733537589
 30
0.0
 40
3.0
  0
LINE
  5
4C4
  8
1
 10
199.59484554496919
 20
154.73897733537589
 30
0.0
 11
188.59484554496919
 21
154.73897733537589
 31
0.0
  0
LINE
  5
4C5
  8
1
 10
194.09484554496919
 20
184.73897733537589
 30
0.0
 11
194.09484554496919
 21
146.73897733537589
 31
0.0
  0
CIRCLE
  5
4C6
  8
0
 10
194.09484554496919
 20
165.73897733537589
 30
0.0
 40
3.0
  0
LINE
  5
4C7
  8
1
 10
199.59484554496919
 20
176.73897733537589
 30
0.0
 11
188.59484554496919
 21
176.73897733537589
 31
0.0
  0
CIRCLE
  5
4C8
  8
2
 10
194.09484554496919
 20
176.73897733537589
 30
0.0
 40
3.0
  0
CIRCLE
  5
4C9
  8
2
 10
224.394845544969
 20
154.73897733537589
 30
0.0
 40
3.0
  0
LINE
  5
4CA
  8
1
 10
229.894845544969
 20
154.73897733537589
 30
0.0
 11
218.894845544969
 21
154.73897733537589
 31
0.0
  0
LINE
  5
4CB
  8
1
 10
224.394845544969
 20
184.73897733537589
 30
0.0
 11
224.394845544969
 21
146.73897733537589
 31
0.0
  0
CIRCLE
  5
4CC
  8
0
 10
224.394845544969
 20
165.73897733537589
 30
0.0
 40
3.0
  0
CIRCLE
  5
4CD
  8
2
 10
224.394845544969
 20
176.73897733537589
 30
0.0
 40
3.0
  0
LINE
  5
4CE
  8
1
 10
229.894845544969
 20
176.73897733537589
 30
0.0
 11
218.894845544969
 21
176.73897733537589
 31
0.0
  0
LINE
  5
4CF
  8
1
 10
163.79484554496921
 20
87.10775564064366
 30
0.0
 11
163.79484554496921
 21
95.107755640643646
 31
0.0
  0
LINE
  5
4D0
  8
0
 10
166.79484554496921
 20
89.60775564064366
 30
0.0
 11
166.79484554496921
 21
92.607755640643674
 31
0.0
  0
LINE
  5
4D1
  8
0
 10
160.79484554496909
 20
89.60775564064366
 30
0.0
 11
160.79484554496921
 21
92.607755640643674
 31
0.0
  0
LINE
  5
4D2
  8
0
  6
CONTINUOUS
 62
     7
 10
166.79484554496921
 20
89.607755640643646
 30
0.0
 11
160.79484554496909
 21
89.607755640643674
 31
0.0
  0
LINE
  5
4D3
  8
0
 10
221.394845544969
 20
89.60775564064366
 30
0.0
 11
221.394845544969
 21
92.607755640643674
 31
0.0
  0
LINE
  5
4D4
  8
1
 10
224.394845544969
 20
87.10775564064366
 30
0.0
 11
224.394845544969
 21
95.107755640643646
 31
0.0
  0
LINE
  5
4D5
  8
0
 10
227.39484554496909
 20
89.60775564064366
 30
0.0
 11
227.394845544969
 21
92.607755640643674
 31
0.0
  0
LINE
  5
4D6
  8
0
  6
CONTINUOUS
 62
     7
 10
221.394845544969
 20
89.607755640643646
 30
0.0
 11
227.39484554496909
 21
89.607755640643674
 31
0.0
  0
LINE
  5
4D7
  8
1
 10
194.09484554496919
 20
87.10775564064366
 30
0.0
 11
194.09484554496919
 21
95.107755640643646
 31
0.0
  0
LINE
  5
4D8
  8
0
  6
CONTINUOUS
 62
     7
 10
197.0948455449693
 20
89.607755640643646
 30
0.0
 11
191.0948455449691
 21
89.607755640643674
 31
0.0
  0
LINE
  5
4D9
  8
0
 10
191.0948455449691
 20
89.60775564064366
 30
0.0
 11
191.09484554496919
 21
92.607755640643674
 31
0.0
  0
LINE
  5
4DA
  8
0
 10
197.0948455449693
 20
89.60775564064366
 30
0.0
 11
197.0948455449693
 21
92.607755640643674
 31
0.0
  0
TEXT
  5
615
  8
0
 62
     3
 10
0.0
 20
0.0
 30
0.0
 40
10.0
  1
L6-DHL7830
  7
STANDARD1
  0
ENDSEC
  0
EOF
