  0
SECTION
  2
HEADER
  9
$ACADVER
  1
AC1009
  9
$INSBASE
 10
0.0
 20
0.0
 30
0.0
  9
$EXTMIN
 10
0.0
 20
-2.960436562073669
 30
0.0
  9
$EXTMAX
 10
347.59756076968279
 20
313.46818751529031
 30
0.0
  9
$LIMMIN
 10
0.0
 20
0.0
  9
$LIMMAX
 10
375.0
 20
278.0
  9
$ORTHOMODE
 70
     0
  9
$REGENMODE
 70
     1
  9
$FILLMODE
 70
     1
  9
$QTEXTMODE
 70
     0
  9
$MIRRTEXT
 70
     0
  9
$DRAGMODE
 70
     2
  9
$LTSCALE
 40
10.0
  9
$OSMODE
 70
  3071
  9
$ATTMODE
 70
     1
  9
$TEXTSIZE
 40
0.2
  9
$TRACEWID
 40
0.05
  9
$TEXTSTYLE
  7
STANDARD
  9
$CLAYER
  8
0
  9
$CELTYPE
  6
BYLAYER
  9
$CECOLOR
 62
   256
  9
$DIMSCALE
 40
1.0
  9
$DIMASZ
 40
3.0
  9
$DIMEXO
 40
1.0
  9
$DIMDLI
 40
6.0
  9
$DIMRND
 40
0.0
  9
$DIMDLE
 40
0.0
  9
$DIMEXE
 40
1.0
  9
$DIMTP
 40
495.0
  9
$DIMTM
 40
0.0
  9
$DIMTXT
 40
3.0
  9
$DIMCEN
 40
0.0
  9
$DIMTSZ
 40
0.0
  9
$DIMTOL
 70
     0
  9
$DIMLIM
 70
     0
  9
$DIMTIH
 70
     0
  9
$DIMTOH
 70
     0
  9
$DIMSE1
 70
     0
  9
$DIMSE2
 70
     0
  9
$DIMTAD
 70
     1
  9
$DIMZIN
 70
     0
  9
$DIMBLK
  1

  9
$DIMASO
 70
     0
  9
$DIMSHO
 70
     0
  9
$DIMPOST
  1

  9
$DIMAPOST
  1

  9
$DIMALT
 70
     0
  9
$DIMALTD
 70
     2
  9
$DIMALTF
 40
25.399999999999999
  9
$DIMLFAC
 40
1.0
  9
$DIMTOFL
 70
     1
  9
$DIMTVP
 40
0.0
  9
$DIMTIX
 70
     1
  9
$DIMSOXD
 70
     0
  9
$DIMSAH
 70
     0
  9
$DIMBLK1
  1

  9
$DIMBLK2
  1

  9
$DIMSTYLE
  2
STANDARD
  9
$DIMCLRD
 70
     0
  9
$DIMCLRE
 70
     0
  9
$DIMCLRT
 70
     4
  9
$DIMTFAC
 40
1.0
  9
$DIMGAP
 40
1.0
  9
$LUNITS
 70
     2
  9
$LUPREC
 70
     4
  9
$SKETCHINC
 40
0.1
  9
$FILLETRAD
 40
0.0
  9
$AUNITS
 70
     0
  9
$AUPREC
 70
     0
  9
$MENU
  1
C:\R13\WIN\SUPPORT\ACAD-I
  9
$ELEVATION
 40
0.0
  9
$PELEVATION
 40
0.0
  9
$THICKNESS
 40
0.0
  9
$LIMCHECK
 70
     0
  9
$BLIPMODE
 70
     0
  9
$CHAMFERA
 40
0.0
  9
$CHAMFERB
 40
0.0
  9
$SKPOLY
 70
     0
  9
$TDCREATE
 40
2450834.4199027782
  9
$TDUPDATE
 40
2456597.5616884148
  9
$TDINDWG
 40
0.0907989931
  9
$TDUSRTIMER
 40
0.0907989931
  9
$USRTIMER
 70
     1
  9
$ANGBASE
 50
0.0
  9
$ANGDIR
 70
     0
  9
$PDMODE
 70
     0
  9
$PDSIZE
 40
0.0
  9
$PLINEWID
 40
0.0
  9
$COORDS
 70
     1
  9
$SPLFRAME
 70
     0
  9
$SPLINETYPE
 70
     6
  9
$SPLINESEGS
 70
     8
  9
$ATTDIA
 70
     0
  9
$ATTREQ
 70
     1
  9
$HANDLING
 70
     1
  9
$HANDSEED
  5
D67
  9
$SURFTAB1
 70
     6
  9
$SURFTAB2
 70
     6
  9
$SURFTYPE
 70
     6
  9
$SURFU
 70
     6
  9
$SURFV
 70
     6
  9
$UCSNAME
  2

  9
$UCSORG
 10
0.0
 20
0.0
 30
0.0
  9
$UCSXDIR
 10
1.0
 20
0.0
 30
0.0
  9
$UCSYDIR
 10
0.0
 20
1.0
 30
0.0
  9
$PUCSNAME
  2

  9
$PUCSORG
 10
0.0
 20
0.0
 30
0.0
  9
$PUCSXDIR
 10
1.0
 20
0.0
 30
0.0
  9
$PUCSYDIR
 10
0.0
 20
1.0
 30
0.0
  9
$USERI1
 70
     4
  9
$USERI2
 70
     1
  9
$USERI3
 70
     0
  9
$USERI4
 70
     0
  9
$USERI5
 70
     0
  9
$USERR1
 40
1.0
  9
$USERR2
 40
3.0
  9
$USERR3
 40
3.0
  9
$USERR4
 40
3.0
  9
$USERR5
 40
10.0
  9
$WORLDVIEW
 70
     1
  9
$SHADEDGE
 70
     3
  9
$SHADEDIF
 70
    70
  9
$TILEMODE
 70
     1
  9
$MAXACTVP
 70
    16
  9
$PLIMCHECK
 70
     0
  9
$PEXTMIN
 10
1.0000000000000000E+020
 20
1.0000000000000000E+020
 30
1.0000000000000000E+020
  9
$PEXTMAX
 10
-1.0000000000000000E+020
 20
-1.0000000000000000E+020
 30
-1.0000000000000000E+020
  9
$PLIMMIN
 10
0.0
 20
0.0
  9
$PLIMMAX
 10
12.0
 20
9.0
  9
$UNITMODE
 70
     0
  9
$VISRETAIN
 70
     0
  9
$PLINEGEN
 70
     0
  9
$PSLTSCALE
 70
     0
  0
ENDSEC
  0
SECTION
  2
TABLES
  0
TABLE
  2
VPORT
 70
     1
  0
VPORT
  2
*ACTIVE
 70
     0
 10
0.0
 20
0.0
 11
1.0
 21
1.0
 12
187.49427839065231
 22
189.27481272065859
 13
0.0
 23
0.0
 14
10.0
 24
10.0
 15
10.0
 25
10.0
 16
0.0
 26
0.0
 36
1.0
 17
0.0
 27
0.0
 37
0.0
 40
388.13724561769271
 41
1.9089595375722539
 42
50.0
 43
0.0
 44
0.0
 50
0.0
 51
0.0
 71
     0
 72
   100
 73
     1
 74
     0
 75
     0
 76
     0
 77
     0
 78
     0
  0
ENDTAB
  0
TABLE
  2
LTYPE
 70
     3
  0
LTYPE
  2
CONTINUOUS
 70
     0
  3
Solid Line
 72
    65
 73
     0
 40
0.0
  0
LTYPE
  2
CENTER
 70
     0
  3
____ _ ____ _ ____ _ ____ _ ____ _ ____ _ ____
 72
    65
 73
     4
 40
2.0
 49
1.25
 49
-0.25
 49
0.25
 49
-0.25
  0
LTYPE
  2
PHANTOM2
 70
     0
  3
___ _ _ ___ _ _ ___ _ _ ___ _ _
 72
    65
 73
     6
 40
1.25
 49
0.625
 49
-0.125
 49
0.125
 49
-0.125
 49
0.125
 49
-0.125
  0
ENDTAB
  0
TABLE
  2
LAYER
 70
     3
  0
LAYER
  2
0
 70
     0
 62
     7
  6
CONTINUOUS
  0
LAYER
  2
1
 70
     0
 62
     1
  6
CENTER
  0
LAYER
  2
3
 70
     0
 62
     3
  6
CONTINUOUS
  0
ENDTAB
  0
TABLE
  2
STYLE
 70
     2
  0
STYLE
  2
STANDARD
 70
     0
 40
0.0
 41
1.0
 50
0.0
 71
     0
 42
0.2
  3
SIMPLEX
  4
BIGFONT
  0
STYLE
  2
STANDARD1
 70
     0
 40
0.0
 41
1.0
 50
0.0
 71
     0
 42
3.0
  3
txt
  4

  0
ENDTAB
  0
TABLE
  2
VIEW
 70
     0
  0
ENDTAB
  0
TABLE
  2
UCS
 70
     0
  0
ENDTAB
  0
TABLE
  2
APPID
 70
    43
  0
APPID
  2
ACAD
 70
     0
  0
APPID
  2
GENIUS_GENOBJ_13
 70
     0
  0
APPID
  2
GENIUS_GENODEF_13
 70
     0
  0
APPID
  2
GENIUS_GENOENT_13
 70
     0
  0
APPID
  2
GENIUS_GENOLIS_13
 70
     0
  0
APPID
  2
GENIUS_GENOREF_13
 70
     0
  0
APPID
  2
GENIUS_GENOBJ-N-TIT_13
 70
     0
  0
APPID
  2
GENIUS_GENTITLE_13
 70
     0
  0
APPID
  2
GENIUS_GENZVEED_13
 70
     0
  0
APPID
  2
GENIUS_GENOBJ-N-FIL_13
 70
     0
  0
APPID
  2
GENIUS_GENOBJ-N-CRS_13
 70
     0
  0
APPID
  2
GENIUS_GEFINERT_13
 70
     0
  0
APPID
  2
GENIUS_GENOBJ-F-INER_13
 70
     0
  0
APPID
  2
GENIUS_GENOBJ-N-ZOO_13
 70
     0
  0
APPID
  2
GENIUS_GENZOO_13
 70
     0
  0
APPID
  2
GENIUS_GENOBJ-F-TOL_13
 70
     0
  0
APPID
  2
GENIUS_GENOBJ-N-RSSYM_13
 70
     0
  0
APPID
  2
GENIUS_GENSYMENT_13
 70
     0
  0
APPID
  2
GENIUS_GENBH_13
 70
     0
  0
APPID
  2
GENIUS_GENOBJ-NBEHI-BHF_13
 70
     0
  0
APPID
  2
GENIUS_GENOBJ-NBEHI-BHB_13
 70
     0
  0
APPID
  2
GENIUS_GENOBJ-F-PART_13
 70
     0
  0
APPID
  2
GENIUS_GEFSTDP_13
 70
     0
  0
APPID
  2
GENIUS_GENOBJ-N-LEADER_13
 70
     0
  0
APPID
  2
GENIUS_GENOBJ-N-REV_13
 70
     0
  0
APPID
  2
GENIUS_GENCFG_13
 70
     0
  0
APPID
  2
GENIUS_GENCFG0_13
 70
     0
  0
APPID
  2
GENIUS_GENCFG1_13
 70
     0
  0
APPID
  2
GENIUS_GENCFG2_13
 70
     0
  0
APPID
  2
GENIUS_GENCFG3_13
 70
     0
  0
APPID
  2
GENIUS_GEVCFG0_13
 70
     0
  0
APPID
  2
GENIUS_GENOBJ-N-SEC_13
 70
     0
  0
APPID
  2
GENIUS_GENOBJ-F-ROD_13
 70
     0
  0
APPID
  2
GENIUS_GENOBJ-F-SPR_13
 70
     0
  0
APPID
  2
GENIUS_GEFSPRING_13
 70
     0
  0
APPID
  2
GENIUS_GENCFG4_13
 70
     0
  0
APPID
  2
GENIUS_GENREC_13
 70
     0
  0
APPID
  2
GENIUS_GENOBJ-N-REC_13
 70
     0
  0
APPID
  2
GENIUS_GENFIL_13
 70
     0
  0
APPID
  2
GENIUS_GENOBJ-N-CHA_13
 70
     0
  0
APPID
  2
GENIUS_GEFCFG0_13
 70
     0
  0
APPID
  2
ACAD_MLEADERVER
 70
     0
  0
APPID
  2
ACAD_NAV_VCDISPLAY
 70
     0
  0
ENDTAB
  0
TABLE
  2
DIMSTYLE
 70
     1
  0
DIMSTYLE
  2
STANDARD
 70
     0
  3

  4

  5

  6

  7

 40
1.0
 41
0.18
 42
0.0625
 43
0.38
 44
0.18
 45
0.0
 46
0.0
 47
0.0
 48
0.0
140
0.18
141
0.09
142
0.0
143
25.399999999999999
144
1.0
145
0.0
146
1.0
147
0.09
 71
     0
 72
     0
 73
     1
 74
     1
 75
     0
 76
     0
 77
     0
 78
     0
170
     0
171
     2
172
     0
173
     0
174
     0
175
     0
176
     0
177
     0
178
     0
  0
ENDTAB
  0
ENDSEC
  0
SECTION
  2
BLOCKS
  0
BLOCK
  8
0
  2
$MODEL_SPACE
 70
     0
 10
0.0
 20
0.0
 30
0.0
  3
$MODEL_SPACE
  1

  0
ENDBLK
  5
C26
  8
0
  0
BLOCK
 67
     1
  8
0
  2
$PAPER_SPACE
 70
     0
 10
0.0
 20
0.0
 30
0.0
  3
$PAPER_SPACE
  1

  0
ENDBLK
  5
C24
 67
     1
  8
0
  0
BLOCK
  8
0
  2
STDGX5
 70
     0
 10
0.0
 20
0.0
 30
0.0
  3
STDGX5
  1

  0
ENDBLK
  5
4F
  8
0
  0
ENDSEC
  0
SECTION
  2
ENTITIES
  0
INSERT
  5
DE
  8
0
  2
STDGX5
 10
0.0
 20
0.0
 30
0.0
  0
INSERT
  5
DF
  8
0
  2
STDGX5
 10
0.0
 20
0.0
 30
0.0
  0
INSERT
  5
15C
  8
0
  2
STDGX5
 10
275.0
 20
0.0
 30
0.0
  0
INSERT
  5
15D
  8
0
  2
STDGX5
 10
275.0
 20
0.0
 30
0.0
  0
INSERT
  5
314
  8
0
  2
STDGX5
 10
0.0
 20
0.0
 30
0.0
  0
INSERT
  5
315
  8
0
  2
STDGX5
 10
0.0
 20
0.0
 30
0.0
  0
INSERT
  5
316
  8
0
  2
STDGX5
 10
275.0
 20
0.0
 30
0.0
  0
INSERT
  5
317
  8
0
  2
STDGX5
 10
275.0
 20
0.0
 30
0.0
  0
INSERT
  5
4EF
  8
0
  2
STDGX5
 10
0.0
 20
0.0
 30
0.0
  0
INSERT
  5
4F0
  8
0
  2
STDGX5
 10
0.0
 20
0.0
 30
0.0
  0
INSERT
  5
4F1
  8
0
  2
STDGX5
 10
275.0
 20
0.0
 30
0.0
  0
INSERT
  5
4F2
  8
0
  2
STDGX5
 10
275.0
 20
0.0
 30
0.0
  0
INSERT
  5
80D
  8
0
  2
STDGX5
 10
0.0
 20
0.0
 30
0.0
 41
2.0
 42
2.0
 43
2.0
  0
INSERT
  5
80E
  8
0
  2
STDGX5
 10
0.0
 20
0.0
 30
0.0
 41
2.0
 42
2.0
 43
2.0
  0
INSERT
  5
80F
  8
0
  2
STDGX5
 10
550.0
 20
0.0
 30
0.0
 41
2.0
 42
2.0
 43
2.0
  0
INSERT
  5
810
  8
0
  2
STDGX5
 10
550.0
 20
0.0
 30
0.0
 41
2.0
 42
2.0
 43
2.0
  0
CIRCLE
  5
B0D
  8
0
 10
216.0970642643058
 20
155.05353271663279
 30
0.0
 40
2.5
  0
ARC
  5
B18
  8
0
 10
226.89706426416461
 20
194.3535327167447
 30
0.0
 40
0.2999999999999545
 50
69.999999999997854
 51
180.00000002135559
  0
LINE
  5
B19
  8
0
 10
226.99967030716229
 20
194.63544050298049
 30
0.0
 11
227.3918521782941
 21
194.4926979754743
 31
0.0
  0
ARC
  5
B1A
  8
0
 10
227.59706426428181
 20
195.05651354795529
 30
0.0
 40
0.6000000000062692
 50
250.00000000100229
 51
359.99999999870738
  0
LINE
  5
B1B
  8
0
 10
228.19706426428809
 20
195.05651354794179
 30
0.0
 11
228.19706426427561
 21
197.05651354796009
 31
0.0
  0
ARC
  5
B1C
  8
0
 10
227.59706426427331
 20
197.05651354795239
 30
0.0
 40
0.6000000000022397
 50
0.0000000007311035
 51
109.99999999842861
  0
LINE
  5
B1D
  8
0
 10
227.39185217829271
 20
197.62032912043171
 30
0.0
 11
227.03299872277989
 21
197.4897171441614
 31
0.0
  0
ARC
  5
B1E
  8
0
 10
226.8277866367844
 20
198.0535327166329
 30
0.0
 40
0.5999999999999718
 50
270.0000000000108
 51
290.0000000000137
  0
LINE
  5
B1F
  8
0
 10
226.82778663678459
 20
197.45353271663291
 30
0.0
 11
225.59706426428809
 21
197.45353271656211
 31
0.0
  0
ARC
  5
B20
  8
0
 10
225.59706426428619
 20
197.75353271656019
 30
0.0
 40
0.2999999999980645
 50
179.99999998610119
 51
270.00000000036908
  0
LINE
  5
B21
  8
0
 10
225.29706426428811
 20
197.75353271663289
 30
0.0
 11
225.29706426429581
 21
200.5535327166329
 31
0.0
  0
ARC
  5
B22
  8
0
 10
225.8970642642974
 20
200.55353271663139
 30
0.0
 40
0.6000000000015575
 50
90.000000000890225
 51
179.9999999998534
  0
LINE
  5
B23
  8
0
 10
225.8970642642881
 20
201.1535327166329
 30
0.0
 11
227.1971915787629
 21
201.1535327166346
 31
0.0
  0
ARC
  5
B24
  8
0
 10
227.19706426430079
 20
143.0535327166329
 30
0.0
 40
3.0000000000000502
 50
269.22436104354472
 51
0.7172822947184253
  0
LINE
  5
B25
  8
0
 10
219.19706426430091
 20
141.05379557290169
 30
0.0
 11
219.19706426429889
 21
142.25353271663289
 31
0.0
  0
ARC
  5
B26
  8
0
 10
219.99706426429771
 20
142.25353271663411
 30
0.0
 40
0.7999999999987609
 50
89.999999999772015
 51
180.00000000008549
  0
LINE
  5
B27
  8
0
 10
219.99706426430089
 20
143.05353271663279
 30
0.0
 11
223.2247031567322
 21
143.05353271663279
 31
0.0
  0
ARC
  5
B28
  8
0
 10
223.2247031567322
 20
144.0758938242015
 30
0.0
 40
1.02236110756867
 50
270.0
 51
45.000000000001677
  0
LINE
  5
B29
  8
0
 10
223.9476216287153
 20
144.79881229618471
 30
0.0
 11
219.82158086470619
 21
148.92485306019131
 31
0.0
  0
ARC
  5
B2A
  8
0
 10
217.70026052114511
 20
146.80353271663199
 30
0.0
 40
3.0000000000008278
 50
44.999999999975437
 51
89.999999999946809
  0
LINE
  5
B2B
  8
0
 10
217.70026052114619
 20
149.80353271663219
 30
0.0
 11
214.4938680074537
 21
149.8035327166333
 31
0.0
  0
ARC
  5
B2C
  8
0
 10
214.49386800745401
 20
146.80353271663341
 30
0.0
 40
2.999999999999829
 50
90.000000000007574
 51
135.00000000001299
  0
LINE
  5
B2D
  8
0
 10
212.3725476638941
 20
148.9248530601925
 30
0.0
 11
208.2465068998863
 21
144.79881229618479
 31
0.0
  0
ARC
  5
B2E
  8
0
 10
208.96942537186951
 20
144.0758938242015
 30
0.0
 40
1.022361107568724
 50
135.0
 51
270.0
  0
LINE
  5
B2F
  8
0
 10
208.96942537186951
 20
143.05353271663279
 30
0.0
 11
212.19706426430079
 21
143.05353271663409
 31
0.0
  0
ARC
  5
B30
  8
0
 10
212.19706426430139
 20
142.25353271663471
 30
0.0
 40
0.7999999999994431
 50
359.99999999986568
 51
90.000000000040714
  0
LINE
  5
B31
  8
0
 10
212.9970642643008
 20
142.2535327166328
 30
0.0
 11
212.99706426430129
 21
141.05378139425051
 31
0.0
  0
ARC
  5
B32
  8
0
 10
204.09706426430091
 20
143.0535327166329
 30
0.0
 40
3.0000000000000688
 50
179.2827177053239
 51
270.71728229466089
  0
LINE
  5
B33
  8
0
 10
202.0972209033294
 20
151.9535327166339
 30
0.0
 11
203.29706426429959
 21
151.9535327166351
 31
0.0
  0
ARC
  5
B34
  8
0
 10
203.2970642643003
 20
151.15353271663571
 30
0.0
 40
0.7999999999993861
 50
359.99999999987381
 51
90.000000000044778
  0
LINE
  5
B35
  8
0
 10
204.09706426429969
 20
151.153532716634
 30
0.0
 11
204.09706426429969
 21
147.92589382420269
 31
0.0
  0
ARC
  5
B36
  8
0
 10
205.1194253718684
 20
147.92589382420269
 30
0.0
 40
1.0223611075687129
 50
180.0
 51
315.0
  0
LINE
  5
B37
  8
0
 10
205.84234384385161
 20
147.20297535221951
 30
0.0
 11
209.96838460785949
 21
151.329016116227
 31
0.0
  0
ARC
  5
B38
  8
0
 10
207.84706426429989
 20
153.45033645978631
 30
0.0
 40
2.9999999999997722
 50
315.00000000000477
 51
0.0000000000100421
  0
LINE
  5
B39
  8
0
 10
210.84706426429969
 20
153.4503364597868
 30
0.0
 11
210.84706426429969
 21
156.65672897348111
 31
0.0
  0
ARC
  5
B3A
  8
0
 10
207.84706426429869
 20
156.65672897347829
 30
0.0
 40
3.0000000000009659
 50
0.0000000000534672
 51
45.000000000023981
  0
LINE
  5
B3B
  8
0
 10
209.9683846078581
 20
158.77804931703949
 30
0.0
 11
205.84234384385161
 21
162.90409008104851
 31
0.0
  0
ARC
  5
B3C
  8
0
 10
205.11942537186829
 20
162.1811716090653
 30
0.0
 40
1.022361107568684
 50
44.999999999997748
 51
180.0
  0
LINE
  5
B3D
  8
0
 10
204.09706426429969
 20
162.1811716090653
 30
0.0
 11
204.09706426429969
 21
158.95353271663399
 31
0.0
  0
ARC
  5
B3E
  8
0
 10
203.2970642643009
 20
158.9535327166308
 30
0.0
 40
0.7999999999987609
 50
269.99999999991041
 51
0.0000000002279822
  0
LINE
  5
B3F
  8
0
 10
203.29706426429959
 20
158.1535327166321
 30
0.0
 11
202.09713909188039
 21
158.15353271663409
 31
0.0
  0
ARC
  5
B40
  8
0
 10
203.09706426428809
 20
166.6535327166329
 30
0.0
 40
2.0000000000000142
 50
44.71957339181786
 51
180.70754885248729
  0
LINE
  5
B41
  8
0
 10
204.51818254150621
 20
168.06080768697689
 30
0.0
 11
209.20464061981039
 21
163.3282491104062
 31
0.0
  0
ARC
  5
B42
  8
0
 10
216.0970642642439
 20
170.1535327165881
 30
0.0
 40
9.6999999999566722
 50
224.71957339218429
 51
269.9999999998758
  0
ARC
  5
B43
  8
0
 10
216.0970642642896
 20
168.2535327166315
 30
0.0
 40
7.8000000000000114
 50
269.99999999950978
 51
0.0000000000100212
  0
LINE
  5
B44
  8
0
 10
223.89706426428961
 20
168.2535327166328
 30
0.0
 11
223.89706426428799
 21
176.8035327166329
 31
0.0
  0
ARC
  5
B45
  8
0
 10
224.49706426430109
 20
176.80353271658089
 30
0.0
 40
0.6000000000130968
 50
90.000000001248452
 51
179.99999999503871
  0
LINE
  5
B46
  8
0
 10
224.4970642642881
 20
177.40353271659399
 30
0.0
 11
225.14853612686849
 21
177.40353271663281
 31
0.0
  0
ARC
  5
B47
  8
0
 10
225.14853612686849
 20
177.10353271663291
 30
0.0
 40
0.2999999999999545
 50
19.471220635098518
 51
90.000000000010857
  0
ARC
  5
B48
  8
0
 10
225.99706426428861
 20
177.40353271664139
 30
0.0
 40
0.5999999999993411
 50
199.4712206350703
 51
359.99999999998909
  0
LINE
  5
B49
  8
0
 10
226.59706426428801
 20
194.35353271663291
 30
0.0
 11
226.59706426428801
 21
177.40353271664131
 31
0.0
  0
LINE
  5
B4A
  8
0
 10
230.19682918166899
 20
143.0910885487601
 30
0.0
 11
230.19719157870171
 21
198.15351297193379
 31
0.0
  0
LINE
  5
B4B
  8
0
 10
201.09729934693249
 20
143.09108854875791
 30
0.0
 11
201.09722090338019
 21
150.953522739628
 31
0.0
  0
LINE
  5
B4C
  8
0
 10
204.1346200964251
 20
140.05376779926451
 30
0.0
 11
211.9970659934053
 21
140.0537813942517
 31
0.0
  0
LINE
  5
B4D
  8
0
 10
201.09713909193189
 20
159.1535227396283
 30
0.0
 11
201.09706426428809
 21
166.65353271663179
 31
0.0
  0
LINE
  5
B4E
  8
0
 10
220.197065993405
 20
140.05379557290499
 30
0.0
 11
227.1564531439536
 21
140.05380760640949
 31
0.0
  0
ARC
  5
B4F
  8
0
 10
202.0971390918821
 20
159.15353271663409
 30
0.0
 40
1.0
 50
180.00057164033001
 51
269.99999999990001
1001
GENIUS_GENODEF_13
1002
{
1000
HIER
1070
     0
1002
}
1002
{
1000
MANEDIT
1070
     0
1002
}
1002
{
1000
NOSEL
1070
     0
1002
}
1002
{
1000
BEHIND
1070
     0
1002
}
1002
{
1000
REACTOR
1002
}
1001
GENIUS_GENOBJ-N-FIL_13
1002
{
1000
OWNER
1000
GEN
1002
}
  0
ARC
  5
B50
  8
0
 10
202.0972209033304
 20
150.9535327166339
 30
0.0
 40
1.0
 50
90.000000000059174
 51
180.00057164033001
1001
GENIUS_GENODEF_13
1002
{
1000
HIER
1070
     0
1002
}
1002
{
1000
MANEDIT
1070
     0
1002
}
1002
{
1000
NOSEL
1070
     0
1002
}
1002
{
1000
BEHIND
1070
     0
1002
}
1002
{
1000
REACTOR
1002
}
1001
GENIUS_GENOBJ-N-FIL_13
1002
{
1000
OWNER
1000
GEN
1002
}
  0
ARC
  5
B51
  8
0
 10
211.99706426430129
 20
141.05378139425019
 30
0.0
 40
1.0
 50
270.00009907036502
 51
0.000000000020699
1001
GENIUS_GENODEF_13
1002
{
1000
HIER
1070
     0
1002
}
1002
{
1000
MANEDIT
1070
     0
1002
}
1002
{
1000
NOSEL
1070
     0
1002
}
1002
{
1000
BEHIND
1070
     0
1002
}
1002
{
1000
REACTOR
1002
}
1001
GENIUS_GENOBJ-N-FIL_13
1002
{
1000
OWNER
1000
GEN
1002
}
  0
ARC
  5
B52
  8
0
 10
220.19706426430091
 20
141.05379557290351
 30
0.0
 40
1.0
 50
180.0000000001001
 51
270.00009907036491
1001
GENIUS_GENODEF_13
1002
{
1000
HIER
1070
     0
1002
}
1002
{
1000
MANEDIT
1070
     0
1002
}
1002
{
1000
NOSEL
1070
     0
1002
}
1002
{
1000
BEHIND
1070
     0
1002
}
1002
{
1000
REACTOR
1002
}
1001
GENIUS_GENOBJ-N-FIL_13
1002
{
1000
OWNER
1000
GEN
1002
}
  0
ARC
  5
B53
  8
0
 10
227.19719157876671
 20
198.1535327166346
 30
0.0
 40
3.0
 50
359.99962290399139
 51
90.000000000073868
1001
GENIUS_GENODEF_13
1002
{
1000
HIER
1070
     0
1002
}
1002
{
1000
MANEDIT
1070
     0
1002
}
1002
{
1000
NOSEL
1070
     0
1002
}
1002
{
1000
BEHIND
1070
     0
1002
}
1002
{
1000
REACTOR
1002
}
1001
GENIUS_GENOBJ-N-FIL_13
1002
{
1000
OWNER
1000
GEN
1002
}
  0
LINE
  5
B65
  8
3
 10
170.28894817276171
 20
197.45353271663151
 30
0.0
 11
90.288948172761536
 21
197.45353271663151
 31
0.0
  0
LINE
  5
B66
  8
0
 10
170.28894817276151
 20
177.4035327166323
 30
0.0
 11
90.288948172761536
 21
177.4035327166323
 31
0.0
  0
LINE
  5
B67
  8
0
 10
170.28894817276171
 20
168.65353271663321
 30
0.0
 11
90.288948172761579
 21
168.65353271661041
 31
0.0
  0
LINE
  5
B68
  8
0
 10
170.28894817276151
 20
158.15353271663309
 30
0.0
 11
90.288948172761536
 21
158.15353271663309
 31
0.0
  0
LINE
  5
B69
  8
0
 10
170.2889481727606
 20
151.9535327166351
 30
0.0
 11
90.288948172761536
 21
151.9535327166397
 31
0.0
  0
LINE
  5
B70
  8
0
 10
212.9970642643008
 20
112.739148352922
 30
0.0
 11
212.99706426431899
 21
32.73914835292203
 31
0.0
  0
LINE
  5
B71
  8
0
 10
219.1970642643
 20
112.7391483529229
 30
0.0
 11
219.1970642643
 21
32.73914835292203
 31
0.0
  0
LINE
  5
B74
  8
0
 10
262.59756076968279
 20
201.153532716635
 30
0.0
 11
342.59756076968279
 21
201.153532716635
 31
0.0
  0
LINE
  5
B76
  8
0
 10
342.59756076968279
 20
140.05380315157731
 30
0.0
 11
262.59756076968279
 21
140.05380315157731
 31
0.0
  0
LINE
  5
B77
  8
0
 10
262.59756076968279
 20
140.05380315157731
 30
0.0
 11
262.59756076968279
 21
201.153532716635
 31
0.0
  0
LINE
  5
B78
  8
0
 10
90.288948172761536
 20
201.1535327166346
 30
0.0
 11
170.28894817276151
 21
201.1535327166346
 31
0.0
  0
LINE
  5
B79
  8
0
 10
170.28894817276151
 20
201.1535327166346
 30
0.0
 11
170.28894817276151
 21
140.05380315157751
 31
0.0
  0
LINE
  5
B7A
  8
0
 10
170.28894817276151
 20
140.05380315157751
 30
0.0
 11
90.288948172761536
 21
140.05380315157751
 31
0.0
  0
ARC
  5
B7C
  8
0
 10
224.3470642643008
 20
156.65672897348071
 30
0.0
 40
2.9999999999997629
 50
135.000000000005
 51
180.00000000001029
  0
LINE
  5
B7D
  8
0
 10
221.347064264301
 20
156.6567289734802
 30
0.0
 11
221.3470642643031
 21
153.450336459786
 31
0.0
  0
ARC
  5
B7E
  8
0
 10
224.3470642643039
 20
153.4503364597843
 30
0.0
 40
3.0000000000008522
 50
179.99999999996851
 51
224.99999999993929
  0
LINE
  5
B7F
  8
0
 10
222.22574392074139
 20
151.32901611622631
 30
0.0
 11
226.35178468474919
 21
147.20297535221849
 31
0.0
  0
ARC
  5
B80
  8
0
 10
227.07470315673231
 20
147.92589382420169
 30
0.0
 40
1.0223611075686441
 50
225.0
 51
0.0
  0
LINE
  5
B81
  8
0
 10
228.097064264301
 20
147.92589382420169
 30
0.0
 11
228.097064264301
 21
162.18117160906431
 31
0.0
  0
ARC
  5
B82
  8
0
 10
227.07470315673231
 20
162.18117160906431
 30
0.0
 40
1.0223611075687129
 50
0.0
 51
135.0
  0
LINE
  5
B83
  8
0
 10
226.35178468474911
 20
162.90409008104751
 30
0.0
 11
222.22574392074111
 21
158.77804931704
 31
0.0
  0
LINE
  5
B85
  8
0
 10
230.1970103801855
 20
32.73914835292203
 30
0.0
 11
230.1970103801855
 21
112.739148352922
 31
0.0
  0
LINE
  5
B86
  8
0
 10
230.1970103801855
 20
112.739148352922
 30
0.0
 11
201.09711039023199
 21
112.739148352922
 31
0.0
  0
LINE
  5
B87
  8
0
 10
201.09711039023199
 20
112.739148352922
 30
0.0
 11
201.09711039023199
 21
32.73914835292203
 31
0.0
  0
LINE
  5
B88
  8
0
 10
342.59756076968279
 20
140.05380315157731
 30
0.0
 11
342.59756076968279
 21
201.153532716635
 31
0.0
  0
LINE
  5
B89
  8
0
 10
90.288948172761536
 20
201.1535327166346
 30
0.0
 11
90.288948172761536
 21
140.05380315157751
 31
0.0
  0
LINE
  5
B8A
  8
3
 10
170.28894817276151
 20
194.65353271674459
 30
0.0
 11
90.288948172761536
 21
194.65353271674459
 31
0.0
  0
LINE
  5
B8B
  8
0
 10
230.1970103801855
 20
32.73914835292203
 30
0.0
 11
201.09711039023199
 21
32.73914835292203
 31
0.0
  0
LINE
  5
B8C
  8
0
 10
230.1970103801855
 20
308.46818751529031
 30
0.0
 11
201.09711039023199
 21
308.46818751529031
 31
0.0
  0
LINE
  5
B8D
  8
0
 10
230.1970103801855
 20
228.46818751529031
 30
0.0
 11
201.09711039023199
 21
228.46818751529031
 31
0.0
  0
LINE
  5
B8E
  8
0
 10
201.09711039023199
 20
228.46818751529031
 30
0.0
 11
201.09711039023199
 21
308.46818751529031
 31
0.0
  0
LINE
  5
B91
  8
0
 10
230.1970103801855
 20
308.46818751529031
 30
0.0
 11
230.1970103801855
 21
228.46818751529031
 31
0.0
  0
LINE
  5
B93
  8
0
 10
223.89706426428799
 20
228.46818751529059
 30
0.0
 11
223.89706426428799
 21
308.46818751529031
 31
0.0
  0
LINE
  5
B94
  8
0
 10
225.29706426429601
 20
228.46818751529031
 30
0.0
 11
225.29706426429581
 21
308.46818751529031
 31
0.0
  0
LINE
  5
B95
  8
0
 10
204.51818254150621
 20
228.46818751529031
 30
0.0
 11
204.51818254150621
 21
308.46818751529031
 31
0.0
  0
LINE
  5
BAB
  8
1
 10
347.59756076968279
 20
155.0535327166329
 30
0.0
 11
257.59756076968279
 21
155.0535327166329
 31
0.0
  0
LINE
  5
BAC
  8
1
 10
216.0970642643058
 20
313.46818751529031
 30
0.0
 11
216.0970642643058
 21
223.46818751529031
 31
0.0
  0
LINE
  5
BB5
  8
1
 10
235.19690791340449
 20
155.05353271663279
 30
0.0
 11
196.09717999730759
 21
155.05353271663279
 31
0.0
  0
LINE
  5
BB6
  8
1
 10
175.28894817276151
 20
155.05353271663279
 30
0.0
 11
85.288948172761536
 21
155.05353271663279
 31
0.0
  0
LINE
  5
BBD
  8
1
 10
216.0970642643058
 20
206.15353271663511
 30
0.0
 11
216.0970642643058
 21
135.05380315157731
 31
0.0
  0
LINE
  5
BBE
  8
1
 10
216.0970642643058
 20
117.739148352922
 30
0.0
 11
216.0970642643058
 21
27.73914835292203
 31
0.0
  0
TEXT
  5
CD9
  8
0
 62
     3
 10
0.0
 20
0.0
 30
0.0
 40
10.0
  1
L6-CSRP6129N
  7
STANDARD1
  0
ENDSEC
  0
EOF
