  0
SECTION
  2
HEADER
  9
$ACADVER
  1
AC1009
  9
$INSBASE
 10
7.37824081052986
 20
15.90864369846679
 30
0.0
  9
$EXTMIN
 10
0.0
 20
-2.960436562073669
 30
0.0
  9
$EXTMAX
 10
321.75218928225672
 20
263.93988701935211
 30
0.0
  9
$LIMMIN
 10
0.0
 20
0.0
  9
$LIMMAX
 10
385.0
 20
270.0
  9
$ORTHOMODE
 70
     1
  9
$REGENMODE
 70
     1
  9
$FILLMODE
 70
     1
  9
$QTEXTMODE
 70
     0
  9
$MIRRTEXT
 70
     0
  9
$DRAGMODE
 70
     2
  9
$LTSCALE
 40
10.0
  9
$OSMODE
 70
  3071
  9
$ATTMODE
 70
     1
  9
$TEXTSIZE
 40
4.0
  9
$TRACEWID
 40
0.05
  9
$TEXTSTYLE
  7
STANDARD
  9
$CLAYER
  8
0
  9
$CELTYPE
  6
BYLAYER
  9
$CECOLOR
 62
   256
  9
$DIMSCALE
 40
1.0
  9
$DIMASZ
 40
3.0
  9
$DIMEXO
 40
2.0
  9
$DIMDLI
 40
10.0
  9
$DIMRND
 40
0.0
  9
$DIMDLE
 40
0.0
  9
$DIMEXE
 40
2.0
  9
$DIMTP
 40
0.0
  9
$DIMTM
 40
0.0
  9
$DIMTXT
 40
3.0
  9
$DIMCEN
 40
0.09
  9
$DIMTSZ
 40
0.0
  9
$DIMTOL
 70
     0
  9
$DIMLIM
 70
     0
  9
$DIMTIH
 70
     0
  9
$DIMTOH
 70
     0
  9
$DIMSE1
 70
     0
  9
$DIMSE2
 70
     0
  9
$DIMTAD
 70
     1
  9
$DIMZIN
 70
     0
  9
$DIMBLK
  1

  9
$DIMASO
 70
     0
  9
$DIMSHO
 70
     0
  9
$DIMPOST
  1

  9
$DIMAPOST
  1

  9
$DIMALT
 70
     0
  9
$DIMALTD
 70
     2
  9
$DIMALTF
 40
25.399999999999999
  9
$DIMLFAC
 40
1.0
  9
$DIMTOFL
 70
     1
  9
$DIMTVP
 40
1.6000000000000001
  9
$DIMTIX
 70
     1
  9
$DIMSOXD
 70
     0
  9
$DIMSAH
 70
     0
  9
$DIMBLK1
  1

  9
$DIMBLK2
  1

  9
$DIMSTYLE
  2
STANDARD
  9
$DIMCLRD
 70
     0
  9
$DIMCLRE
 70
     0
  9
$DIMCLRT
 70
     0
  9
$DIMTFAC
 40
1.0
  9
$DIMGAP
 40
1.0
  9
$LUNITS
 70
     2
  9
$LUPREC
 70
     2
  9
$SKETCHINC
 40
0.1
  9
$FILLETRAD
 40
0.0
  9
$AUNITS
 70
     0
  9
$AUPREC
 70
     2
  9
$MENU
  1
E:\r13\win\SUPPORT\ACAD
  9
$ELEVATION
 40
0.0
  9
$PELEVATION
 40
0.0
  9
$THICKNESS
 40
0.0
  9
$LIMCHECK
 70
     0
  9
$BLIPMODE
 70
     0
  9
$CHAMFERA
 40
1.0
  9
$CHAMFERB
 40
1.0
  9
$SKPOLY
 70
     0
  9
$TDCREATE
 40
2450759.688907986
  9
$TDUPDATE
 40
2456597.5616721869
  9
$TDINDWG
 40
0.0002929861
  9
$TDUSRTIMER
 40
0.0002929861
  9
$USRTIMER
 70
     1
  9
$ANGBASE
 50
0.0
  9
$ANGDIR
 70
     0
  9
$PDMODE
 70
     0
  9
$PDSIZE
 40
0.0
  9
$PLINEWID
 40
0.0
  9
$COORDS
 70
     1
  9
$SPLFRAME
 70
     0
  9
$SPLINETYPE
 70
     6
  9
$SPLINESEGS
 70
     8
  9
$ATTDIA
 70
     0
  9
$ATTREQ
 70
     1
  9
$HANDLING
 70
     1
  9
$HANDSEED
  5
26C8
  9
$SURFTAB1
 70
     6
  9
$SURFTAB2
 70
     6
  9
$SURFTYPE
 70
     6
  9
$SURFU
 70
     6
  9
$SURFV
 70
     6
  9
$UCSNAME
  2

  9
$UCSORG
 10
0.0
 20
0.0
 30
0.0
  9
$UCSXDIR
 10
1.0
 20
0.0
 30
0.0
  9
$UCSYDIR
 10
0.0
 20
1.0
 30
0.0
  9
$PUCSNAME
  2

  9
$PUCSORG
 10
0.0
 20
0.0
 30
0.0
  9
$PUCSXDIR
 10
1.0
 20
0.0
 30
0.0
  9
$PUCSYDIR
 10
0.0
 20
1.0
 30
0.0
  9
$USERI1
 70
     3
  9
$USERI2
 70
     1
  9
$USERI3
 70
     0
  9
$USERI4
 70
     1
  9
$USERI5
 70
     0
  9
$USERR1
 40
1.0
  9
$USERR2
 40
3.0
  9
$USERR3
 40
3.0
  9
$USERR4
 40
3.0
  9
$USERR5
 40
10.0
  9
$WORLDVIEW
 70
     1
  9
$SHADEDGE
 70
     3
  9
$SHADEDIF
 70
    70
  9
$TILEMODE
 70
     1
  9
$MAXACTVP
 70
    16
  9
$PLIMCHECK
 70
     0
  9
$PEXTMIN
 10
1.0000000000000000E+020
 20
1.0000000000000000E+020
 30
1.0000000000000000E+020
  9
$PEXTMAX
 10
-1.0000000000000000E+020
 20
-1.0000000000000000E+020
 30
-1.0000000000000000E+020
  9
$PLIMMIN
 10
0.0
 20
0.0
  9
$PLIMMAX
 10
12.0
 20
9.0
  9
$UNITMODE
 70
     0
  9
$VISRETAIN
 70
     0
  9
$PLINEGEN
 70
     0
  9
$PSLTSCALE
 70
     0
  0
ENDSEC
  0
SECTION
  2
TABLES
  0
TABLE
  2
VPORT
 70
     1
  0
VPORT
  2
*ACTIVE
 70
     0
 10
0.0
 20
0.0
 11
1.0
 21
1.0
 12
192.49412581440311
 22
162.8616388594717
 13
0.0
 23
0.0
 14
5.0
 24
5.0
 15
5.0
 25
5.0
 16
0.0
 26
0.0
 36
1.0
 17
0.0
 27
0.0
 37
0.0
 40
334.81001162774987
 41
1.9089595375722539
 42
50.0
 43
0.0
 44
0.0
 50
0.0
 51
0.0
 71
     0
 72
  1000
 73
     1
 74
     0
 75
     0
 76
     0
 77
     0
 78
     1
  0
ENDTAB
  0
TABLE
  2
LTYPE
 70
     3
  0
LTYPE
  2
CONTINUOUS
 70
     0
  3
Solid Line
 72
    65
 73
     0
 40
0.0
  0
LTYPE
  2
CENTER
 70
     0
  3
____ _ ____ _ ____ _ ____ _ ____ _ ____ _ ____
 72
    65
 73
     4
 40
2.0
 49
1.25
 49
-0.25
 49
0.25
 49
-0.25
  0
LTYPE
  2
PHANTOM2
 70
     0
  3
___ _ _ ___ _ _ ___ _ _ ___ _ _
 72
    65
 73
     6
 40
1.25
 49
0.625
 49
-0.125
 49
0.125
 49
-0.125
 49
0.125
 49
-0.125
  0
ENDTAB
  0
TABLE
  2
LAYER
 70
     3
  0
LAYER
  2
0
 70
     0
 62
     7
  6
CONTINUOUS
  0
LAYER
  2
1
 70
     0
 62
     1
  6
CENTER
  0
LAYER
  2
3
 70
     0
 62
     3
  6
CONTINUOUS
  0
ENDTAB
  0
TABLE
  2
STYLE
 70
     2
  0
STYLE
  2
STANDARD
 70
     0
 40
0.0
 41
1.0
 50
0.0
 71
     0
 42
4.0
  3
simplex
  4
bigfont
  0
STYLE
  2
STANDARD1
 70
     0
 40
0.0
 41
1.0
 50
0.0
 71
     0
 42
3.0
  3
txt
  4

  0
ENDTAB
  0
TABLE
  2
VIEW
 70
     0
  0
ENDTAB
  0
TABLE
  2
UCS
 70
     0
  0
ENDTAB
  0
TABLE
  2
APPID
 70
     9
  0
APPID
  2
ACAD
 70
     0
  0
APPID
  2
GENIUS_GENODEF_13
 70
     0
  0
APPID
  2
GENIUS_GENOENT_13
 70
     0
  0
APPID
  2
GENIUS_GENOBJ_13
 70
     0
  0
APPID
  2
GENIUS_GENOLIS_13
 70
     0
  0
APPID
  2
GENIUS_GENOREF_13
 70
     0
  0
APPID
  2
GENIUS_GENOBJ-N-FIL_13
 70
     0
  0
APPID
  2
ACAD_MLEADERVER
 70
     0
  0
APPID
  2
ACAD_NAV_VCDISPLAY
 70
     0
  0
ENDTAB
  0
TABLE
  2
DIMSTYLE
 70
     1
  0
DIMSTYLE
  2
STANDARD
 70
     0
  3

  4

  5

  6

  7

 40
1.0
 41
0.18
 42
0.0625
 43
0.38
 44
0.18
 45
0.0
 46
0.0
 47
0.0
 48
0.0
140
0.18
141
0.09
142
0.0
143
25.399999999999999
144
1.0
145
0.0
146
1.0
147
0.09
 71
     0
 72
     0
 73
     1
 74
     1
 75
     0
 76
     0
 77
     0
 78
     0
170
     0
171
     2
172
     0
173
     0
174
     0
175
     0
176
     0
177
     0
178
     0
  0
ENDTAB
  0
ENDSEC
  0
SECTION
  2
BLOCKS
  0
BLOCK
  8
0
  2
$MODEL_SPACE
 70
     0
 10
0.0
 20
0.0
 30
0.0
  3
$MODEL_SPACE
  1

  0
ENDBLK
  5
2587
  8
0
  0
BLOCK
 67
     1
  8
0
  2
$PAPER_SPACE
 70
     0
 10
0.0
 20
0.0
 30
0.0
  3
$PAPER_SPACE
  1

  0
ENDBLK
  5
2585
 67
     1
  8
0
  0
ENDSEC
  0
SECTION
  2
ENTITIES
  0
LINE
  5
23C8
  8
0
  6
CONTINUOUS
 62
     7
 10
133.64969982839571
 20
125.3086795561795
 30
0.0
 11
49.576084185252483
 21
125.3086795561795
 31
0.0
  0
LINE
  5
23C9
  8
0
  6
CONTINUOUS
 62
     7
 10
133.64969982839571
 20
155.30867955617941
 30
0.0
 11
49.576084185252483
 21
155.30867955617941
 31
0.0
  0
LINE
  5
23CA
  8
0
  6
CONTINUOUS
 62
     7
 10
133.64969982839571
 20
137.20867955620659
 30
0.0
 11
49.576084185252483
 21
137.20867955620659
 31
0.0
  0
LINE
  5
23CB
  8
0
  6
CONTINUOUS
 62
     7
 10
133.64969982839571
 20
143.40867955615229
 30
0.0
 11
52.1067549149939
 21
143.40867955615229
 31
0.0
  0
LINE
  5
23CC
  8
1
 10
44.576084185252483
 20
140.30867955617941
 30
0.0
 11
138.64969982839571
 21
140.30867955617941
 31
0.0
  0
LINE
  5
23CD
  8
0
  6
CONTINUOUS
 62
     7
 10
70.149699828395768
 20
131.44284458638671
 30
0.0
 11
68.649699828395768
 21
130.57681918260249
 31
0.0
  0
LINE
  5
23CE
  8
0
  6
CONTINUOUS
 62
     7
 10
68.649699828395768
 20
130.57681918260249
 30
0.0
 11
67.149699828395541
 21
131.4428445863872
 31
0.0
  0
CIRCLE
  5
23CF
  8
0
  6
CONTINUOUS
 62
     7
 10
68.649699828395768
 20
132.3088699901715
 30
0.0
 40
3.5
  0
CIRCLE
  5
23D0
  8
0
  6
CONTINUOUS
 62
     7
 10
68.649699828395768
 20
132.3088699901715
 30
0.0
 40
2.9803847577293112
  0
LINE
  5
23D1
  8
1
 10
68.649699828395768
 20
123.8088699901715
 30
0.0
 11
68.649699828395768
 21
140.8088699901715
 31
0.0
  0
LINE
  5
23DB
  8
0
  6
CONTINUOUS
 62
     7
 10
68.649699828395939
 20
146.5764383146186
 30
0.0
 11
70.149699828395768
 21
147.4424637184031
 31
0.0
  0
LINE
  5
23DC
  8
0
  6
CONTINUOUS
 62
     7
 10
70.149699828395768
 20
149.1745145259722
 30
0.0
 11
68.649699828395768
 21
150.04053992975631
 31
0.0
  0
LINE
  5
23DD
  8
0
  6
CONTINUOUS
 62
     7
 10
68.649699828395768
 20
150.04053992975631
 30
0.0
 11
67.149699828395541
 21
149.17451452597169
 31
0.0
  0
LINE
  5
23DE
  8
0
  6
CONTINUOUS
 62
     7
 10
67.149699828395541
 20
149.17451452597169
 30
0.0
 11
67.149699828395882
 21
147.4424637184031
 31
0.0
  0
LINE
  5
23DF
  8
0
  6
CONTINUOUS
 62
     7
 10
67.149699828395882
 20
147.4424637184031
 30
0.0
 11
68.649699828395939
 21
146.5764383146186
 31
0.0
  0
LINE
  5
23E0
  8
0
  6
CONTINUOUS
 62
     7
 10
70.149699828395768
 20
147.4424637184031
 30
0.0
 11
70.149699828395768
 21
149.1745145259722
 31
0.0
  0
CIRCLE
  5
23E1
  8
0
  6
CONTINUOUS
 62
     7
 10
68.649699828395768
 20
148.30848912218741
 30
0.0
 40
2.9803847577293112
  0
CIRCLE
  5
23E2
  8
0
  6
CONTINUOUS
 62
     7
 10
68.649699828395768
 20
148.30848912218741
 30
0.0
 40
3.5
  0
LINE
  5
23E3
  8
0
  6
CONTINUOUS
 62
     7
 10
68.649699828395939
 20
134.04092079774031
 30
0.0
 11
70.149699828395768
 21
133.17489539395581
 31
0.0
  0
LINE
  5
23E4
  8
0
  6
CONTINUOUS
 62
     7
 10
67.149699828395541
 20
131.4428445863872
 30
0.0
 11
67.149699828395882
 21
133.17489539395581
 31
0.0
  0
LINE
  5
23E5
  8
0
  6
CONTINUOUS
 62
     7
 10
67.149699828395882
 20
133.17489539395581
 30
0.0
 11
68.649699828395939
 21
134.04092079774031
 31
0.0
  0
LINE
  5
23E6
  8
0
  6
CONTINUOUS
 62
     7
 10
70.149699828395768
 20
133.17489539395581
 30
0.0
 11
70.149699828395768
 21
131.44284458638671
 31
0.0
  0
LINE
  5
23E7
  8
1
 10
68.649699828395768
 20
156.80848912218741
 30
0.0
 11
68.649699828395768
 21
139.8084891221873
 31
0.0
  0
LINE
  5
23E8
  8
1
 10
77.149699828395754
 20
132.3088699901715
 30
0.0
 11
60.149699828395768
 21
132.3088699901715
 31
0.0
  0
LINE
  5
23E9
  8
1
 10
77.149699828395754
 20
148.30848912218741
 30
0.0
 11
60.149699828395768
 21
148.30848912218741
 31
0.0
  0
LINE
  5
23EA
  8
0
  6
CONTINUOUS
 62
     7
 10
168.16413673375459
 20
105.7510877361501
 30
0.0
 11
168.16413673375459
 21
21.677472093006831
 31
0.0
  0
LINE
  5
23EB
  8
0
  6
CONTINUOUS
 62
     7
 10
198.1641367337545
 20
105.7510877361501
 30
0.0
 11
198.16413673375459
 21
21.677472093006831
 31
0.0
  0
LINE
  5
23EC
  8
0
  6
CONTINUOUS
 62
     7
 10
194.76375586577041
 20
105.7510877361501
 30
0.0
 11
194.76375586577041
 21
23.34804999172519
 31
0.0
  0
LINE
  5
23ED
  8
0
  6
CONTINUOUS
 62
     7
 10
188.26413673375461
 20
105.7510877361501
 30
0.0
 11
188.26413673375461
 21
24.536743763713851
 31
0.0
  0
LINE
  5
23EE
  8
1
 10
183.16413673375459
 20
16.677472093006831
 30
0.0
 11
183.16413673375459
 21
110.7510877361501
 31
0.0
  0
LINE
  5
23EF
  8
0
  6
CONTINUOUS
 62
     7
 10
232.67857363911341
 20
125.3086795561795
 30
0.0
 11
316.75218928225672
 21
125.3086795561795
 31
0.0
  0
LINE
  5
23F0
  8
0
  6
CONTINUOUS
 62
     7
 10
232.67857363911341
 20
155.30867955617941
 30
0.0
 11
316.75218928225672
 21
155.30867955617941
 31
0.0
  0
LINE
  5
23F1
  8
1
 10
321.75218928225672
 20
140.30867955617941
 30
0.0
 11
227.67857363911341
 21
140.30867955617941
 31
0.0
  0
LINE
  5
23F2
  8
1
 10
183.16413673375459
 20
160.30867955617941
 30
0.0
 11
183.16413673375459
 21
120.3086795561794
 31
0.0
  0
ARC
  5
23F3
  8
0
  6
CONTINUOUS
 62
     7
 10
171.16413673375459
 20
152.3086795561795
 30
0.0
 40
3.0
 50
90.0
 51
180.0
  0
ARC
  5
23F4
  8
0
  6
CONTINUOUS
 62
     7
 10
169.16413673375459
 20
144.40867955615201
 30
0.0
 40
1.0
 50
180.0
 51
270.00000000002348
1001
GENIUS_GENODEF_13
1002
{
1000
HIER
1070
     0
1002
}
1002
{
1000
MANEDIT
1070
     0
1002
}
1002
{
1000
NOSEL
1070
     0
1002
}
1002
{
1000
BEHIND
1070
     0
1002
}
1002
{
1000
REACTOR
1002
}
1001
GENIUS_GENOBJ-N-FIL_13
1002
{
1000
OWNER
1000
GEN
1002
}
  0
ARC
  5
23F5
  8
0
  6
CONTINUOUS
 62
     7
 10
169.16413673375459
 20
136.2086795561523
 30
0.0
 40
1.0
 50
90.000000000011696
 51
180.0
1001
GENIUS_GENODEF_13
1002
{
1000
HIER
1070
     0
1002
}
1002
{
1000
MANEDIT
1070
     0
1002
}
1002
{
1000
NOSEL
1070
     0
1002
}
1002
{
1000
BEHIND
1070
     0
1002
}
1002
{
1000
REACTOR
1002
}
1001
GENIUS_GENOBJ-N-FIL_13
1002
{
1000
OWNER
1000
GEN
1002
}
  0
ARC
  5
23F6
  8
0
  6
CONTINUOUS
 62
     7
 10
171.16413673375459
 20
128.3086795561795
 30
0.0
 40
2.9999999999999991
 50
180.0
 51
270.0
  0
LINE
  5
23F7
  8
0
  6
CONTINUOUS
 62
     7
 10
198.16413673375459
 20
105.7510877361501
 30
0.0
 11
168.16413673375459
 21
105.7510877361501
 31
0.0
  0
LINE
  5
23F8
  8
1
 10
203.16413673375459
 20
140.30867955617941
 30
0.0
 11
163.16413673375459
 21
140.30867955617941
 31
0.0
  0
LINE
  5
23F9
  8
1
 10
127.1496998283957
 20
148.30848912218741
 30
0.0
 11
110.1496998283957
 21
148.30848912218741
 31
0.0
  0
CIRCLE
  5
23FA
  8
0
  6
CONTINUOUS
 62
     7
 10
118.6496998283957
 20
132.3088699901715
 30
0.0
 40
2.9803847577293112
  0
CIRCLE
  5
23FB
  8
0
  6
CONTINUOUS
 62
     7
 10
118.6496998283957
 20
132.3088699901715
 30
0.0
 40
3.5
  0
LINE
  5
23FC
  8
0
  6
CONTINUOUS
 62
     7
 10
120.1496998283957
 20
131.44284458638671
 30
0.0
 11
118.6496998283957
 21
130.57681918260249
 31
0.0
  0
LINE
  5
23FD
  8
0
  6
CONTINUOUS
 62
     7
 10
118.6496998283957
 20
130.57681918260249
 30
0.0
 11
117.1496998283955
 21
131.4428445863872
 31
0.0
  0
LINE
  5
23FE
  8
1
 10
118.6496998283957
 20
123.8088699901715
 30
0.0
 11
118.6496998283957
 21
140.8088699901715
 31
0.0
  0
CIRCLE
  5
23FF
  8
0
  6
CONTINUOUS
 62
     7
 10
118.6496998283957
 20
148.30848912218741
 30
0.0
 40
2.9803847577293112
  0
CIRCLE
  5
2400
  8
0
  6
CONTINUOUS
 62
     7
 10
118.6496998283957
 20
148.30848912218741
 30
0.0
 40
3.5
  0
LINE
  5
2401
  8
0
  6
CONTINUOUS
 62
     7
 10
118.6496998283959
 20
146.5764383146186
 30
0.0
 11
120.1496998283957
 21
147.4424637184031
 31
0.0
  0
LINE
  5
2402
  8
0
  6
CONTINUOUS
 62
     7
 10
120.1496998283957
 20
147.4424637184031
 30
0.0
 11
120.1496998283957
 21
149.1745145259722
 31
0.0
  0
LINE
  5
2403
  8
0
  6
CONTINUOUS
 62
     7
 10
120.1496998283957
 20
149.1745145259722
 30
0.0
 11
118.6496998283957
 21
150.04053992975631
 31
0.0
  0
LINE
  5
2404
  8
0
  6
CONTINUOUS
 62
     7
 10
117.1496998283955
 20
149.17451452597169
 30
0.0
 11
117.1496998283959
 21
147.4424637184031
 31
0.0
  0
LINE
  5
2405
  8
0
  6
CONTINUOUS
 62
     7
 10
117.1496998283959
 20
147.4424637184031
 30
0.0
 11
118.6496998283959
 21
146.5764383146186
 31
0.0
  0
LINE
  5
2406
  8
0
  6
CONTINUOUS
 62
     7
 10
118.6496998283957
 20
150.04053992975631
 30
0.0
 11
117.1496998283955
 21
149.17451452597169
 31
0.0
  0
LINE
  5
2407
  8
0
  6
CONTINUOUS
 62
     7
 10
120.1496998283957
 20
133.17489539395581
 30
0.0
 11
120.1496998283957
 21
131.44284458638671
 31
0.0
  0
LINE
  5
2408
  8
0
  6
CONTINUOUS
 62
     7
 10
118.6496998283959
 20
134.04092079774031
 30
0.0
 11
120.1496998283957
 21
133.17489539395581
 31
0.0
  0
LINE
  5
2409
  8
0
  6
CONTINUOUS
 62
     7
 10
117.1496998283955
 20
131.4428445863872
 30
0.0
 11
117.1496998283959
 21
133.17489539395581
 31
0.0
  0
LINE
  5
240A
  8
0
  6
CONTINUOUS
 62
     7
 10
117.1496998283959
 20
133.17489539395581
 30
0.0
 11
118.6496998283959
 21
134.04092079774031
 31
0.0
  0
LINE
  5
240B
  8
1
 10
118.6496998283957
 20
156.80848912218741
 30
0.0
 11
118.6496998283957
 21
139.8084891221873
 31
0.0
  0
LINE
  5
240C
  8
0
  6
CONTINUOUS
 62
     7
 10
133.64969982839571
 20
155.30867955617941
 30
0.0
 11
133.64969982839571
 21
125.3086795561795
 31
0.0
  0
LINE
  5
240D
  8
0
  6
CONTINUOUS
 62
     7
 10
168.16413673375459
 20
136.2086795561523
 30
0.0
 11
168.16413673375459
 21
128.3086795561795
 31
0.0
  0
LINE
  5
240E
  8
0
  6
CONTINUOUS
 62
     7
 10
168.16413673375459
 20
152.3086795561795
 30
0.0
 11
168.16413673375459
 21
144.40867955615201
 31
0.0
  0
LINE
  5
241D
  8
0
  6
CONTINUOUS
 62
     7
 10
183.7641367337545
 20
135.40906042419061
 30
0.0
 11
183.7641367337543
 21
130.3090604241907
 31
0.0
  0
LINE
  5
241E
  8
0
  6
CONTINUOUS
 62
     7
 10
194.76375586577029
 20
125.6086795561795
 30
0.0
 11
194.76375586577029
 21
137.5086795561854
 31
0.0
  0
LINE
  5
241F
  8
0
  6
CONTINUOUS
 62
     7
 10
198.16413673375459
 20
128.3086795561795
 30
0.0
 11
198.16413673375459
 21
152.3086795561795
 31
0.0
  0
LINE
  5
2420
  8
0
  6
CONTINUOUS
 62
     7
 10
198.1637558657703
 20
152.2747823026516
 30
0.0
 11
198.1637558657703
 21
128.34257680970731
 31
0.0
  0
ARC
  5
2421
  8
0
  6
CONTINUOUS
 62
     7
 10
173.2641367337545
 20
127.8090604241907
 30
0.0
 40
0.5
 50
180.0
 51
270.0
  0
ARC
  5
2422
  8
0
  6
CONTINUOUS
 62
     7
 10
173.2641367337545
 20
129.3090604241907
 30
0.0
 40
0.4999999999999432
 50
90.000000000006509
 51
180.0000000000195
  0
LINE
  5
2423
  8
0
  6
CONTINUOUS
 62
     7
 10
187.2641367337545
 20
125.3090604241907
 30
0.0
 11
171.16413673375459
 21
125.3086795561795
 31
0.0
  0
LINE
  5
2424
  8
0
  6
CONTINUOUS
 62
     7
 10
172.76413673375461
 20
129.30906042419059
 30
0.0
 11
172.7641367337545
 21
127.8090604241907
 31
0.0
  0
ARC
  5
2425
  8
0
  6
CONTINUOUS
 62
     7
 10
183.2641367337543
 20
130.3090604241907
 30
0.0
 40
0.5
 50
270.0
 51
0.0
  0
ARC
  5
2426
  8
0
  6
CONTINUOUS
 62
     7
 10
187.2641367337545
 20
126.3090604241907
 30
0.0
 40
1.0
 50
270.0
 51
90.0
  0
LINE
  5
2427
  8
0
  6
CONTINUOUS
 62
     7
 10
173.2641367337545
 20
127.3090604241907
 30
0.0
 11
187.2641367337545
 21
127.3090604241907
 31
0.0
  0
LINE
  5
2428
  8
0
  6
CONTINUOUS
 62
     7
 10
183.2641367337543
 20
129.8090604241907
 30
0.0
 11
173.2641367337545
 21
129.8090604241907
 31
0.0
  0
ARC
  5
2429
  8
0
  6
CONTINUOUS
 62
     7
 10
195.16413673375459
 20
128.3086795561795
 30
0.0
 40
3.0
 50
270.0
 51
0.0
  0
ARC
  5
242A
  8
0
  6
CONTINUOUS
 62
     7
 10
195.0637558657703
 20
125.6086795561795
 30
0.0
 40
0.3
 50
180.0
 51
270.0
1001
GENIUS_GENODEF_13
1002
{
1000
HIER
1070
     0
1002
}
1002
{
1000
MANEDIT
1070
     0
1002
}
1002
{
1000
NOSEL
1070
     0
1002
}
1002
{
1000
BEHIND
1070
     0
1002
}
1002
{
1000
REACTOR
1002
}
1001
GENIUS_GENOBJ-N-FIL_13
1002
{
1000
OWNER
1000
GEN
1002
}
  0
LINE
  5
242B
  8
0
  6
CONTINUOUS
 62
     7
 10
195.0637558657703
 20
125.3086795561795
 30
0.0
 11
195.16413673375459
 21
125.3086795561795
 31
0.0
  0
LINE
  5
242C
  8
0
  6
CONTINUOUS
 62
     7
 10
188.56413673375459
 20
142.80867955617401
 30
0.0
 11
194.46375586577039
 21
142.8086795561737
 31
0.0
  0
LINE
  5
242D
  8
0
  6
CONTINUOUS
 62
     7
 10
194.46375586577039
 20
137.80867955618541
 30
0.0
 11
188.56413673375459
 21
137.80867955618541
 31
0.0
  0
ARC
  5
242E
  8
0
  6
CONTINUOUS
 62
     7
 10
173.2641367337545
 20
152.80829868816869
 30
0.0
 40
0.5
 50
90.0
 51
180.0
  0
ARC
  5
243D
  8
0
  6
CONTINUOUS
 62
     7
 10
172.3572824842347
 20
145.45867955620679
 30
0.0
 40
3.000000000000012
 50
45.000000000000547
 51
90.000000000000554
  0
ARC
  5
243E
  8
0
  6
CONTINUOUS
 62
     7
 10
173.26413673375441
 20
151.30829868816849
 30
0.0
 40
0.4999999999998295
 50
179.99999999999349
 51
270.00000000000648
  0
ARC
  5
243F
  8
0
  6
CONTINUOUS
 62
     7
 10
172.35728248428941
 20
135.15867955617929
 30
0.0
 40
3.0000000000000102
 50
269.99999999999733
 51
314.99999999999631
  0
LINE
  5
2440
  8
0
  6
CONTINUOUS
 62
     7
 10
172.7641367337545
 20
152.80829868816869
 30
0.0
 11
172.76413673375461
 21
151.30829868816849
 31
0.0
  0
ARC
  5
2441
  8
0
  6
CONTINUOUS
 62
     7
 10
169.9641367337486
 20
146.20867955615239
 30
0.0
 40
0.2999999999998408
 50
180.00000000002171
 51
270.00000000002171
  0
LINE
  5
2442
  8
0
  6
CONTINUOUS
 62
     7
 10
169.96413673374869
 20
145.90867955615249
 30
0.0
 11
170.86413673374881
 21
145.90867955615229
 31
0.0
  0
ARC
  5
2443
  8
0
  6
CONTINUOUS
 62
     7
 10
170.86413673374881
 20
145.6086795561524
 30
0.0
 40
0.2999999999999545
 50
0.0
 51
90.0
  0
ARC
  5
2444
  8
0
  6
CONTINUOUS
 62
     7
 10
170.66413673374879
 20
147.45867955620679
 30
0.0
 40
1.0
 50
90.0
 51
180.0
  0
LINE
  5
2445
  8
0
  6
CONTINUOUS
 62
     7
 10
169.66413673374879
 20
147.45867955620679
 30
0.0
 11
169.66413673374879
 21
146.2086795561523
 31
0.0
  0
LINE
  5
2446
  8
0
  6
CONTINUOUS
 62
     7
 10
172.3572824842347
 20
148.45867955620679
 30
0.0
 11
170.66413673374879
 21
148.45867955620679
 31
0.0
  0
LINE
  5
2447
  8
0
  6
CONTINUOUS
 62
     7
 10
170.36413673374881
 20
143.40867955615249
 30
0.0
 11
169.1641367337549
 21
143.40867955615201
 31
0.0
  0
ARC
  5
2448
  8
0
  6
CONTINUOUS
 62
     7
 10
170.36413673374889
 20
144.20867955615239
 30
0.0
 40
0.799999999999841
 50
269.99999999999193
 51
359.99999999999193
  0
LINE
  5
2449
  8
0
  6
CONTINUOUS
 62
     7
 10
171.16413673374879
 20
136.40867955615249
 30
0.0
 11
171.16413673374879
 21
135.0086795561524
 31
0.0
  0
LINE
  5
244A
  8
0
  6
CONTINUOUS
 62
     7
 10
169.16413673375439
 20
137.2086795561523
 30
0.0
 11
170.36413673374881
 21
137.2086795561525
 31
0.0
  0
ARC
  5
244B
  8
0
  6
CONTINUOUS
 62
     7
 10
170.36413673374869
 20
136.40867955615249
 30
0.0
 40
0.8000000000000113
 50
0.0000000000040711
 51
89.999999999995936
  0
LINE
  5
244C
  8
0
  6
CONTINUOUS
 62
     7
 10
171.16413673374879
 20
145.6086795561524
 30
0.0
 11
171.16413673374879
 21
144.2086795561523
 31
0.0
  0
LINE
  5
244D
  8
0
  6
CONTINUOUS
 62
     7
 10
170.86413673374881
 20
134.7086795561525
 30
0.0
 11
169.96413673374869
 21
134.7086795561523
 31
0.0
  0
ARC
  5
244E
  8
0
  6
CONTINUOUS
 62
     7
 10
170.66413673374879
 20
133.15867955617929
 30
0.0
 40
1.0
 50
180.0
 51
270.0
  0
LINE
  5
244F
  8
0
  6
CONTINUOUS
 62
     7
 10
169.66413673374879
 20
134.40867955615209
 30
0.0
 11
169.66413673374879
 21
133.15867955617929
 31
0.0
  0
ARC
  5
2450
  8
0
  6
CONTINUOUS
 62
     7
 10
169.96413673374889
 20
134.40867955615221
 30
0.0
 40
0.3000000000000682
 50
90.0000000000217
 51
180.00000000002171
  0
LINE
  5
2451
  8
0
  6
CONTINUOUS
 62
     7
 10
170.66413673374879
 20
132.15867955617941
 30
0.0
 11
172.35728248428919
 21
132.15867955617941
 31
0.0
  0
ARC
  5
2452
  8
0
  6
CONTINUOUS
 62
     7
 10
170.86413673374881
 20
135.0086795561524
 30
0.0
 40
0.2999999999999545
 50
270.0
 51
0.0
  0
ARC
  5
2453
  8
0
  6
CONTINUOUS
 62
     7
 10
183.2641367337543
 20
150.30829868816869
 30
0.0
 40
0.5
 50
0.0
 51
90.0
  0
LINE
  5
2454
  8
0
  6
CONTINUOUS
 62
     7
 10
173.2641367337545
 20
150.80829868816869
 30
0.0
 11
183.2641367337543
 21
150.80829868816869
 31
0.0
  0
LINE
  5
2455
  8
0
  6
CONTINUOUS
 62
     7
 10
184.2641367337545
 20
144.7082986881683
 30
0.0
 11
187.7641367337545
 21
144.7082986881683
 31
0.0
  0
ARC
  5
2456
  8
0
  6
CONTINUOUS
 62
     7
 10
184.2641367337545
 20
145.2082986881683
 30
0.0
 40
0.5
 50
180.0
 51
270.0
  0
ARC
  5
2457
  8
0
  6
CONTINUOUS
 62
     7
 10
187.7641367337545
 20
144.2082986881683
 30
0.0
 40
0.5
 50
0.0
 51
90.0
  0
ARC
  5
2458
  8
0
  6
CONTINUOUS
 62
     7
 10
188.56413673375451
 20
143.10867955617391
 30
0.0
 40
0.2999999999999545
 50
180.00000000002171
 51
270.00000000002171
  0
LINE
  5
2459
  8
0
  6
CONTINUOUS
 62
     7
 10
188.2641367337545
 20
144.2082986881683
 30
0.0
 11
188.2641367337545
 21
143.1086795561738
 31
0.0
  0
ARC
  5
245A
  8
0
  6
CONTINUOUS
 62
     7
 10
184.2641367337545
 20
135.40906042419061
 30
0.0
 40
0.5
 50
90.0
 51
180.0
  0
LINE
  5
245B
  8
0
  6
CONTINUOUS
 62
     7
 10
187.7641367337545
 20
135.90906042419061
 30
0.0
 11
184.2641367337545
 21
135.90906042419061
 31
0.0
  0
ARC
  5
245C
  8
0
  6
CONTINUOUS
 62
     7
 10
187.7641367337545
 20
136.40906042419061
 30
0.0
 40
0.5
 50
270.0
 51
0.0
  0
LINE
  5
245D
  8
0
  6
CONTINUOUS
 62
     7
 10
188.2641367337545
 20
137.5086795561854
 30
0.0
 11
188.2641367337545
 21
136.40906042419061
 31
0.0
  0
ARC
  5
245E
  8
0
  6
CONTINUOUS
 62
     7
 10
188.56413673375451
 20
137.5086795561854
 30
0.0
 40
0.2999999999999545
 50
89.999999999978314
 51
180.0
  0
ARC
  5
245F
  8
0
  6
CONTINUOUS
 62
     7
 10
174.9141367337491
 20
142.9018253066929
 30
0.0
 40
2.9999999999997371
 50
359.99999999999937
 51
44.99999999999855
  0
ARC
  5
2460
  8
0
  6
CONTINUOUS
 62
     7
 10
174.91413673374879
 20
137.71553380563901
 30
0.0
 40
3.0000000000001492
 50
315.00000000000159
 51
0.0000000000016157
  0
LINE
  5
2461
  8
0
  6
CONTINUOUS
 62
     7
 10
177.9141367337489
 20
137.7155338056391
 30
0.0
 11
177.9141367337489
 21
142.9018253066929
 31
0.0
  0
CIRCLE
  5
2462
  8
0
  6
CONTINUOUS
 62
     7
 10
183.16413673375459
 20
140.30867955617941
 30
0.0
 40
2.5
  0
LINE
  5
2463
  8
0
  6
CONTINUOUS
 62
     7
 10
177.03545707730871
 20
145.02314565025239
 30
0.0
 11
174.4786028277943
 21
147.57999989976651
 31
0.0
  0
LINE
  5
2464
  8
0
  6
CONTINUOUS
 62
     7
 10
183.7641367337543
 20
150.30829868816869
 30
0.0
 11
183.7641367337545
 21
145.2082986881683
 31
0.0
  0
LINE
  5
2465
  8
0
  6
CONTINUOUS
 62
     7
 10
174.4786028278489
 20
133.03735921261961
 30
0.0
 11
177.03545707730859
 21
135.59421346207941
 31
0.0
  0
LINE
  5
2466
  8
0
  6
CONTINUOUS
 62
     7
 10
187.2641367337545
 20
155.30829868816869
 30
0.0
 11
171.16413673375459
 21
155.30867955617941
 31
0.0
  0
ARC
  5
2467
  8
0
  6
CONTINUOUS
 62
     7
 10
187.2641367337545
 20
154.30829868816869
 30
0.0
 40
1.0
 50
270.0
 51
90.0
  0
LINE
  5
2468
  8
0
  6
CONTINUOUS
 62
     7
 10
187.2641367337545
 20
153.30829868816869
 30
0.0
 11
173.2641367337545
 21
153.30829868816869
 31
0.0
  0
LINE
  5
2469
  8
0
  6
CONTINUOUS
 62
     7
 10
194.76375586577029
 20
143.10867955617371
 30
0.0
 11
194.76375586577029
 21
155.0086795561794
 31
0.0
  0
ARC
  5
246A
  8
0
  6
CONTINUOUS
 62
     7
 10
195.16413673375459
 20
152.3086795561795
 30
0.0
 40
3.0
 50
0.0
 51
90.0
  0
ARC
  5
246B
  8
0
  6
CONTINUOUS
 62
     7
 10
194.46375586577039
 20
143.10867955617371
 30
0.0
 40
0.2999999999999545
 50
270.0
 51
0.0
  0
ARC
  5
246C
  8
0
  6
CONTINUOUS
 62
     7
 10
194.46375586577039
 20
137.5086795561854
 30
0.0
 40
0.2999999999999545
 50
0.0
 51
90.0
  0
ARC
  5
246D
  8
0
  6
CONTINUOUS
 62
     7
 10
195.0637558657703
 20
155.0086795561794
 30
0.0
 40
0.3
 50
90.0
 51
180.0
1001
GENIUS_GENODEF_13
1002
{
1000
HIER
1070
     0
1002
}
1002
{
1000
MANEDIT
1070
     0
1002
}
1002
{
1000
NOSEL
1070
     0
1002
}
1002
{
1000
BEHIND
1070
     0
1002
}
1002
{
1000
REACTOR
1002
}
1001
GENIUS_GENOBJ-N-FIL_13
1002
{
1000
OWNER
1000
GEN
1002
}
  0
LINE
  5
246E
  8
0
  6
CONTINUOUS
 62
     7
 10
195.16413673375459
 20
155.30867955617941
 30
0.0
 11
195.0637558657703
 21
155.30867955617941
 31
0.0
  0
LINE
  5
246F
  8
0
  6
CONTINUOUS
 62
     7
 10
195.0637558657703
 20
155.30829868816909
 30
0.0
 11
195.1302394803252
 21
155.30829868816889
 31
0.0
  0
LINE
  5
2470
  8
0
  6
CONTINUOUS
 62
     7
 10
232.67857363911341
 20
155.30867955617941
 30
0.0
 11
232.67857363911341
 21
125.3086795561795
 31
0.0
  0
LINE
  5
2471
  8
0
  6
CONTINUOUS
 62
     7
 10
198.16413673375459
 20
174.8662713762088
 30
0.0
 11
168.16413673375459
 21
174.8662713762088
 31
0.0
  0
POLYLINE
  5
2472
  8
3
 66
     1
 10
0.0
 20
0.0
 30
0.0
 70
     2
  0
VERTEX
  5
2473
  8
3
 10
198.16413673375459
 20
258.93988701935211
 30
0.0
 42
-0.0694894281961134
  0
VERTEX
  5
2474
  8
3
 10
192.18184614282131
 20
256.4197028879907
 30
0.0
 42
-0.1002986337976493
 70
     1
  0
VERTEX
  5
2475
  8
3
 10
187.6691234837314
 20
256.14849588705391
 30
0.0
 42
-0.0926629395096562
  0
VERTEX
  5
2476
  8
3
 10
181.95688237593981
 20
258.07131910429462
 30
0.0
 42
0.0954353839374144
 70
     1
  0
VERTEX
  5
2477
  8
3
 10
176.39753415401219
 20
259.90872091839663
 30
0.0
 42
0.0615883351666633
  0
VERTEX
  5
2478
  8
3
 10
172.8749286141618
 20
259.92946475706378
 30
0.0
 42
0.0449917916451045
 70
     1
  0
VERTEX
  5
2479
  8
3
 10
168.16413673375459
 20
258.93988701935211
 30
0.0
  0
SEQEND
  5
247A
  8
3
  0
LINE
  5
247B
  8
0
  6
CONTINUOUS
 62
     7
 10
168.16413673375459
 20
174.8662713762088
 30
0.0
 11
168.16413673375459
 21
258.93988701935211
 31
0.0
  0
LINE
  5
247C
  8
0
  6
CONTINUOUS
 62
     7
 10
188.26413673375461
 20
174.8662713762088
 30
0.0
 11
188.26413673375461
 21
256.0806153486451
 31
0.0
  0
LINE
  5
247D
  8
0
  6
CONTINUOUS
 62
     7
 10
194.76375586577041
 20
174.8662713762088
 30
0.0
 11
194.76375586577041
 21
257.26930912063381
 31
0.0
  0
LINE
  5
247E
  8
0
  6
CONTINUOUS
 62
     7
 10
198.1641367337545
 20
174.8662713762088
 30
0.0
 11
198.16413673375459
 21
258.93988701935211
 31
0.0
  0
LINE
  5
247F
  8
1
 10
183.16413673375459
 20
263.93988701935211
 30
0.0
 11
183.16413673375459
 21
169.8662713762088
 31
0.0
  0
POLYLINE
  5
2480
  8
3
 66
     1
 10
0.0
 20
0.0
 30
0.0
 70
     2
  0
VERTEX
  5
2481
  8
3
 10
316.75218928225672
 20
155.30867955617941
 30
0.0
 42
0.0694894281961134
  0
VERTEX
  5
2482
  8
3
 10
314.23200515089519
 20
149.3263889652462
 30
0.0
 42
0.1002986337976493
 70
     1
  0
VERTEX
  5
2483
  8
3
 10
313.96079814995841
 20
144.81366630615631
 30
0.0
 42
0.0926629395096562
  0
VERTEX
  5
2484
  8
3
 10
315.88362136719923
 20
139.10142519836469
 30
0.0
 42
-0.0954353839374144
 70
     1
  0
VERTEX
  5
2485
  8
3
 10
317.72102318130118
 20
133.5420769764371
 30
0.0
 42
-0.0615883351666633
  0
VERTEX
  5
2486
  8
3
 10
317.74176701996828
 20
130.01947143658671
 30
0.0
 42
-0.0449917916451045
 70
     1
  0
VERTEX
  5
2487
  8
3
 10
316.75218928225672
 20
125.3086795561795
 30
0.0
  0
SEQEND
  5
2488
  8
3
  0
POLYLINE
  5
2489
  8
3
 66
     1
 10
0.0
 20
0.0
 30
0.0
 70
     2
  0
VERTEX
  5
248A
  8
3
 10
198.16413673375459
 20
21.677472093006831
 30
0.0
 42
0.0694894281961134
  0
VERTEX
  5
248B
  8
3
 10
192.18184614282131
 20
24.197656224368188
 30
0.0
 42
0.1002986337976493
 70
     1
  0
VERTEX
  5
248C
  8
3
 10
187.6691234837314
 20
24.468863225305089
 30
0.0
 42
0.0926629395096562
  0
VERTEX
  5
248D
  8
3
 10
181.95688237593981
 20
22.54604000806432
 30
0.0
 42
-0.0954353839374144
 70
     1
  0
VERTEX
  5
248E
  8
3
 10
176.39753415401219
 20
20.708638193962312
 30
0.0
 42
-0.0615883351666633
  0
VERTEX
  5
248F
  8
3
 10
172.8749286141618
 20
20.68789435529516
 30
0.0
 42
-0.0449917916451045
 70
     1
  0
VERTEX
  5
2490
  8
3
 10
168.16413673375459
 20
21.677472093006831
 30
0.0
  0
SEQEND
  5
2491
  8
3
  0
LINE
  5
2505
  8
1
 10
127.1496998283957
 20
132.3088699901715
 30
0.0
 11
110.1496998283957
 21
132.3088699901715
 31
0.0
  0
LINE
  5
2506
  8
0
  6
CONTINUOUS
 62
     7
 10
187.76413673375441
 20
146.10829868816811
 30
0.0
 11
187.7641367337543
 21
152.50829868816811
 31
0.0
  0
ARC
  5
2507
  8
0
  6
CONTINUOUS
 62
     7
 10
186.96413673375429
 20
152.50829868816811
 30
0.0
 40
0.7999999999999546
 50
0.0
 51
90.0
  0
LINE
  5
2508
  8
0
  6
CONTINUOUS
 62
     7
 10
186.96413673375429
 20
153.30829868816809
 30
0.0
 11
173.66413673375419
 21
153.30829868816809
 31
0.0
  0
ARC
  5
2509
  8
0
  6
CONTINUOUS
 62
     7
 10
173.66413673375419
 20
152.50829868816811
 30
0.0
 40
0.7999999999999546
 50
90.0
 51
180.0
  0
LINE
  5
250A
  8
0
  6
CONTINUOUS
 62
     7
 10
172.86413673375429
 20
152.50829868816811
 30
0.0
 11
172.86413673375429
 21
151.80829868816801
 31
0.0
  0
ARC
  5
250B
  8
0
  6
CONTINUOUS
 62
     7
 10
173.66413673375419
 20
151.80829868816801
 30
0.0
 40
0.7999999999999546
 50
180.0
 51
270.0
  0
LINE
  5
250C
  8
0
  6
CONTINUOUS
 62
     7
 10
173.66413673375419
 20
151.008298688168
 30
0.0
 11
182.96413673375449
 21
151.00829868816811
 31
0.0
  0
ARC
  5
250D
  8
0
  6
CONTINUOUS
 62
     7
 10
182.96413673375449
 20
150.20829868816821
 30
0.0
 40
0.7999999999999546
 50
0.0
 51
90.0
  0
LINE
  5
250E
  8
0
  6
CONTINUOUS
 62
     7
 10
183.7641367337545
 20
150.20829868816821
 30
0.0
 11
183.76413673375441
 21
146.10829868816811
 31
0.0
  0
ARC
  5
250F
  8
0
  6
CONTINUOUS
 62
     7
 10
184.5641367337544
 20
146.10829868816811
 30
0.0
 40
0.8000000000000113
 50
180.00000000000401
 51
270.00000000000409
  0
LINE
  5
2510
  8
0
  6
CONTINUOUS
 62
     7
 10
184.56413673375451
 20
145.30829868816809
 30
0.0
 11
186.96413673375429
 21
145.30829868816809
 31
0.0
  0
ARC
  5
2511
  8
0
  6
CONTINUOUS
 62
     7
 10
186.9641367337544
 20
146.10829868816811
 30
0.0
 40
0.8000000000000113
 50
269.99999999999591
 51
359.99999999999591
  0
LINE
  5
2512
  8
0
  6
CONTINUOUS
 62
     7
 10
187.76413673375441
 20
134.50906042419081
 30
0.0
 11
187.7641367337543
 21
128.10906042419069
 31
0.0
  0
ARC
  5
2513
  8
0
  6
CONTINUOUS
 62
     7
 10
186.96413673375429
 20
128.10906042419069
 30
0.0
 40
0.7999999999999546
 50
270.0
 51
0.0
  0
LINE
  5
2514
  8
0
  6
CONTINUOUS
 62
     7
 10
186.96413673375429
 20
127.3090604241908
 30
0.0
 11
173.66413673375419
 21
127.3090604241908
 31
0.0
  0
ARC
  5
2515
  8
0
  6
CONTINUOUS
 62
     7
 10
173.66413673375419
 20
128.10906042419069
 30
0.0
 40
0.7999999999999546
 50
180.0
 51
270.0
  0
LINE
  5
2516
  8
0
  6
CONTINUOUS
 62
     7
 10
172.86413673375429
 20
128.10906042419069
 30
0.0
 11
172.86413673375429
 21
128.8090604241909
 31
0.0
  0
ARC
  5
2517
  8
0
  6
CONTINUOUS
 62
     7
 10
173.66413673375419
 20
128.8090604241909
 30
0.0
 40
0.7999999999999546
 50
90.0
 51
180.0
  0
LINE
  5
2518
  8
0
  6
CONTINUOUS
 62
     7
 10
173.66413673375419
 20
129.60906042419089
 30
0.0
 11
182.96413673375449
 21
129.6090604241908
 31
0.0
  0
ARC
  5
2519
  8
0
  6
CONTINUOUS
 62
     7
 10
182.96413673375449
 20
130.4090604241907
 30
0.0
 40
0.7999999999999546
 50
270.0
 51
0.0
  0
LINE
  5
251A
  8
0
  6
CONTINUOUS
 62
     7
 10
183.7641367337545
 20
130.4090604241907
 30
0.0
 11
183.76413673375441
 21
134.50906042419081
 31
0.0
  0
ARC
  5
251B
  8
0
  6
CONTINUOUS
 62
     7
 10
184.5641367337544
 20
134.50906042419081
 30
0.0
 40
0.8000000000000113
 50
89.999999999995936
 51
179.99999999999591
  0
LINE
  5
251C
  8
0
  6
CONTINUOUS
 62
     7
 10
184.56413673375451
 20
135.30906042419079
 30
0.0
 11
186.96413673375429
 21
135.30906042419079
 31
0.0
  0
ARC
  5
251D
  8
0
  6
CONTINUOUS
 62
     7
 10
186.9641367337544
 20
134.50906042419081
 30
0.0
 40
0.8000000000000113
 50
0.0000000000040711
 51
90.000000000004064
  0
ARC
  5
251E
  8
3
 10
29.41779802944
 20
143.29452608469509
 30
0.0
 40
23.466921067238442
 50
14.89431018081169
 51
30.79455394903383
  0
ARC
  5
251F
  8
3
 10
41.096811122346381
 20
146.40082931699089
 30
0.0
 40
11.381869698077869
 50
351.98417545328942
 51
14.89431018081177
  0
ARC
  5
2520
  8
3
 10
36.127049697453828
 20
147.10068350212561
 30
0.0
 40
16.400666814997489
 50
330.8078654572605
 51
351.98417545328948
  0
ARC
  5
2521
  8
3
 10
63.956432680967332
 20
131.5523803256811
 30
0.0
 40
15.477606176331649
 50
150.8078654572642
 51
172.61400155651751
  0
ARC
  5
2522
  8
3
 10
62.841636948837063
 20
131.69688999905989
 30
0.0
 40
14.353483153670931
 50
172.61400155651779
 51
186.71120210036489
  0
ARC
  5
2523
  8
3
 10
75.204149256745538
 20
133.1516018743531
 30
0.0
 40
26.801290077113631
 50
186.7112021003652
 51
197.01561200614401
  0
TEXT
  5
263A
  8
0
 62
     3
 10
0.0
 20
0.0
 30
0.0
 40
10.0
  1
L6-CPL3030N2
  7
STANDARD1
  0
ENDSEC
  0
EOF
