  0
SECTION
  2
HEADER
  9
$ACADVER
  1
AC1009
  9
$INSBASE
 10
7.37824081052986
 20
15.90864369846679
 30
0.0
  9
$EXTMIN
 10
0.0
 20
-2.960436562073669
 30
0.0
  9
$EXTMAX
 10
316.75218928225672
 20
263.93988701935211
 30
0.0
  9
$LIMMIN
 10
0.0
 20
0.0
  9
$LIMMAX
 10
385.0
 20
270.0
  9
$ORTHOMODE
 70
     1
  9
$REGENMODE
 70
     1
  9
$FILLMODE
 70
     1
  9
$QTEXTMODE
 70
     0
  9
$MIRRTEXT
 70
     0
  9
$DRAGMODE
 70
     2
  9
$LTSCALE
 40
10.0
  9
$OSMODE
 70
  3071
  9
$ATTMODE
 70
     1
  9
$TEXTSIZE
 40
4.0
  9
$TRACEWID
 40
0.05
  9
$TEXTSTYLE
  7
STANDARD
  9
$CLAYER
  8
0
  9
$CELTYPE
  6
BYLAYER
  9
$CECOLOR
 62
   256
  9
$DIMSCALE
 40
1.0
  9
$DIMASZ
 40
3.0
  9
$DIMEXO
 40
2.0
  9
$DIMDLI
 40
10.0
  9
$DIMRND
 40
0.0
  9
$DIMDLE
 40
0.0
  9
$DIMEXE
 40
2.0
  9
$DIMTP
 40
0.0
  9
$DIMTM
 40
0.0
  9
$DIMTXT
 40
3.0
  9
$DIMCEN
 40
0.09
  9
$DIMTSZ
 40
0.0
  9
$DIMTOL
 70
     0
  9
$DIMLIM
 70
     0
  9
$DIMTIH
 70
     0
  9
$DIMTOH
 70
     0
  9
$DIMSE1
 70
     0
  9
$DIMSE2
 70
     0
  9
$DIMTAD
 70
     1
  9
$DIMZIN
 70
     0
  9
$DIMBLK
  1

  9
$DIMASO
 70
     0
  9
$DIMSHO
 70
     0
  9
$DIMPOST
  1

  9
$DIMAPOST
  1

  9
$DIMALT
 70
     0
  9
$DIMALTD
 70
     2
  9
$DIMALTF
 40
25.399999999999999
  9
$DIMLFAC
 40
1.0
  9
$DIMTOFL
 70
     1
  9
$DIMTVP
 40
1.6000000000000001
  9
$DIMTIX
 70
     1
  9
$DIMSOXD
 70
     0
  9
$DIMSAH
 70
     0
  9
$DIMBLK1
  1

  9
$DIMBLK2
  1

  9
$DIMSTYLE
  2
STANDARD
  9
$DIMCLRD
 70
     0
  9
$DIMCLRE
 70
     0
  9
$DIMCLRT
 70
     0
  9
$DIMTFAC
 40
1.0
  9
$DIMGAP
 40
1.0
  9
$LUNITS
 70
     2
  9
$LUPREC
 70
     2
  9
$SKETCHINC
 40
0.1
  9
$FILLETRAD
 40
0.0
  9
$AUNITS
 70
     0
  9
$AUPREC
 70
     2
  9
$MENU
  1
E:\r13\win\SUPPORT\ACAD
  9
$ELEVATION
 40
0.0
  9
$PELEVATION
 40
0.0
  9
$THICKNESS
 40
0.0
  9
$LIMCHECK
 70
     0
  9
$BLIPMODE
 70
     0
  9
$CHAMFERA
 40
1.0
  9
$CHAMFERB
 40
1.0
  9
$SKPOLY
 70
     0
  9
$TDCREATE
 40
2450252.6853964119
  9
$TDUPDATE
 40
2456597.561664063
  9
$TDINDWG
 40
0.1313304977
  9
$TDUSRTIMER
 40
0.1313305093
  9
$USRTIMER
 70
     1
  9
$ANGBASE
 50
0.0
  9
$ANGDIR
 70
     0
  9
$PDMODE
 70
     0
  9
$PDSIZE
 40
0.0
  9
$PLINEWID
 40
0.0
  9
$COORDS
 70
     1
  9
$SPLFRAME
 70
     0
  9
$SPLINETYPE
 70
     6
  9
$SPLINESEGS
 70
     8
  9
$ATTDIA
 70
     0
  9
$ATTREQ
 70
     1
  9
$HANDLING
 70
     1
  9
$HANDSEED
  5
2565
  9
$SURFTAB1
 70
     6
  9
$SURFTAB2
 70
     6
  9
$SURFTYPE
 70
     6
  9
$SURFU
 70
     6
  9
$SURFV
 70
     6
  9
$UCSNAME
  2

  9
$UCSORG
 10
0.0
 20
0.0
 30
0.0
  9
$UCSXDIR
 10
1.0
 20
0.0
 30
0.0
  9
$UCSYDIR
 10
0.0
 20
1.0
 30
0.0
  9
$PUCSNAME
  2

  9
$PUCSORG
 10
0.0
 20
0.0
 30
0.0
  9
$PUCSXDIR
 10
1.0
 20
0.0
 30
0.0
  9
$PUCSYDIR
 10
0.0
 20
1.0
 30
0.0
  9
$USERI1
 70
     3
  9
$USERI2
 70
     1
  9
$USERI3
 70
     0
  9
$USERI4
 70
     1
  9
$USERI5
 70
     0
  9
$USERR1
 40
1.0
  9
$USERR2
 40
3.0
  9
$USERR3
 40
3.0
  9
$USERR4
 40
3.0
  9
$USERR5
 40
10.0
  9
$WORLDVIEW
 70
     1
  9
$SHADEDGE
 70
     3
  9
$SHADEDIF
 70
    70
  9
$TILEMODE
 70
     1
  9
$MAXACTVP
 70
    16
  9
$PLIMCHECK
 70
     0
  9
$PEXTMIN
 10
1.0000000000000000E+020
 20
1.0000000000000000E+020
 30
1.0000000000000000E+020
  9
$PEXTMAX
 10
-1.0000000000000000E+020
 20
-1.0000000000000000E+020
 30
-1.0000000000000000E+020
  9
$PLIMMIN
 10
0.0
 20
0.0
  9
$PLIMMAX
 10
12.0
 20
9.0
  9
$UNITMODE
 70
     0
  9
$VISRETAIN
 70
     0
  9
$PLINEGEN
 70
     0
  9
$PSLTSCALE
 70
     0
  0
ENDSEC
  0
SECTION
  2
TABLES
  0
TABLE
  2
VPORT
 70
     1
  0
VPORT
  2
*ACTIVE
 70
     0
 10
0.0
 20
0.0
 11
1.0
 21
1.0
 12
192.49412581440311
 22
162.8616388594717
 13
0.0
 23
0.0
 14
5.0
 24
5.0
 15
5.0
 25
5.0
 16
0.0
 26
0.0
 36
1.0
 17
0.0
 27
0.0
 37
0.0
 40
334.81001162774987
 41
1.9089595375722539
 42
50.0
 43
0.0
 44
0.0
 50
0.0
 51
0.0
 71
     0
 72
  1000
 73
     1
 74
     0
 75
     0
 76
     0
 77
     0
 78
     1
  0
ENDTAB
  0
TABLE
  2
LTYPE
 70
     3
  0
LTYPE
  2
CONTINUOUS
 70
     0
  3
Solid Line
 72
    65
 73
     0
 40
0.0
  0
LTYPE
  2
CENTER
 70
     0
  3
____ _ ____ _ ____ _ ____ _ ____ _ ____ _ ____
 72
    65
 73
     4
 40
2.0
 49
1.25
 49
-0.25
 49
0.25
 49
-0.25
  0
LTYPE
  2
PHANTOM2
 70
     0
  3
___ _ _ ___ _ _ ___ _ _ ___ _ _
 72
    65
 73
     6
 40
1.25
 49
0.625
 49
-0.125
 49
0.125
 49
-0.125
 49
0.125
 49
-0.125
  0
ENDTAB
  0
TABLE
  2
LAYER
 70
     3
  0
LAYER
  2
0
 70
     0
 62
     7
  6
CONTINUOUS
  0
LAYER
  2
1
 70
     0
 62
     1
  6
CENTER
  0
LAYER
  2
3
 70
     0
 62
     3
  6
CONTINUOUS
  0
ENDTAB
  0
TABLE
  2
STYLE
 70
     2
  0
STYLE
  2
STANDARD
 70
     0
 40
0.0
 41
1.0
 50
0.0
 71
     0
 42
4.0
  3
simplex
  4
bigfont
  0
STYLE
  2
STANDARD1
 70
     0
 40
0.0
 41
1.0
 50
0.0
 71
     0
 42
3.0
  3
txt
  4

  0
ENDTAB
  0
TABLE
  2
VIEW
 70
     0
  0
ENDTAB
  0
TABLE
  2
UCS
 70
     0
  0
ENDTAB
  0
TABLE
  2
APPID
 70
     9
  0
APPID
  2
ACAD
 70
     0
  0
APPID
  2
GENIUS_GENODEF_13
 70
     0
  0
APPID
  2
GENIUS_GENOENT_13
 70
     0
  0
APPID
  2
GENIUS_GENOBJ_13
 70
     0
  0
APPID
  2
GENIUS_GENOLIS_13
 70
     0
  0
APPID
  2
GENIUS_GENOREF_13
 70
     0
  0
APPID
  2
GENIUS_GENOBJ-N-FIL_13
 70
     0
  0
APPID
  2
ACAD_MLEADERVER
 70
     0
  0
APPID
  2
ACAD_NAV_VCDISPLAY
 70
     0
  0
ENDTAB
  0
TABLE
  2
DIMSTYLE
 70
     1
  0
DIMSTYLE
  2
STANDARD
 70
     0
  3

  4

  5

  6

  7

 40
1.0
 41
0.18
 42
0.0625
 43
0.38
 44
0.18
 45
0.0
 46
0.0
 47
0.0
 48
0.0
140
0.18
141
0.09
142
0.0
143
25.399999999999999
144
1.0
145
0.0
146
1.0
147
0.09
 71
     0
 72
     0
 73
     1
 74
     1
 75
     0
 76
     0
 77
     0
 78
     0
170
     0
171
     2
172
     0
173
     0
174
     0
175
     0
176
     0
177
     0
178
     0
  0
ENDTAB
  0
ENDSEC
  0
SECTION
  2
BLOCKS
  0
BLOCK
  8
0
  2
$MODEL_SPACE
 70
     0
 10
0.0
 20
0.0
 30
0.0
  3
$MODEL_SPACE
  1

  0
ENDBLK
  5
2424
  8
0
  0
BLOCK
 67
     1
  8
0
  2
$PAPER_SPACE
 70
     0
 10
0.0
 20
0.0
 30
0.0
  3
$PAPER_SPACE
  1

  0
ENDBLK
  5
2422
 67
     1
  8
0
  0
ENDSEC
  0
SECTION
  2
ENTITIES
  0
LINE
  5
22F3
  8
0
 10
128.6496998283958
 20
155.30867955617941
 30
0.0
 11
44.576084185252483
 21
155.30867955617941
 31
0.0
  0
LINE
  5
22F4
  8
0
 10
128.6496998283958
 20
137.20867955620659
 30
0.0
 11
44.576084185252483
 21
137.20867955620659
 31
0.0
  0
LINE
  5
22F5
  8
0
 10
128.6496998283958
 20
143.40867955615229
 30
0.0
 11
47.106754914993893
 21
143.40867955615229
 31
0.0
  0
LINE
  5
22F6
  8
1
 10
39.57608418525249
 20
140.30867955617941
 30
0.0
 11
133.64969982839571
 21
140.30867955617941
 31
0.0
  0
LINE
  5
22F7
  8
0
 10
128.6496998283958
 20
125.3086795561795
 30
0.0
 11
44.576084185252483
 21
125.3086795561795
 31
0.0
  0
POLYLINE
  5
22F8
  8
3
 66
     1
 10
0.0
 20
0.0
 30
0.0
 70
     2
  0
VERTEX
  5
22F9
  8
3
 10
44.576084185252483
 20
155.30867955617941
 30
0.0
 42
-0.0694894281961134
  0
VERTEX
  5
22FA
  8
3
 10
47.096268316613902
 20
149.3263889652462
 30
0.0
 42
-0.1002986337976493
 70
     1
  0
VERTEX
  5
22FB
  8
3
 10
47.367475317550742
 20
144.81366630615631
 30
0.0
 42
-0.0926629395096562
  0
VERTEX
  5
22FC
  8
3
 10
45.444652100309952
 20
139.10142519836469
 30
0.0
 42
0.0954353839374144
 70
     1
  0
VERTEX
  5
22FD
  8
3
 10
43.607250286207972
 20
133.5420769764371
 30
0.0
 42
0.0615883351666633
  0
VERTEX
  5
22FE
  8
3
 10
43.586506447540842
 20
130.01947143658671
 30
0.0
 42
0.0449917916451045
 70
     1
  0
VERTEX
  5
22FF
  8
3
 10
44.576084185252483
 20
125.3086795561795
 30
0.0
  0
SEQEND
  5
2300
  8
3
  0
LINE
  5
2301
  8
0
 10
193.1641367337545
 20
99.004579501288504
 30
0.0
 11
193.16413673375459
 21
14.930963858145221
 31
0.0
  0
LINE
  5
2302
  8
0
 10
181.2641367337545
 20
99.004579501288532
 30
0.0
 11
181.2641367337545
 21
17.46163458789292
 31
0.0
  0
LINE
  5
2303
  8
0
 10
175.06413673375471
 20
99.004579501288504
 30
0.0
 11
175.06413673375471
 21
14.904280322081769
 31
0.0
  0
LINE
  5
2304
  8
0
 10
163.16413673375459
 20
99.004579501288504
 30
0.0
 11
163.16413673375459
 21
14.930963858145221
 31
0.0
  0
LINE
  5
2305
  8
1
 10
178.16413673375459
 20
9.9309638581452191
 30
0.0
 11
178.16413673375459
 21
104.0045795012885
 31
0.0
  0
LINE
  5
2306
  8
0
 10
65.149699828395796
 20
147.4424637184031
 30
0.0
 11
65.149699828395796
 21
149.1745145259722
 31
0.0
  0
LINE
  5
2307
  8
0
 10
62.149699828395939
 20
147.4424637184031
 30
0.0
 11
63.64969982839596
 21
146.5764383146186
 31
0.0
  0
LINE
  5
2308
  8
0
 10
62.14969982839559
 20
149.17451452597169
 30
0.0
 11
62.149699828395939
 21
147.4424637184031
 31
0.0
  0
LINE
  5
2309
  8
0
 10
63.649699828395789
 20
150.04053992975631
 30
0.0
 11
62.14969982839559
 21
149.17451452597169
 31
0.0
  0
LINE
  5
230A
  8
0
 10
65.149699828395796
 20
149.1745145259722
 30
0.0
 11
63.649699828395789
 21
150.04053992975631
 31
0.0
  0
CIRCLE
  5
230B
  8
0
 10
63.649699828395789
 20
148.30848912218741
 30
0.0
 40
3.5
  0
CIRCLE
  5
230C
  8
0
 10
63.649699828395789
 20
148.30848912218741
 30
0.0
 40
2.9803847577293112
  0
LINE
  5
230D
  8
0
 10
63.64969982839596
 20
146.5764383146186
 30
0.0
 11
65.149699828395796
 21
147.4424637184031
 31
0.0
  0
LINE
  5
230E
  8
1
 10
72.149699828395754
 20
148.30848912218741
 30
0.0
 11
55.149699828395804
 21
148.30848912218741
 31
0.0
  0
LINE
  5
230F
  8
1
 10
63.649699828395789
 20
156.80848912218741
 30
0.0
 11
63.649699828395789
 21
139.8084891221873
 31
0.0
  0
LINE
  5
2310
  8
0
 10
128.6496998283958
 20
155.30867955617941
 30
0.0
 11
128.6496998283958
 21
125.3086795561795
 31
0.0
  0
LINE
  5
2311
  8
0
 10
112.1496998283959
 20
147.4424637184031
 30
0.0
 11
113.6496998283959
 21
146.5764383146186
 31
0.0
  0
CIRCLE
  5
2312
  8
0
 10
113.6496998283958
 20
148.30848912218741
 30
0.0
 40
3.5
  0
CIRCLE
  5
2313
  8
0
 10
113.6496998283958
 20
148.30848912218741
 30
0.0
 40
2.9803847577293112
  0
LINE
  5
2314
  8
0
 10
113.6496998283958
 20
150.04053992975631
 30
0.0
 11
112.1496998283956
 21
149.17451452597169
 31
0.0
  0
LINE
  5
2315
  8
1
 10
122.1496998283957
 20
148.30848912218741
 30
0.0
 11
105.1496998283958
 21
148.30848912218741
 31
0.0
  0
LINE
  5
2316
  8
0
 10
112.1496998283956
 20
149.17451452597169
 30
0.0
 11
112.1496998283959
 21
147.4424637184031
 31
0.0
  0
LINE
  5
2317
  8
0
 10
115.1496998283958
 20
147.4424637184031
 30
0.0
 11
115.1496998283958
 21
149.1745145259722
 31
0.0
  0
LINE
  5
2318
  8
0
 10
113.6496998283959
 20
146.5764383146186
 30
0.0
 11
115.1496998283958
 21
147.4424637184031
 31
0.0
  0
LINE
  5
2319
  8
0
 10
115.1496998283958
 20
149.1745145259722
 30
0.0
 11
113.6496998283958
 21
150.04053992975631
 31
0.0
  0
LINE
  5
231A
  8
1
 10
113.6496998283958
 20
156.80848912218741
 30
0.0
 11
113.6496998283958
 21
139.8084891221873
 31
0.0
  0
LINE
  5
231B
  8
0
 10
193.16413673375459
 20
99.004579501288504
 30
0.0
 11
163.16413673375459
 21
99.004579501288504
 31
0.0
  0
LINE
  5
231C
  8
0
 10
169.4786028277945
 20
147.57999989976651
 30
0.0
 11
172.03545707730871
 21
145.02314565025219
 31
0.0
  0
LINE
  5
231D
  8
0
 10
178.26413673375441
 20
150.80829868816841
 30
0.0
 11
168.26413673375461
 21
150.80829868816841
 31
0.0
  0
LINE
  5
231E
  8
0
 10
168.26413673375461
 20
153.30829868816841
 30
0.0
 11
182.26413673375461
 21
153.30829868816841
 31
0.0
  0
LINE
  5
231F
  8
0
 10
166.16413673375459
 20
155.30867955617941
 30
0.0
 11
182.26413673375461
 21
155.30829868816841
 31
0.0
  0
POLYLINE
  5
2320
  8
0
 66
     1
 10
0.0
 20
0.0
 30
0.0
 70
     1
  0
VERTEX
  5
2321
  8
0
 10
182.8580981303547
 20
146.0082986881682
 30
0.0
  0
VERTEX
  5
2322
  8
0
 10
182.85809813035459
 20
152.40829868816829
 30
0.0
 42
0.4142135623730873
  0
VERTEX
  5
2323
  8
0
 10
182.05809813035461
 20
153.2082986881683
 30
0.0
  0
VERTEX
  5
2324
  8
0
 10
168.7580981303546
 20
153.2082986881683
 30
0.0
 42
0.4142135623730977
  0
VERTEX
  5
2325
  8
0
 10
167.95809813035461
 20
152.40829868816829
 30
0.0
  0
VERTEX
  5
2326
  8
0
 10
167.95809813035461
 20
151.70829868816821
 30
0.0
 42
0.4142135623730951
  0
VERTEX
  5
2327
  8
0
 10
168.7580981303546
 20
150.9082986881682
 30
0.0
  0
VERTEX
  5
2328
  8
0
 10
178.05809813035489
 20
150.90829868816829
 30
0.0
 42
-0.4142135623731031
  0
VERTEX
  5
2329
  8
0
 10
178.85809813035479
 20
150.10829868816839
 30
0.0
  0
VERTEX
  5
232A
  8
0
 10
178.8580981303547
 20
146.0082986881682
 30
0.0
 42
0.4142135623731022
  0
VERTEX
  5
232B
  8
0
 10
179.6580981303548
 20
145.2082986881683
 30
0.0
  0
VERTEX
  5
232C
  8
0
 10
182.05809813035461
 20
145.2082986881683
 30
0.0
 42
0.4142135623730998
  0
SEQEND
  5
232D
  8
0
  0
LINE
  5
232E
  8
0
 10
170.8928163901677
 20
131.6231456501921
 30
0.0
 11
173.44967063968181
 21
134.1799998997061
 31
0.0
  0
LINE
  5
232F
  8
0
 10
172.03545707730859
 20
135.5942134620793
 30
0.0
 11
169.4786028278489
 21
133.03735921261961
 31
0.0
  0
LINE
  5
2330
  8
0
 10
172.2641367337545
 20
126.8086795561464
 30
0.0
 11
171.01413673372721
 21
126.8086795561467
 31
0.0
  0
LINE
  5
2331
  8
0
 10
166.16413673375459
 20
125.3086795561794
 30
0.0
 11
174.06413673375471
 21
125.3086795561794
 31
0.0
  0
LINE
  5
2332
  8
1
 10
198.16413673375459
 20
140.30867955617941
 30
0.0
 11
158.16413673375459
 21
140.30867955617941
 31
0.0
  0
LINE
  5
2333
  8
0
 10
164.9641367337488
 20
134.70867955615211
 30
0.0
 11
165.86413673374889
 21
134.7086795561523
 31
0.0
  0
LINE
  5
2334
  8
0
 10
166.1641367337489
 20
135.00867955615209
 30
0.0
 11
166.1641367337489
 21
136.40867955615229
 31
0.0
  0
LINE
  5
2335
  8
0
 10
165.36413673374889
 20
137.20867955615239
 30
0.0
 11
164.16413673375439
 21
137.2086795561523
 31
0.0
  0
ARC
  5
2336
  8
0
 10
164.16413673375459
 20
136.2086795561523
 30
0.0
 40
1.0
 50
90.000000000005855
 51
180.0
1001
GENIUS_GENODEF_13
1002
{
1000
HIER
1070
     0
1002
}
1002
{
1000
MANEDIT
1070
     0
1002
}
1002
{
1000
NOSEL
1070
     0
1002
}
1002
{
1000
BEHIND
1070
     0
1002
}
1002
{
1000
REACTOR
1002
}
1001
GENIUS_GENOBJ-N-FIL_13
1002
{
1000
OWNER
1000
GEN
1002
}
  0
ARC
  5
2337
  8
0
 10
165.86413673374889
 20
135.00867955615209
 30
0.0
 40
0.2999999999999261
 50
269.99999999999449
 51
359.99999999999449
  0
ARC
  5
2338
  8
0
 10
165.36413673374889
 20
136.40867955615229
 30
0.0
 40
0.8000000000000326
 50
359.99999999999739
 51
89.999999999994401
  0
ARC
  5
2339
  8
0
 10
167.3572824842895
 20
135.15867955617921
 30
0.0
 40
2.9999999999997899
 50
269.99999999999659
 51
314.99999999999659
  0
ARC
  5
233A
  8
0
 10
168.21413673372729
 20
130.35867955617491
 30
0.0
 40
0.2999999999999545
 50
0.0
 51
89.999999999869729
  0
ARC
  5
233B
  8
0
 10
165.6641367337489
 20
133.15867955617929
 30
0.0
 40
1.0
 50
180.0
 51
270.0
  0
LINE
  5
233C
  8
0
 10
164.6641367337489
 20
133.15867955617929
 30
0.0
 11
164.6641367337489
 21
134.40867955615209
 31
0.0
  0
ARC
  5
233D
  8
0
 10
164.9641367337272
 20
130.3586795561821
 30
0.0
 40
0.2999999999999545
 50
89.999999999869729
 51
180.0
  0
LINE
  5
233E
  8
0
 10
167.35728248428941
 20
132.15867955617941
 30
0.0
 11
165.6641367337489
 21
132.15867955617941
 31
0.0
  0
LINE
  5
233F
  8
0
 10
164.96413673372791
 20
130.65867955618211
 30
0.0
 11
168.214136733728
 21
130.6586795561748
 31
0.0
  0
ARC
  5
2340
  8
0
 10
164.9641367337488
 20
134.40867955615209
 30
0.0
 40
0.2999999999999829
 50
90.000000000005429
 51
180.0000000000054
  0
ARC
  5
2341
  8
0
 10
173.01413673372741
 20
129.5018253066323
 30
0.0
 40
3.0000000000002061
 50
134.99999999999901
 51
179.99999999999901
  0
ARC
  5
2342
  8
0
 10
168.21413673372729
 20
127.1086795561794
 30
0.0
 40
0.2999999999999545
 50
270.0
 51
0.0
  0
ARC
  5
2343
  8
0
 10
166.1641367337273
 20
128.3086795561795
 30
0.0
 40
1.5
 50
180.0
 51
270.0
  0
ARC
  5
2344
  8
0
 10
166.16413673375459
 20
128.3086795561795
 30
0.0
 40
3.0
 50
180.0
 51
270.0
  0
LINE
  5
2345
  8
0
 10
168.21413673372729
 20
126.8086795561794
 30
0.0
 11
166.1641367337273
 21
126.8086795561794
 31
0.0
  0
ARC
  5
2346
  8
0
 10
171.01413673372721
 20
127.8086795561467
 30
0.0
 40
1.0
 50
180.0
 51
270.0
  0
LINE
  5
2347
  8
0
 10
170.01413673372721
 20
127.8086795561467
 30
0.0
 11
170.01413673372721
 21
129.50182530663241
 31
0.0
  0
LINE
  5
2348
  8
0
 10
163.16413673375459
 20
136.2086795561523
 30
0.0
 11
163.16413673375459
 21
128.3086795561795
 31
0.0
  0
LINE
  5
2349
  8
0
 10
164.6641367337273
 20
128.3086795561795
 30
0.0
 11
164.6641367337273
 21
130.3586795561821
 31
0.0
  0
LINE
  5
234A
  8
0
 10
168.51413673372721
 20
130.35867955617491
 30
0.0
 11
168.51413673372721
 21
127.1086795561794
 31
0.0
  0
ARC
  5
234B
  8
0
 10
168.26413673375461
 20
151.30829868816841
 30
0.0
 40
0.5
 50
180.0
 51
270.00000000000023
  0
LINE
  5
234C
  8
0
 10
167.76413673375461
 20
151.30829868816841
 30
0.0
 11
167.76413673375461
 21
152.80829868816849
 31
0.0
  0
ARC
  5
234D
  8
0
 10
168.26413673375461
 20
152.80829868816849
 30
0.0
 40
0.5
 50
90.0
 51
180.0
  0
ARC
  5
234F
  8
0
 10
166.16413673375459
 20
152.3086795561795
 30
0.0
 40
3.0
 50
89.999999999999986
 51
180.0
  0
ARC
  5
2350
  8
0
 10
167.35728248423479
 20
145.45867955620679
 30
0.0
 40
3.0000000000000031
 50
45.000000000000497
 51
90.000000000000625
  0
LINE
  5
2351
  8
0
 10
165.86413673374889
 20
145.90867955615209
 30
0.0
 11
164.9641367337488
 21
145.90867955615229
 31
0.0
  0
ARC
  5
2352
  8
0
 10
164.9641367337488
 20
146.2086795561523
 30
0.0
 40
0.2999999999999545
 50
180.0
 51
270.0
  0
LINE
  5
2353
  8
0
 10
164.6641367337489
 20
146.2086795561523
 30
0.0
 11
164.6641367337489
 21
147.45867955620659
 31
0.0
  0
ARC
  5
2354
  8
0
 10
165.6641367337489
 20
147.45867955620659
 30
0.0
 40
0.9999999999999786
 50
89.999999999998764
 51
180.00000000000119
  0
ARC
  5
2355
  8
0
 10
165.86413673374889
 20
145.60867955615211
 30
0.0
 40
0.2999999999999545
 50
0.0
 51
90.0
  0
LINE
  5
2356
  8
0
 10
165.6641367337489
 20
148.45867955620659
 30
0.0
 11
167.35728248423479
 21
148.45867955620679
 31
0.0
  0
LINE
  5
2357
  8
0
 10
164.16413673375479
 20
143.40867955615209
 30
0.0
 11
165.36413673374889
 21
143.40867955615229
 31
0.0
  0
ARC
  5
2358
  8
0
 10
164.16413673375459
 20
144.40867955615209
 30
0.0
 40
1.0
 50
180.0
 51
270.00000000001171
1001
GENIUS_GENODEF_13
1002
{
1000
HIER
1070
     0
1002
}
1002
{
1000
MANEDIT
1070
     0
1002
}
1002
{
1000
NOSEL
1070
     0
1002
}
1002
{
1000
BEHIND
1070
     0
1002
}
1002
{
1000
REACTOR
1002
}
1001
GENIUS_GENOBJ-N-FIL_13
1002
{
1000
OWNER
1000
GEN
1002
}
  0
ARC
  5
2359
  8
0
 10
165.36413673374889
 20
144.2086795561523
 30
0.0
 40
0.7999999999999546
 50
270.0
 51
0.0
  0
LINE
  5
235A
  8
0
 10
166.1641367337489
 20
144.2086795561523
 30
0.0
 11
166.1641367337489
 21
145.60867955615211
 31
0.0
  0
LINE
  5
235B
  8
0
 10
163.16413673375459
 20
152.3086795561795
 30
0.0
 11
163.16413673375459
 21
144.40867955615209
 31
0.0
  0
LINE
  5
235C
  8
0
 10
193.16413673375459
 20
152.3086795561795
 30
0.0
 11
193.16413673375459
 21
128.3086795561795
 31
0.0
  0
LINE
  5
235D
  8
0
 10
183.26413673375461
 20
139.8086795561795
 30
0.0
 11
183.26413673375461
 21
144.7082986881683
 31
0.0
  0
LINE
  5
235E
  8
0
 10
189.76375586577041
 20
155.00829868816891
 30
0.0
 11
189.76375586577041
 21
139.8086795561795
 31
0.0
  0
LINE
  5
235F
  8
1
 10
178.16413673375459
 20
160.30867955617941
 30
0.0
 11
178.16413673375459
 21
120.3086795561794
 31
0.0
  0
CIRCLE
  5
2360
  8
0
 10
178.16413673375459
 20
140.30867955617941
 30
0.0
 40
2.5
  0
LINE
  5
2361
  8
0
 10
172.9141367337489
 20
142.90182530669259
 30
0.0
 11
172.9141367337489
 21
137.7155338056389
 31
0.0
  0
ARC
  5
2362
  8
0
 10
190.16413673375459
 20
134.8086795561795
 30
0.0
 40
1.5
 50
0.0
 51
90.0
  0
ARC
  5
2363
  8
0
 10
190.16413673375459
 20
128.30867955615221
 30
0.0
 40
1.5
 50
270.0
 51
0.0
  0
ARC
  5
2364
  8
0
 10
190.16413673375459
 20
128.3086795561795
 30
0.0
 40
3.0
 50
270.0
 51
0.0
  0
LINE
  5
2365
  8
0
 10
190.16413673375459
 20
136.30867955617941
 30
0.0
 11
189.314136733769
 21
136.30867955617941
 31
0.0
  0
ARC
  5
2366
  8
0
 10
189.314136733769
 20
134.8086795561795
 30
0.0
 40
1.5
 50
90.0
 51
179.99999999986969
  0
ARC
  5
2367
  8
0
 10
183.31413673375459
 20
129.50182530668701
 30
0.0
 40
3.0000000000001128
 50
359.9999999999992
 51
44.999999999998629
  0
ARC
  5
2368
  8
0
 10
180.7572824842953
 20
132.05867955614659
 30
0.0
 40
2.999999999999833
 50
45.00000000000221
 51
90.000000000001975
  0
LINE
  5
2369
  8
0
 10
182.87860282785471
 20
134.1799998997063
 30
0.0
 11
185.43545707731431
 21
131.62314565024661
 31
0.0
  0
LINE
  5
236A
  8
0
 10
188.26375586577041
 20
138.30867955617941
 30
0.0
 11
184.76413673375461
 21
138.30867955617941
 31
0.0
  0
LINE
  5
236B
  8
0
 10
189.31413673375471
 20
126.8086795561522
 30
0.0
 11
190.16413673375459
 21
126.8086795561522
 31
0.0
  0
ARC
  5
236C
  8
0
 10
185.31413673375471
 20
127.8086795561464
 30
0.0
 40
0.9999999999999715
 50
269.99999999999841
 51
0.0000000000016284
  0
ARC
  5
236D
  8
0
 10
189.31413673375471
 20
128.30867955615221
 30
0.0
 40
1.500000000000056
 50
179.9999999998719
 51
269.99999999999778
  0
ARC
  5
236E
  8
0
 10
184.06413673375431
 20
127.1086795561465
 30
0.0
 40
0.2999999999998408
 50
180.00000000002171
 51
270.00000000002171
  0
LINE
  5
236F
  8
0
 10
183.7641367337545
 20
127.1086795561464
 30
0.0
 11
183.7641367337545
 21
128.00867955614649
 31
0.0
  0
ARC
  5
2370
  8
0
 10
183.46413673375449
 20
128.00867955614649
 30
0.0
 40
0.2999999999999545
 50
0.0
 51
90.0
  0
LINE
  5
2371
  8
0
 10
183.46413673375449
 20
128.3086795561465
 30
0.0
 11
182.06413673375451
 21
128.3086795561465
 31
0.0
  0
LINE
  5
2372
  8
0
 10
181.2641367337545
 20
127.5086795561465
 30
0.0
 11
181.2641367337545
 21
126.3086795561795
 31
0.0
  0
ARC
  5
2373
  8
0
 10
182.06413673375451
 20
127.5086795561465
 30
0.0
 40
0.7999999999999546
 50
90.0
 51
180.0
  0
ARC
  5
2374
  8
0
 10
182.2641367337545
 20
126.3086795561795
 30
0.0
 40
1.0
 50
180.0
 51
270.0
1001
GENIUS_GENODEF_13
1002
{
1000
HIER
1070
     0
1002
}
1002
{
1000
MANEDIT
1070
     0
1002
}
1002
{
1000
NOSEL
1070
     0
1002
}
1002
{
1000
BEHIND
1070
     0
1002
}
1002
{
1000
REACTOR
1002
}
1001
GENIUS_GENOBJ-N-FIL_13
1002
{
1000
OWNER
1000
GEN
1002
}
  0
LINE
  5
2375
  8
0
 10
185.31413673375471
 20
126.8086795561465
 30
0.0
 11
184.06413673375451
 21
126.8086795561467
 31
0.0
  0
LINE
  5
2376
  8
0
 10
182.2641367337545
 20
125.3086795561794
 30
0.0
 11
190.16413673375459
 21
125.3086795561794
 31
0.0
  0
LINE
  5
2377
  8
0
 10
186.31413673375471
 20
129.5018253066869
 30
0.0
 11
186.31413673375471
 21
127.8086795561465
 31
0.0
  0
LINE
  5
2378
  8
0
 10
187.814136733769
 20
134.8086795561828
 30
0.0
 11
187.81413673375471
 21
128.3086795561556
 31
0.0
  0
ARC
  5
2379
  8
0
 10
169.9141367337489
 20
137.7155338056389
 30
0.0
 40
2.9999999999999201
 50
314.99999999999989
 51
0.0000000000002036
  0
ARC
  5
237A
  8
0
 10
175.5709909832413
 20
132.05867955614659
 30
0.0
 40
2.9999999999998588
 50
90.000000000000398
 51
135.0000000000006
  0
LINE
  5
237B
  8
0
 10
175.06413673375471
 20
126.3086795561795
 30
0.0
 11
175.06413673375471
 21
127.5086795561465
 31
0.0
  0
ARC
  5
237C
  8
0
 10
174.26413673375461
 20
127.5086795561464
 30
0.0
 40
0.8000000000000966
 50
0.0000000000061067
 51
90.000000000006125
  0
ARC
  5
237D
  8
0
 10
174.06413673375471
 20
126.3086795561795
 30
0.0
 40
1.0
 50
270.0
 51
0.0
1001
GENIUS_GENODEF_13
1002
{
1000
HIER
1070
     0
1002
}
1002
{
1000
MANEDIT
1070
     0
1002
}
1002
{
1000
NOSEL
1070
     0
1002
}
1002
{
1000
BEHIND
1070
     0
1002
}
1002
{
1000
REACTOR
1002
}
1001
GENIUS_GENOBJ-N-FIL_13
1002
{
1000
OWNER
1000
GEN
1002
}
  0
ARC
  5
237E
  8
0
 10
172.86413673375461
 20
128.00867955614649
 30
0.0
 40
0.2999999999999545
 50
90.0
 51
180.0
  0
LINE
  5
237F
  8
0
 10
172.56413673375471
 20
128.00867955614649
 30
0.0
 11
172.56413673375471
 21
127.1086795561464
 31
0.0
  0
ARC
  5
2380
  8
0
 10
172.26413673375461
 20
127.1086795561465
 30
0.0
 40
0.3000000000000966
 50
269.9999999999838
 51
359.99999999998369
  0
LINE
  5
2381
  8
0
 10
174.2641367337545
 20
128.3086795561465
 30
0.0
 11
172.86413673375461
 21
128.3086795561465
 31
0.0
  0
LINE
  5
2382
  8
0
 10
175.5709909832413
 20
135.0586795561465
 30
0.0
 11
180.7572824842951
 21
135.0586795561465
 31
0.0
  0
ARC
  5
2383
  8
0
 10
188.26375586577041
 20
139.8086795561795
 30
0.0
 40
1.499999999999992
 50
269.99999999999977
 51
0.0000000000003393
  0
ARC
  5
2384
  8
0
 10
184.76413673375461
 20
139.8086795561795
 30
0.0
 40
1.5
 50
180.0
 51
270.0
  0
LINE
  5
2385
  8
0
 10
191.66413673375459
 20
128.30867955615221
 30
0.0
 11
191.66413673375459
 21
134.8086795561795
 31
0.0
  0
ARC
  5
2386
  8
0
 10
190.16413673375459
 20
152.3086795561795
 30
0.0
 40
3.0
 50
0.0
 51
90.0
  0
LINE
  5
2387
  8
0
 10
190.1302394803254
 20
155.30829868816889
 30
0.0
 11
190.06375586577039
 21
155.30829868816889
 31
0.0
  0
ARC
  5
2388
  8
0
 10
190.06375586577039
 20
155.00829868816891
 30
0.0
 40
0.2999999999999829
 50
90.000000000005429
 51
180.0000000000054
  0
ARC
  5
2389
  8
0
 10
182.26413673375461
 20
154.30829868816841
 30
0.0
 40
1.0
 50
270.0
 51
90.0
  0
LINE
  5
238B
  8
0
 10
178.7641367337545
 20
145.7082986881683
 30
0.0
 11
178.76413673375441
 21
150.30829868816841
 31
0.0
  0
ARC
  5
238C
  8
0
 10
179.2641367337545
 20
145.70829868816841
 30
0.0
 40
0.500000000000057
 50
180.00000000000651
 51
270.00000000000648
  0
LINE
  5
238D
  8
0
 10
182.76413673375461
 20
145.2082986881683
 30
0.0
 11
179.26413673375461
 21
145.2082986881683
 31
0.0
  0
ARC
  5
238E
  8
0
 10
182.76413673375461
 20
144.7082986881683
 30
0.0
 40
0.5
 50
0.0
 51
90.0
  0
ARC
  5
238F
  8
0
 10
178.26413673375441
 20
150.30829868816841
 30
0.0
 40
0.5
 50
0.0
 51
90.0
  0
ARC
  5
2390
  8
0
 10
169.91413673374899
 20
142.90182530669281
 30
0.0
 40
2.9999999999999001
 50
359.9999999999975
 51
44.999999999997272
  0
LINE
  5
2391
  8
0
 10
193.1641367337545
 20
174.8662713762088
 30
0.0
 11
193.16413673375459
 21
258.93988701935211
 31
0.0
  0
LINE
  5
2392
  8
0
 10
183.26413673375461
 20
174.8662713762088
 30
0.0
 11
183.26413673375461
 21
256.0806153486451
 31
0.0
  0
LINE
  5
2393
  8
0
 10
189.76375586577041
 20
174.8662713762088
 30
0.0
 11
189.76375586577041
 21
257.26930912063381
 31
0.0
  0
LINE
  5
2394
  8
1
 10
178.16413673375459
 20
263.93988701935211
 30
0.0
 11
178.16413673375459
 21
169.8662713762088
 31
0.0
  0
LINE
  5
2395
  8
0
 10
163.16413673375459
 20
174.8662713762088
 30
0.0
 11
163.16413673375459
 21
258.93988701935211
 31
0.0
  0
LINE
  5
2396
  8
0
 10
193.16413673375459
 20
174.8662713762088
 30
0.0
 11
163.16413673375459
 21
174.8662713762088
 31
0.0
  0
POLYLINE
  5
2397
  8
3
 66
     1
 10
0.0
 20
0.0
 30
0.0
 70
     2
  0
VERTEX
  5
2398
  8
3
 10
193.16413673375459
 20
258.93988701935211
 30
0.0
 42
-0.0694894281961134
  0
VERTEX
  5
2399
  8
3
 10
187.18184614282131
 20
256.4197028879907
 30
0.0
 42
-0.1002986337976493
 70
     1
  0
VERTEX
  5
239A
  8
3
 10
182.6691234837314
 20
256.14849588705391
 30
0.0
 42
-0.0926629395096562
  0
VERTEX
  5
239B
  8
3
 10
176.95688237593981
 20
258.07131910429462
 30
0.0
 42
0.0954353839374144
 70
     1
  0
VERTEX
  5
239C
  8
3
 10
171.39753415401219
 20
259.90872091839663
 30
0.0
 42
0.0615883351666633
  0
VERTEX
  5
239D
  8
3
 10
167.8749286141618
 20
259.92946475706378
 30
0.0
 42
0.0449917916451045
 70
     1
  0
VERTEX
  5
239E
  8
3
 10
163.16413673375459
 20
258.93988701935211
 30
0.0
  0
SEQEND
  5
239F
  8
3
  0
LINE
  5
23A0
  8
0
 10
227.67857363911349
 20
155.30867955617941
 30
0.0
 11
311.75218928225672
 21
155.30867955617941
 31
0.0
  0
LINE
  5
23A1
  8
0
 10
227.67857363911349
 20
125.3086795561795
 30
0.0
 11
311.75218928225672
 21
125.3086795561795
 31
0.0
  0
LINE
  5
23A2
  8
1
 10
316.75218928225672
 20
140.30867955617941
 30
0.0
 11
222.67857363911341
 21
140.30867955617941
 31
0.0
  0
LINE
  5
23A3
  8
0
 10
227.67857363911349
 20
155.30867955617941
 30
0.0
 11
227.67857363911349
 21
125.3086795561795
 31
0.0
  0
POLYLINE
  5
23A4
  8
3
 66
     1
 10
0.0
 20
0.0
 30
0.0
 70
     2
  0
VERTEX
  5
23A5
  8
3
 10
311.75218928225672
 20
155.30867955617941
 30
0.0
 42
0.0694894281961134
  0
VERTEX
  5
23A6
  8
3
 10
309.2320051508953
 20
149.3263889652462
 30
0.0
 42
0.1002986337976493
 70
     1
  0
VERTEX
  5
23A7
  8
3
 10
308.96079814995852
 20
144.81366630615631
 30
0.0
 42
0.0926629395096562
  0
VERTEX
  5
23A8
  8
3
 10
310.88362136719923
 20
139.10142519836469
 30
0.0
 42
-0.0954353839374144
 70
     1
  0
VERTEX
  5
23A9
  8
3
 10
312.72102318130129
 20
133.5420769764371
 30
0.0
 42
-0.0615883351666633
  0
VERTEX
  5
23AA
  8
3
 10
312.74176701996839
 20
130.01947143658671
 30
0.0
 42
-0.0449917916451045
 70
     1
  0
VERTEX
  5
23AB
  8
3
 10
311.75218928225672
 20
125.3086795561795
 30
0.0
  0
SEQEND
  5
23AC
  8
3
  0
POLYLINE
  5
23AD
  8
3
 66
     1
 10
0.0
 20
0.0
 30
0.0
 70
     2
  0
VERTEX
  5
23AE
  8
3
 10
193.16413673375459
 20
14.930963858145221
 30
0.0
 42
0.0694894281961134
  0
VERTEX
  5
23AF
  8
3
 10
187.18184614282131
 20
17.451147989506609
 30
0.0
 42
0.1002986337976493
 70
     1
  0
VERTEX
  5
23B0
  8
3
 10
182.6691234837314
 20
17.722354990443499
 30
0.0
 42
0.0926629395096562
  0
VERTEX
  5
23B1
  8
3
 10
176.95688237593981
 20
15.799531773202689
 30
0.0
 42
-0.0954353839374144
 70
     1
  0
VERTEX
  5
23B2
  8
3
 10
171.39753415401219
 20
13.962129959100711
 30
0.0
 42
-0.0615883351666633
  0
VERTEX
  5
23B3
  8
3
 10
167.8749286141618
 20
13.941386120433551
 30
0.0
 42
-0.0449917916451045
 70
     1
  0
VERTEX
  5
23B4
  8
3
 10
163.16413673375459
 20
14.930963858145221
 30
0.0
  0
SEQEND
  5
23B5
  8
3
  0
TEXT
  5
24D7
  8
0
 62
     3
 10
0.0
 20
0.0
 30
0.0
 40
10.0
  1
L6-CPL3030N-3M
  7
STANDARD1
  0
ENDSEC
  0
EOF
