  0
SECTION
  2
HEADER
  9
$ACADVER
  1
AC1009
  9
$INSBASE
 10
0.0
 20
0.0
 30
0.0
  9
$EXTMIN
 10
0.0
 20
-2.960436562073669
 30
0.0
  9
$EXTMAX
 10
271.24999996274698
 20
127.1271591453504
 30
0.0
  9
$LIMMIN
 10
0.0
 20
0.0
  9
$LIMMAX
 10
375.0
 20
270.0
  9
$ORTHOMODE
 70
     1
  9
$REGENMODE
 70
     1
  9
$FILLMODE
 70
     1
  9
$QTEXTMODE
 70
     0
  9
$MIRRTEXT
 70
     0
  9
$DRAGMODE
 70
     2
  9
$LTSCALE
 40
6.0
  9
$OSMODE
 70
    37
  9
$ATTMODE
 70
     1
  9
$TEXTSIZE
 40
0.2
  9
$TRACEWID
 40
0.05
  9
$TEXTSTYLE
  7
STANDARD
  9
$CLAYER
  8
0
  9
$CELTYPE
  6
BYLAYER
  9
$CECOLOR
 62
   256
  9
$DIMSCALE
 40
1.0
  9
$DIMASZ
 40
3.0
  9
$DIMEXO
 40
1.0
  9
$DIMDLI
 40
6.0
  9
$DIMRND
 40
0.0
  9
$DIMDLE
 40
0.0
  9
$DIMEXE
 40
1.0
  9
$DIMTP
 40
495.0
  9
$DIMTM
 40
0.0
  9
$DIMTXT
 40
3.0
  9
$DIMCEN
 40
0.0
  9
$DIMTSZ
 40
0.0
  9
$DIMTOL
 70
     0
  9
$DIMLIM
 70
     0
  9
$DIMTIH
 70
     0
  9
$DIMTOH
 70
     0
  9
$DIMSE1
 70
     0
  9
$DIMSE2
 70
     0
  9
$DIMTAD
 70
     1
  9
$DIMZIN
 70
     0
  9
$DIMBLK
  1

  9
$DIMASO
 70
     0
  9
$DIMSHO
 70
     0
  9
$DIMPOST
  1

  9
$DIMAPOST
  1

  9
$DIMALT
 70
     0
  9
$DIMALTD
 70
     2
  9
$DIMALTF
 40
25.399999999999999
  9
$DIMLFAC
 40
1.0
  9
$DIMTOFL
 70
     1
  9
$DIMTVP
 40
0.0
  9
$DIMTIX
 70
     1
  9
$DIMSOXD
 70
     0
  9
$DIMSAH
 70
     0
  9
$DIMBLK1
  1

  9
$DIMBLK2
  1

  9
$DIMSTYLE
  2
STANDARD
  9
$DIMCLRD
 70
     0
  9
$DIMCLRE
 70
     0
  9
$DIMCLRT
 70
     4
  9
$DIMTFAC
 40
1.0
  9
$DIMGAP
 40
1.0
  9
$LUNITS
 70
     2
  9
$LUPREC
 70
     4
  9
$SKETCHINC
 40
0.1
  9
$FILLETRAD
 40
2.0
  9
$AUNITS
 70
     0
  9
$AUPREC
 70
     0
  9
$MENU
  1
C:\R13\WIN\SUPPORT\ACAD-I
  9
$ELEVATION
 40
0.0
  9
$PELEVATION
 40
0.0
  9
$THICKNESS
 40
0.0
  9
$LIMCHECK
 70
     0
  9
$BLIPMODE
 70
     0
  9
$CHAMFERA
 40
0.0
  9
$CHAMFERB
 40
0.0
  9
$SKPOLY
 70
     0
  9
$TDCREATE
 40
2450834.7095229169
  9
$TDUPDATE
 40
2458753.3954296759
  9
$TDINDWG
 40
0.0787167245
  9
$TDUSRTIMER
 40
0.0787167245
  9
$USRTIMER
 70
     1
  9
$ANGBASE
 50
0.0
  9
$ANGDIR
 70
     0
  9
$PDMODE
 70
     0
  9
$PDSIZE
 40
0.0
  9
$PLINEWID
 40
0.0
  9
$COORDS
 70
     1
  9
$SPLFRAME
 70
     0
  9
$SPLINETYPE
 70
     6
  9
$SPLINESEGS
 70
     8
  9
$ATTDIA
 70
     0
  9
$ATTREQ
 70
     1
  9
$HANDLING
 70
     1
  9
$HANDSEED
  5
10C1
  9
$SURFTAB1
 70
     6
  9
$SURFTAB2
 70
     6
  9
$SURFTYPE
 70
     6
  9
$SURFU
 70
     6
  9
$SURFV
 70
     6
  9
$UCSNAME
  2

  9
$UCSORG
 10
0.0
 20
0.0
 30
0.0
  9
$UCSXDIR
 10
1.0
 20
0.0
 30
0.0
  9
$UCSYDIR
 10
0.0
 20
1.0
 30
0.0
  9
$PUCSNAME
  2

  9
$PUCSORG
 10
0.0
 20
0.0
 30
0.0
  9
$PUCSXDIR
 10
1.0
 20
0.0
 30
0.0
  9
$PUCSYDIR
 10
0.0
 20
1.0
 30
0.0
  9
$USERI1
 70
     4
  9
$USERI2
 70
     1
  9
$USERI3
 70
     0
  9
$USERI4
 70
     0
  9
$USERI5
 70
     0
  9
$USERR1
 40
1.0
  9
$USERR2
 40
3.0
  9
$USERR3
 40
3.0
  9
$USERR4
 40
3.0
  9
$USERR5
 40
10.0
  9
$WORLDVIEW
 70
     1
  9
$SHADEDGE
 70
     3
  9
$SHADEDIF
 70
    70
  9
$TILEMODE
 70
     1
  9
$MAXACTVP
 70
    16
  9
$PLIMCHECK
 70
     0
  9
$PEXTMIN
 10
1.0000000000000000E+020
 20
1.0000000000000000E+020
 30
1.0000000000000000E+020
  9
$PEXTMAX
 10
-1.0000000000000000E+020
 20
-1.0000000000000000E+020
 30
-1.0000000000000000E+020
  9
$PLIMMIN
 10
0.0
 20
0.0
  9
$PLIMMAX
 10
12.0
 20
9.0
  9
$UNITMODE
 70
     0
  9
$VISRETAIN
 70
     0
  9
$PLINEGEN
 70
     0
  9
$PSLTSCALE
 70
     0
  0
ENDSEC
  0
SECTION
  2
TABLES
  0
TABLE
  2
VPORT
 70
     1
  0
VPORT
  2
*ACTIVE
 70
     0
 10
0.0
 20
0.0
 11
1.0
 21
1.0
 12
362.34662576687123
 22
150.0
 13
0.0
 23
0.0
 14
10.0
 24
10.0
 15
10.0
 25
10.0
 16
0.0
 26
0.0
 36
1.0
 17
0.0
 27
0.0
 37
0.0
 40
300.0
 41
2.415644171779141
 42
50.0
 43
0.0
 44
0.0
 50
0.0
 51
0.0
 71
     0
 72
   100
 73
     1
 74
     0
 75
     0
 76
     0
 77
     0
 78
     0
  0
ENDTAB
  0
TABLE
  2
LTYPE
 70
     3
  0
LTYPE
  2
CONTINUOUS
 70
     0
  3
Solid Line
 72
    65
 73
     0
 40
0.0
  0
LTYPE
  2
CENTER
 70
     0
  3
____ _ ____ _ ____ _ ____ _ ____ _ ____ _ ____
 72
    65
 73
     4
 40
2.0
 49
1.25
 49
-0.25
 49
0.25
 49
-0.25
  0
LTYPE
  2
PHANTOM2
 70
     0
  3
___ _ _ ___ _ _ ___ _ _ ___ _ _
 72
    65
 73
     6
 40
1.25
 49
0.625
 49
-0.125
 49
0.125
 49
-0.125
 49
0.125
 49
-0.125
  0
ENDTAB
  0
TABLE
  2
LAYER
 70
     3
  0
LAYER
  2
0
 70
     0
 62
     7
  6
CONTINUOUS
  0
LAYER
  2
3
 70
     0
 62
     3
  6
CONTINUOUS
  0
LAYER
  2
1
 70
     0
 62
     1
  6
CENTER
  0
ENDTAB
  0
TABLE
  2
STYLE
 70
     2
  0
STYLE
  2
STANDARD
 70
     0
 40
0.0
 41
1.0
 50
0.0
 71
     0
 42
0.2
  3
SIMPLEX
  4
BIGFONT
  0
STYLE
  2
STANDARD1
 70
     0
 40
0.0
 41
1.0
 50
0.0
 71
     0
 42
3.0
  3
txt
  4

  0
ENDTAB
  0
TABLE
  2
VIEW
 70
     0
  0
ENDTAB
  0
TABLE
  2
UCS
 70
     0
  0
ENDTAB
  0
TABLE
  2
APPID
 70
    28
  0
APPID
  2
ACAD
 70
     0
  0
APPID
  2
GENIUS_GENOREF_13
 70
     0
  0
APPID
  2
GENIUS_GENOENT_13
 70
     0
  0
APPID
  2
GENIUS_GENBH_13
 70
     0
  0
APPID
  2
GENIUS_GENOBJ_13
 70
     0
  0
APPID
  2
GENIUS_GENODEF_13
 70
     0
  0
APPID
  2
GENIUS_GENOLIS_13
 70
     0
  0
APPID
  2
GENIUS_GENOBJ-NBEHI-BHF_13
 70
     0
  0
APPID
  2
GENIUS_GENOBJ-NBEHI-BHB_13
 70
     0
  0
APPID
  2
GENIUS_GENOBJ-F-PART_13
 70
     0
  0
APPID
  2
GENIUS_GEFSTDP_13
 70
     0
  0
APPID
  2
GENIUS_GENOBJ-N-RSSYM_13
 70
     0
  0
APPID
  2
GENIUS_GENSYMENT_13
 70
     0
  0
APPID
  2
GENIUS_GENOBJ-N-TIT_13
 70
     0
  0
APPID
  2
GENIUS_GENTITLE_13
 70
     0
  0
APPID
  2
GENIUS_GENZVEED_13
 70
     0
  0
APPID
  2
GENIUS_GENOBJ-N-LEADER_13
 70
     0
  0
APPID
  2
GENIUS_GENOBJ-N-FIL_13
 70
     0
  0
APPID
  2
GENIUS_GENOBJ-N-SEC_13
 70
     0
  0
APPID
  2
GENIUS_GENOBJ-N-CRS_13
 70
     0
  0
APPID
  2
GENIUS_GENOBJ-N-ZOO_13
 70
     0
  0
APPID
  2
GENIUS_GENZOO_13
 70
     0
  0
APPID
  2
GENIUS_GENOBJ-F-TOL_13
 70
     0
  0
APPID
  2
GENIUS_GENFIL_13
 70
     0
  0
APPID
  2
GENIUS_GENOBJ-N-CHA_13
 70
     0
  0
APPID
  2
ACAD_MLEADERVER
 70
     0
  0
APPID
  2
ACAD_NAV_VCDISPLAY
 70
     0
  0
APPID
  2
ACAD_EXEMPT_FROM_CAD_STANDARDS
 70
     0
  0
ENDTAB
  0
TABLE
  2
DIMSTYLE
 70
     1
  0
DIMSTYLE
  2
STANDARD
 70
     0
  3

  4

  5

  6

  7

 40
1.0
 41
0.18
 42
0.0625
 43
0.38
 44
0.18
 45
0.0
 46
0.0
 47
0.0
 48
0.0
140
0.18
141
0.09
142
0.0
143
25.399999999999999
144
1.0
145
0.0
146
1.0
147
0.09
 71
     0
 72
     0
 73
     1
 74
     1
 75
     0
 76
     0
 77
     0
 78
     0
170
     0
171
     2
172
     0
173
     0
174
     0
175
     0
176
     0
177
     0
178
     0
  0
ENDTAB
  0
ENDSEC
  0
SECTION
  2
BLOCKS
  0
BLOCK
  8
0
  2
$MODEL_SPACE
 70
     0
 10
0.0
 20
0.0
 30
0.0
  3
$MODEL_SPACE
  1

  0
ENDBLK
  5
BC3
  8
0
  0
BLOCK
 67
     1
  8
0
  2
$PAPER_SPACE
 70
     0
 10
0.0
 20
0.0
 30
0.0
  3
$PAPER_SPACE
  1

  0
ENDBLK
  5
BC1
 67
     1
  8
0
  0
ENDSEC
  0
SECTION
  2
ENTITIES
  0
TEXT
  5
C76
  8
0
 62
     3
 10
0.0
 20
0.0
 30
0.0
 40
10.0
  1
L6-CAH3030N
  7
STANDARD1
  0
LINE
  5
ED6
  8
0
 10
161.7499994114041
 20
104.627158139522
 30
0.0
 11
161.04999873787159
 21
104.627158139522
 31
0.0
  0
LINE
  5
ED7
  8
0
 10
161.04999873787159
 20
94.627158363039413
 30
0.0
 11
161.7499994114041
 21
94.627158363039413
 31
0.0
  0
ARC
  5
ED8
  8
0
 10
196.28208731118249
 20
58.757224836534533
 30
0.0
 40
10.00000000032415
 50
195.99999999948139
 51
240.4270039965221
  0
LINE
  5
ED9
  8
0
 10
183.2499982789158
 20
105.2271580516051
 30
0.0
 11
181.4000004902482
 21
106.6271584673475
 31
0.0
  0
LINE
  5
EDA
  8
0
 10
181.4000004902482
 20
106.6271584673475
 30
0.0
 11
161.7499994114041
 21
106.6271584673475
 31
0.0
  0
LINE
  5
EDB
  8
0
 10
161.7499994114041
 20
92.627158035213881
 30
0.0
 11
176.16704609245059
 21
92.627158035213881
 31
0.0
  0
LINE
  5
EDC
  8
0
 10
193.3654168620705
 20
50.638786163802081
 30
0.0
 11
194.7578595951199
 21
52.494483646626399
 31
0.0
  0
LINE
  5
EDD
  8
0
 10
191.34676773101091
 20
50.05994683193677
 30
0.0
 11
193.3654168620705
 21
50.638786163802081
 31
0.0
  0
LINE
  5
EDE
  8
0
 10
176.16704609245059
 20
92.627158035213881
 30
0.0
 11
186.6694720461964
 21
56.000849810118602
 31
0.0
  0
LINE
  5
EDF
  8
0
 10
186.25000063329929
 20
104.47715839433179
 30
0.0
 11
183.2499982789158
 21
104.47715839433179
 31
0.0
  0
LINE
  5
EE0
  8
0
 10
183.2499982789158
 20
94.777158108229571
 30
0.0
 11
186.25000063329929
 21
94.777158108229571
 31
0.0
  0
ARC
  5
EE1
  8
0
 10
132.99999899417159
 20
110.9771582512807
 30
0.0
 40
3.0
 50
90.0
 51
180.0
  0
LINE
  5
EE2
  8
0
 10
134.44999922066921
 20
112.5271586893748
 30
0.0
 11
132.99999888986349
 21
113.977158088858
 31
0.0
  0
ARC
  5
EE3
  8
0
 10
155.0499989941716
 20
110.0271582512807
 30
0.0
 40
0.5
 50
0.0
 51
90.000000002602249
  0
LINE
  5
EE4
  8
0
 10
155.04999868571761
 20
110.5271583615492
 30
0.0
 11
154.29999902844429
 21
110.5271583615492
 31
0.0
  0
LINE
  5
EE5
  8
0
 10
154.29999902844429
 20
110.5271583615492
 30
0.0
 11
152.39999899640679
 21
107.2362620575975
 31
0.0
  0
ARC
  5
EE6
  8
0
 10
156.99999899417159
 20
88.277158251280724
 30
0.0
 40
3.000000000000028
 50
270.0
 51
0.0
  0
LINE
  5
EE7
  8
0
 10
155.54999876767391
 20
86.727157813186565
 30
0.0
 11
156.99999909847969
 21
85.277158413703376
 31
0.0
  0
ARC
  5
EE8
  8
0
 10
134.94999899417161
 20
89.227158251280699
 30
0.0
 40
0.5
 50
180.0
 51
270.00000000260059
  0
LINE
  5
EE9
  8
0
 10
134.9499993026256
 20
88.727158141012126
 30
0.0
 11
135.69999895989889
 21
88.727158141012126
 31
0.0
  0
LINE
  5
EEA
  8
0
 10
135.69999895989889
 20
88.727158141012126
 30
0.0
 11
137.59999899193639
 21
92.018054444963866
 31
0.0
  0
LINE
  5
EEB
  8
0
 10
151.24999908730379
 20
105.1271582214784
 30
0.0
 11
149.99999888241291
 21
103.4271583153557
 31
0.0
  0
LINE
  5
EEC
  8
0
 10
149.99999888241291
 20
95.827158187205725
 30
0.0
 11
151.24999908730379
 21
94.127158281083041
 31
0.0
  0
LINE
  5
EED
  8
0
 10
138.74999890103931
 20
94.127158281083041
 30
0.0
 11
139.9999991059303
 21
95.827158187205725
 31
0.0
  0
LINE
  5
EEE
  8
0
 10
139.9999991059303
 20
103.4271583153557
 30
0.0
 11
138.74999890103931
 21
105.1271582214784
 31
0.0
  0
LINE
  5
EEF
  8
0
 10
151.24999908730379
 20
94.127158281083041
 30
0.0
 11
151.2999990023672
 21
94.127158281083041
 31
0.0
  0
LINE
  5
EF0
  8
0
 10
152.35487129539251
 20
105.1271582214784
 30
0.0
 11
151.24999908730379
 21
105.1271582214784
 31
0.0
  0
LINE
  5
EF1
  8
0
 10
137.6451266929507
 20
94.127158281083041
 30
0.0
 11
138.74999890103931
 21
94.127158281083041
 31
0.0
  0
LINE
  5
EF2
  8
0
 10
138.74999890103931
 20
105.1271582214784
 30
0.0
 11
138.69999898597601
 21
105.1271582214784
 31
0.0
  0
LINE
  5
EF3
  8
0
 10
139.9999991059303
 20
95.827158187205725
 30
0.0
 11
149.99999888241291
 21
95.827158187205725
 31
0.0
  0
LINE
  5
EF4
  8
0
 10
149.99999888241291
 20
103.4271583153557
 30
0.0
 11
139.9999991059303
 21
103.4271583153557
 31
0.0
  0
LINE
  5
EF6
  8
0
 10
183.2499982789158
 20
92.627158035213881
 30
0.0
 11
183.2499982789158
 21
105.2271580516051
 31
0.0
  0
LINE
  5
EF8
  8
3
 10
181.4000004902482
 20
92.367157918090754
 30
0.0
 11
181.4000004902482
 21
106.6271584673475
 31
0.0
  0
LINE
  5
EF9
  8
3
 10
191.34676856274089
 20
50.059947070431967
 30
0.0
 11
177.1335968747735
 21
99.627158251280704
 31
0.0
  0
LINE
  5
EFA
  8
3
 10
193.3654159893573
 20
50.638785913555147
 30
0.0
 11
181.4000004902482
 21
92.367157918090754
 31
0.0
  0
LINE
  5
EFD
  8
0
 10
161.7499994114041
 20
106.6271584673475
 30
0.0
 11
161.7499994114041
 21
92.627158035213881
 31
0.0
  0
ARC
  5
EFE
  8
3
 10
166.1839550071752
 20
97.572340199484984
 30
0.0
 40
11.140777991447941
 50
333.6482180441734
 51
10.628552747163679
  0
LINE
  5
EFF
  8
0
 10
194.7578583262584
 20
52.494481955624543
 30
0.0
 11
183.2499982789158
 21
92.627158035213881
 31
0.0
  0
LINE
  5
F02
  8
0
 10
186.25000063329929
 20
94.777158108229571
 30
0.0
 11
186.25000063329929
 21
104.47715839433179
 31
0.0
  0
LINE
  5
F03
  8
0
 10
159.99999865889549
 20
102.8025847586494
 30
0.0
 11
161.04999873787159
 21
102.8025847586494
 31
0.0
  0
LINE
  5
F04
  8
0
 10
159.99999865889549
 20
105.9780112660181
 30
0.0
 11
161.04999873787159
 21
105.9780112660181
 31
0.0
  0
LINE
  5
F06
  8
0
 10
159.99999865889549
 20
96.451731743912035
 30
0.0
 11
161.04999873787159
 21
96.451731743912035
 31
0.0
  0
LINE
  5
F08
  8
0
 10
159.99999865889549
 20
93.276305236543351
 30
0.0
 11
161.04999873787159
 21
93.276305236543351
 31
0.0
  0
LINE
  5
F09
  8
0
 10
161.04999873787159
 20
93.276305236543351
 30
0.0
 11
161.04999873787159
 21
105.9780112660181
 31
0.0
  0
LINE
  5
F0A
  8
0
 10
129.29999958723781
 20
105.9780112660181
 30
0.0
 11
129.99999932944769
 21
105.9780112660181
 31
0.0
  0
LINE
  5
F0B
  8
0
 10
129.99999932944769
 20
102.8025847586494
 30
0.0
 11
129.29999958723781
 21
102.8025847586494
 31
0.0
  0
LINE
  5
F0D
  8
0
 10
129.99999932944769
 20
96.451731743912035
 30
0.0
 11
129.29999958723781
 21
96.451731743912035
 31
0.0
  0
LINE
  5
F0F
  8
0
 10
129.99999932944769
 20
93.276305236543351
 30
0.0
 11
129.29999958723781
 21
93.276305236543351
 31
0.0
  0
LINE
  5
F10
  8
0
 10
129.29999958723781
 20
105.9780112660181
 30
0.0
 11
129.29999958723781
 21
93.276305236543351
 31
0.0
  0
LINE
  5
F11
  8
0
 10
158.99999942630529
 20
84.127158504600445
 30
0.0
 11
156.99999909847969
 21
84.127158504600445
 31
0.0
  0
ARC
  5
F12
  8
0
 10
158.99999899417159
 20
83.127158251280704
 30
0.0
 40
1.000000000000028
 50
0.0
 51
90.0
  0
LINE
  5
F14
  8
0
 10
129.99999932944769
 20
77.127157357211047
 30
0.0
 11
129.99999932944769
 21
110.9771585284422
 31
0.0
  0
LINE
  5
F17
  8
0
 10
159.99999865889549
 20
77.127157357211047
 30
0.0
 11
129.99999932944769
 21
77.127157357211047
 31
0.0
  0
ARC
  5
F19
  8
0
 10
133.99999899417159
 20
83.127158251280704
 30
0.0
 40
1.0
 50
90.0
 51
180.0
  0
LINE
  5
F1A
  8
0
 10
134.44999922066921
 20
115.1271582163226
 30
0.0
 11
134.44999922066921
 21
84.127158504600445
 31
0.0
  0
LINE
  5
F1B
  8
0
 10
156.99999909847969
 20
84.127158504600445
 30
0.0
 11
133.99999905377621
 21
84.127158504600445
 31
0.0
  0
LINE
  5
F1E
  8
0
 10
159.99999865889549
 20
83.127158340687686
 30
0.0
 11
159.99999865889549
 21
77.127157357211047
 31
0.0
  0
LINE
  5
F20
  8
0
 10
151.2999990023672
 20
84.127158504600445
 30
0.0
 11
151.2999990023672
 21
102.46287250953429
 31
0.0
  0
LINE
  5
F21
  8
0
 10
151.4268106780946
 20
102.8314522660028
 30
0.0
 11
151.2999990023672
 21
102.46287250953429
 31
0.0
  0
LINE
  5
F22
  8
0
 10
152.39999899640679
 20
105.2387888735782
 30
0.0
 11
151.4268106780946
 21
102.8314522660028
 31
0.0
  0
LINE
  5
F23
  8
0
 10
152.39999899640679
 20
107.2362620575975
 30
0.0
 11
152.39999899640679
 21
105.2387888735782
 31
0.0
  0
ARC
  5
F28
  8
0
 10
130.99999899417159
 20
116.1271582512807
 30
0.0
 40
1.0
 50
180.0
 51
270.0
  0
LINE
  5
F2A
  8
0
 10
159.99999865889549
 20
122.1271591453503
 30
0.0
 11
159.99999865889549
 21
88.27715797411912
 31
0.0
  0
LINE
  5
F2F
  8
0
 10
129.99999932944769
 20
122.1271591453503
 30
0.0
 11
159.99999865889549
 21
122.1271591453503
 31
0.0
  0
LINE
  5
F30
  8
0
 10
129.99999932944769
 20
116.12715816187369
 30
0.0
 11
129.99999932944769
 21
122.1271591453503
 31
0.0
  0
ARC
  5
F31
  8
0
 10
155.99999899417159
 20
116.1271582512807
 30
0.0
 40
1.0
 50
270.0
 51
0.0
  0
LINE
  5
F32
  8
0
 10
155.54999876767391
 20
84.127158504600445
 30
0.0
 11
155.54999876767391
 21
115.12715799796089
 31
0.0
  0
LINE
  5
F33
  8
0
 10
130.99999899417159
 20
115.1271582512807
 30
0.0
 11
155.99999893456689
 21
115.12715799796089
 31
0.0
  0
LINE
  5
F38
  8
0
 10
138.69999898597601
 20
115.1271581732582
 30
0.0
 11
138.69999898597601
 21
96.791443993027144
 31
0.0
  0
LINE
  5
F39
  8
0
 10
138.57318731024861
 20
96.422864236558596
 30
0.0
 11
138.69999898597601
 21
96.791443993027144
 31
0.0
  0
LINE
  5
F3A
  8
0
 10
137.59999899193639
 20
94.015527628983193
 30
0.0
 11
138.57318731024861
 21
96.422864236558596
 31
0.0
  0
LINE
  5
F3B
  8
0
 10
137.59999899193639
 20
92.018054444963866
 30
0.0
 11
137.59999899193639
 21
94.015527628983193
 31
0.0
  0
LINE
  5
F3D
  8
0
 10
151.24999908730379
 20
105.1271582214784
 30
0.0
 11
151.24999908730379
 21
94.127158281083041
 31
0.0
  0
LINE
  5
F3E
  8
0
 10
149.99999888241291
 20
103.4271583153557
 30
0.0
 11
149.99999888241291
 21
95.827158187205725
 31
0.0
  0
LINE
  5
F3F
  8
0
 10
139.9999991059303
 20
95.827158187205725
 30
0.0
 11
139.9999991059303
 21
103.4271583153557
 31
0.0
  0
LINE
  5
F40
  8
0
 10
138.74999890103931
 20
94.127158281083041
 30
0.0
 11
138.74999890103931
 21
105.1271582214784
 31
0.0
  0
ARC
  5
F41
  8
3
 10
251.2500002980232
 20
58.051611177848621
 30
0.0
 40
5.6027043637122071
 50
181.78034771330931
 51
358.21965228669228
  0
LINE
  5
F43
  8
3
 10
245.65000049769881
 20
57.877546754355357
 30
0.0
 11
245.65000049769881
 21
99.628653692715901
 31
0.0
  0
LINE
  5
F44
  8
3
 10
245.65000049769881
 20
92.627158035213881
 30
0.0
 11
256.85000009834772
 21
92.627158035213881
 31
0.0
  0
LINE
  5
F45
  8
3
 10
256.85000009834772
 20
99.628653692715901
 30
0.0
 11
256.85000009834772
 21
57.877546754355357
 31
0.0
  0
ARC
  5
F46
  8
0
 10
251.2500002980232
 20
58.032827933178623
 30
0.0
 40
5.0024105316246947
 50
181.7788195392165
 51
358.22118046078509
  0
LINE
  5
F47
  8
0
 10
256.25000018626451
 20
67.490166631216937
 30
0.0
 11
256.25000018626451
 21
57.877546754355357
 31
0.0
  0
ARC
  5
F48
  8
0
 10
251.2500002980232
 20
67.334886098801348
 30
0.0
 40
5.0024105115594217
 50
1.7788121390656779
 51
178.22118786093429
  0
LINE
  5
F49
  8
0
 10
246.2500004097819
 20
57.877546754355357
 30
0.0
 11
246.2500004097819
 21
67.490166631216937
 31
0.0
  0
ARC
  5
F4C
  8
0
 10
251.2500002980232
 20
57.003286006773799
 30
0.0
 40
7.0032860067738012
 50
181.7551879510421
 51
358.24481204895949
  0
LINE
  5
F4E
  8
0
 10
258.25000029802322
 20
99.627158251280704
 30
0.0
 11
258.25000051409012
 21
56.788782235856132
 31
0.0
  0
LINE
  5
F4F
  8
0
 10
244.25000008195639
 20
56.788782235855933
 30
0.0
 11
244.2500002980232
 21
99.627158251280704
 31
0.0
  0
ARC
  5
F57
  8
3
 10
251.2500002980232
 20
99.627158251280704
 30
0.0
 40
5.5999999999981176
 50
0.0000000000260551
 51
179.99999999997391
  0
ARC
  5
F59
  8
0
 10
251.2500002980232
 20
99.627158251280704
 30
0.0
 40
7.0
 50
0.0
 51
180.0
  0
CIRCLE
  5
F60
  8
0
 10
251.2500002980232
 20
99.627158251280704
 30
0.0
 40
4.8499999999999943
  0
LINE
  5
F61
  8
0
 10
265.2500007301569
 20
84.127158504600445
 30
0.0
 11
258.25000037620168
 21
84.127158504600445
 31
0.0
  0
ARC
  5
F62
  8
0
 10
265.25000029802322
 20
83.127158251280704
 30
0.0
 40
1.0
 50
0.0
 51
90.0
  0
ARC
  5
F63
  8
0
 10
237.2500002980232
 20
83.127158251280704
 30
0.0
 40
1.0
 50
90.0
 51
180.0
  0
LINE
  5
F64
  8
0
 10
244.25000021984479
 20
84.127158504600445
 30
0.0
 11
237.24999986588949
 21
84.127158504600445
 31
0.0
  0
LINE
  5
F65
  8
0
 10
266.2499999627471
 20
77.127157357211047
 30
0.0
 11
258.25000041150798
 21
77.127157357211019
 31
0.0
  0
LINE
  5
F6B
  8
0
 10
244.25000018453841
 20
77.127157357211019
 30
0.0
 11
236.25000063329929
 21
77.127157357211047
 31
0.0
  0
LINE
  5
F6D
  8
0
 10
263.2500004023313
 20
84.127158504600445
 30
0.0
 11
263.2500004023313
 21
91.277158465857426
 31
0.0
  0
LINE
  5
F6E
  8
0
 10
239.2500001937151
 20
84.127158504600445
 30
0.0
 11
239.2500001937151
 21
91.277158465857426
 31
0.0
  0
LINE
  5
F6F
  8
0
 10
237.7000000327825
 20
93.843069505567485
 30
0.0
 11
237.7000000327825
 21
84.127158504600445
 31
0.0
  0
LINE
  5
F70
  8
0
 10
264.80000056326389
 20
84.127158504600445
 30
0.0
 11
264.80000056326389
 21
93.843069505567485
 31
0.0
  0
LINE
  5
F71
  8
0
 10
266.2499999627471
 20
98.977158249511206
 30
0.0
 11
266.2499999627471
 21
77.127157357211019
 31
0.0
  0
LINE
  5
F72
  8
0
 10
236.25000063329929
 20
77.127157357211047
 30
0.0
 11
236.25000063329929
 21
98.977158249511206
 31
0.0
  0
LINE
  5
F73
  8
0
 10
236.25000063329929
 20
98.977158249511206
 30
0.0
 11
236.26409061253071
 21
99.627158251280704
 31
0.0
  0
LINE
  5
F74
  8
0
 10
266.23590998351568
 20
99.627158251282694
 30
0.0
 11
266.2499999627471
 21
98.977158249511206
 31
0.0
  0
LINE
  5
F77
  8
0
 10
266.2499999627471
 20
100.2771582530502
 30
0.0
 11
266.2499999627471
 21
122.1271591453504
 31
0.0
  0
LINE
  5
F79
  8
0
 10
236.25000063329929
 20
122.1271591453504
 30
0.0
 11
236.25000063329929
 21
100.2771582530502
 31
0.0
  0
LINE
  5
F7B
  8
0
 10
236.25000063329929
 20
122.1271591453504
 30
0.0
 11
266.2499999627471
 21
122.1271591453504
 31
0.0
  0
ARC
  5
F7C
  8
0
 10
251.2500002980232
 20
100.2771582512807
 30
0.0
 40
15.0
 50
180.0
 51
242.1818607153464
  0
ARC
  5
F7D
  8
0
 10
251.2500002980232
 20
100.2771582512807
 30
0.0
 40
15.0
 50
297.81813928465363
 51
0.0
  0
LINE
  5
F7E
  8
0
 10
57.999999448657029
 20
77.127157357211047
 30
0.0
 11
57.999999448657029
 21
56.78878223585599
 31
0.0
  0
LINE
  5
F7F
  8
0
 10
71.999999880790682
 20
56.78878223585599
 30
0.0
 11
71.999999880790682
 21
77.127157357211047
 31
0.0
  0
ARC
  5
F80
  8
0
 10
64.999999664723873
 20
57.003286006773799
 30
0.0
 40
7.0032860067738012
 50
181.7551879510421
 51
358.24481204895949
  0
CIRCLE
  5
F81
  8
0
 10
64.999999664723873
 20
99.627158251280704
 30
0.0
 40
2.0999999999999939
  0
LINE
  5
F82
  8
0
 10
64.999999664736094
 20
105.9780112660181
 30
0.0
 11
70.499999634921522
 21
102.8025847586494
 31
0.0
  0
LINE
  5
F83
  8
0
 10
70.499999634921522
 20
102.8025847586494
 30
0.0
 11
70.499999634921522
 21
96.451731743912035
 31
0.0
  0
LINE
  5
F84
  8
0
 10
70.499999634921522
 20
96.451731743912035
 30
0.0
 11
64.999999664711623
 21
93.276305236543351
 31
0.0
  0
LINE
  5
F85
  8
0
 10
59.499999694526188
 20
102.8025847586494
 30
0.0
 11
64.999999664736094
 21
105.9780112660181
 31
0.0
  0
LINE
  5
F86
  8
0
 10
59.499999694526188
 20
96.451731743912035
 30
0.0
 11
59.499999694526188
 21
102.8025847586494
 31
0.0
  0
LINE
  5
F87
  8
0
 10
64.999999664711623
 20
93.276305236543351
 30
0.0
 11
59.499999694526188
 21
96.451731743912035
 31
0.0
  0
LINE
  5
F8A
  8
0
 10
50.0
 20
98.977158249511206
 30
0.0
 11
50.0
 21
77.127157357211019
 31
0.0
  0
LINE
  5
F92
  8
0
 10
79.999999329447704
 20
77.127157357211075
 30
0.0
 11
79.999999329447746
 21
98.977158249511206
 31
0.0
  0
LINE
  5
F94
  8
0
 10
79.999999329447746
 20
77.127157357211047
 30
0.0
 11
50.0
 21
77.127157357211047
 31
0.0
  0
ARC
  5
F95
  8
0
 10
64.999999664723873
 20
98.977158251280741
 30
0.0
 40
15.0
 50
0.0
 51
180.0
  0
ARC
  5
F97
  8
0
 10
50.999999664723859
 20
116.1271582512807
 30
0.0
 40
1.0
 50
180.0
 51
270.0
  0
ARC
  5
F98
  8
0
 10
78.999999664723873
 20
116.1271582512807
 30
0.0
 40
1.0
 50
270.0
 51
0.0
  0
LINE
  5
F99
  8
0
 10
50.999999664723859
 20
115.1271582512807
 30
0.0
 11
79.000000096857534
 21
115.12715799796101
 31
0.0
  0
LINE
  5
F9A
  8
0
 10
50.0
 20
122.1271591453504
 30
0.0
 11
79.999999329447746
 21
122.1271591453504
 31
0.0
  0
LINE
  5
FA0
  8
0
 10
52.999999560415738
 20
115.12715799796101
 30
0.0
 11
52.999999560415738
 21
107.977158036704
 31
0.0
  0
LINE
  5
FA1
  8
0
 10
76.999999769031973
 20
115.12715799796101
 30
0.0
 11
76.999999769031973
 21
107.977158036704
 31
0.0
  0
LINE
  5
FA2
  8
0
 10
78.549999929964514
 20
105.4112469969939
 30
0.0
 11
78.549999929964514
 21
115.12715799796101
 31
0.0
  0
LINE
  5
FA3
  8
0
 10
51.449999399483197
 20
115.12715799796101
 30
0.0
 11
51.449999399483197
 21
105.4112469969939
 31
0.0
  0
LINE
  5
FA4
  8
0
 10
50.0
 20
100.2771582530502
 30
0.0
 11
50.0
 21
122.1271591453504
 31
0.0
  0
LINE
  5
FA5
  8
0
 10
79.999999329447746
 20
122.1271591453504
 30
0.0
 11
79.999999329447746
 21
100.2771582530502
 31
0.0
  0
LINE
  5
FA6
  8
0
 10
79.999999329447746
 20
100.2771582530502
 30
0.0
 11
79.985909350216374
 21
99.627158251280704
 31
0.0
  0
LINE
  5
FA7
  8
0
 10
50.01408997923135
 20
99.6271582512788
 30
0.0
 11
50.0
 21
100.2771582530502
 31
0.0
  0
LINE
  5
FF0
  8
1
 10
144.99999899417159
 20
127.1271591453503
 30
0.0
 11
144.99999899417159
 21
72.127157357211047
 31
0.0
  0
LINE
  5
FF3
  8
1
 10
191.25000063329929
 20
99.627158251280704
 30
0.0
 11
124.29999958723781
 21
99.627158251280704
 31
0.0
  0
LINE
  5
FF6
  8
0
 10
137.6499989941733
 20
123.32715914535029
 30
0.0
 11
137.6499989941733
 21
122.1271591453503
 31
0.0
  0
LINE
  5
FF7
  8
0
 10
131.64999899417819
 20
123.3271591453464
 30
0.0
 11
131.64999899418811
 21
122.1271591453504
 31
0.0
  0
LINE
  5
FF8
  8
0
 10
132.14999899417819
 20
123.82715914535051
 30
0.0
 11
137.1499989941733
 21
123.82715914535039
 31
0.0
  0
ARC
  5
FF9
  8
0
 10
137.1499989941733
 20
123.32715914535029
 30
0.0
 40
0.5
 50
0.0
 51
89.999999999999389
1001
GENIUS_GENODEF_13
1002
{
1000
HIER
1070
     0
1002
}
1002
{
1000
MANEDIT
1070
     0
1002
}
1002
{
1000
NOSEL
1070
     0
1002
}
1002
{
1000
BEHIND
1070
     0
1002
}
1002
{
1000
REACTOR
1002
}
1001
GENIUS_GENOBJ-N-FIL_13
1002
{
1000
OWNER
1000
GEN
1002
}
  0
ARC
  5
FFA
  8
0
 10
132.14999899417819
 20
123.32715914535051
 30
0.0
 40
0.5
 50
89.999999999999389
 51
180.00000000046731
1001
GENIUS_GENODEF_13
1002
{
1000
HIER
1070
     0
1002
}
1002
{
1000
MANEDIT
1070
     0
1002
}
1002
{
1000
NOSEL
1070
     0
1002
}
1002
{
1000
BEHIND
1070
     0
1002
}
1002
{
1000
REACTOR
1002
}
1001
GENIUS_GENOBJ-N-FIL_13
1002
{
1000
OWNER
1000
GEN
1002
}
  0
LINE
  5
FFB
  8
0
 10
158.14999899416489
 20
123.3271591453464
 30
0.0
 11
158.1499989941552
 21
122.1271591453504
 31
0.0
  0
LINE
  5
FFC
  8
0
 10
152.14999899416989
 20
123.32715914535029
 30
0.0
 11
152.14999899416989
 21
122.1271591453503
 31
0.0
  0
LINE
  5
FFD
  8
0
 10
157.64999899416489
 20
123.82715914535051
 30
0.0
 11
152.64999899416989
 21
123.82715914535039
 31
0.0
  0
ARC
  5
FFE
  8
0
 10
157.64999899416489
 20
123.32715914535051
 30
0.0
 40
0.5
 50
359.99999999953098
 51
90.000000000000625
1001
GENIUS_GENODEF_13
1002
{
1000
HIER
1070
     0
1002
}
1002
{
1000
MANEDIT
1070
     0
1002
}
1002
{
1000
NOSEL
1070
     0
1002
}
1002
{
1000
BEHIND
1070
     0
1002
}
1002
{
1000
REACTOR
1002
}
1001
GENIUS_GENOBJ-N-FIL_13
1002
{
1000
OWNER
1000
GEN
1002
}
  0
ARC
  5
FFF
  8
0
 10
152.64999899416989
 20
123.32715914535029
 30
0.0
 40
0.5
 50
90.000000000000625
 51
180.0
1001
GENIUS_GENODEF_13
1002
{
1000
HIER
1070
     0
1002
}
1002
{
1000
MANEDIT
1070
     0
1002
}
1002
{
1000
NOSEL
1070
     0
1002
}
1002
{
1000
BEHIND
1070
     0
1002
}
1002
{
1000
REACTOR
1002
}
1001
GENIUS_GENOBJ-N-FIL_13
1002
{
1000
OWNER
1000
GEN
1002
}
  0
LINE
  5
1000
  8
0
 10
137.6499989941733
 20
75.927157357211001
 30
0.0
 11
137.6499989941733
 21
77.127157357211047
 31
0.0
  0
ARC
  5
1001
  8
0
 10
137.1499989941733
 20
75.927157357211001
 30
0.0
 40
0.5
 50
270.00000000000063
 51
0.0
1001
GENIUS_GENODEF_13
1002
{
1000
HIER
1070
     0
1002
}
1002
{
1000
MANEDIT
1070
     0
1002
}
1002
{
1000
NOSEL
1070
     0
1002
}
1002
{
1000
BEHIND
1070
     0
1002
}
1002
{
1000
REACTOR
1002
}
1001
GENIUS_GENOBJ-N-FIL_13
1002
{
1000
OWNER
1000
GEN
1002
}
  0
LINE
  5
1002
  8
0
 10
131.64999899417819
 20
75.927157357215037
 30
0.0
 11
131.64999899418811
 21
77.12715735721099
 31
0.0
  0
ARC
  5
1003
  8
0
 10
132.14999899417819
 20
75.927157357210945
 30
0.0
 40
0.5
 50
179.99999999953101
 51
270.00000000000063
1001
GENIUS_GENODEF_13
1002
{
1000
HIER
1070
     0
1002
}
1002
{
1000
MANEDIT
1070
     0
1002
}
1002
{
1000
NOSEL
1070
     0
1002
}
1002
{
1000
BEHIND
1070
     0
1002
}
1002
{
1000
REACTOR
1002
}
1001
GENIUS_GENOBJ-N-FIL_13
1002
{
1000
OWNER
1000
GEN
1002
}
  0
LINE
  5
1004
  8
0
 10
132.14999899417819
 20
75.427157357210945
 30
0.0
 11
137.1499989941733
 21
75.427157357211001
 31
0.0
  0
LINE
  5
1005
  8
0
 10
158.14999899416489
 20
75.927157357215037
 30
0.0
 11
158.1499989941552
 21
77.12715735721099
 31
0.0
  0
ARC
  5
1006
  8
0
 10
157.64999899416489
 20
75.927157357210945
 30
0.0
 40
0.5
 50
269.99999999999937
 51
0.0000000004689919
1001
GENIUS_GENODEF_13
1002
{
1000
HIER
1070
     0
1002
}
1002
{
1000
MANEDIT
1070
     0
1002
}
1002
{
1000
NOSEL
1070
     0
1002
}
1002
{
1000
BEHIND
1070
     0
1002
}
1002
{
1000
REACTOR
1002
}
1001
GENIUS_GENOBJ-N-FIL_13
1002
{
1000
OWNER
1000
GEN
1002
}
  0
LINE
  5
1007
  8
0
 10
152.14999899416989
 20
75.927157357211001
 30
0.0
 11
152.14999899416989
 21
77.127157357211047
 31
0.0
  0
ARC
  5
1008
  8
0
 10
152.64999899416989
 20
75.927157357211001
 30
0.0
 40
0.5
 50
180.0
 51
269.99999999999937
1001
GENIUS_GENODEF_13
1002
{
1000
HIER
1070
     0
1002
}
1002
{
1000
MANEDIT
1070
     0
1002
}
1002
{
1000
NOSEL
1070
     0
1002
}
1002
{
1000
BEHIND
1070
     0
1002
}
1002
{
1000
REACTOR
1002
}
1001
GENIUS_GENOBJ-N-FIL_13
1002
{
1000
OWNER
1000
GEN
1002
}
  0
LINE
  5
1009
  8
0
 10
157.64999899416489
 20
75.427157357210945
 30
0.0
 11
152.64999899416989
 21
75.427157357211001
 31
0.0
  0
LINE
  5
1017
  8
1
 10
251.2500002980232
 20
127.1271591453504
 30
0.0
 11
251.2500002980232
 21
45.0
 31
0.0
  0
LINE
  5
1018
  8
1
 10
271.24999996274698
 20
99.627158251280704
 30
0.0
 11
231.25000063329941
 21
99.627158251280704
 31
0.0
  0
LINE
  5
102C
  8
1
 10
64.999999664723873
 20
127.1271591453504
 30
0.0
 11
64.999999664723873
 21
45.0
 31
0.0
  0
LINE
  5
102D
  8
1
 10
84.999999329447746
 20
99.627158251280704
 30
0.0
 11
44.999999999999993
 21
99.627158251280704
 31
0.0
  0
ARC
  5
102E
  8
0
 10
248.7500002980257
 20
123.32715914535039
 30
0.0
 40
0.5
 50
90.000000000000625
 51
180.0
1001
GENIUS_GENODEF_13
1002
{
1000
HIER
1070
     0
1002
}
1002
{
1000
MANEDIT
1070
     0
1002
}
1002
{
1000
NOSEL
1070
     0
1002
}
1002
{
1000
BEHIND
1070
     0
1002
}
1002
{
1000
REACTOR
1002
}
1001
GENIUS_GENOBJ-N-FIL_13
1002
{
1000
OWNER
1000
GEN
1002
}
  0
LINE
  5
102F
  8
0
 10
248.2500002980257
 20
123.32715914535039
 30
0.0
 11
248.2500002980257
 21
122.1271591453504
 31
0.0
  0
LINE
  5
1030
  8
0
 10
253.75000029802069
 20
123.82715914535039
 30
0.0
 11
248.7500002980257
 21
123.82715914535039
 31
0.0
  0
ARC
  5
1031
  8
0
 10
253.75000029802069
 20
123.32715914535039
 30
0.0
 40
0.5
 50
359.99999999953098
 51
90.000000000000398
1001
GENIUS_GENODEF_13
1002
{
1000
HIER
1070
     0
1002
}
1002
{
1000
MANEDIT
1070
     0
1002
}
1002
{
1000
NOSEL
1070
     0
1002
}
1002
{
1000
BEHIND
1070
     0
1002
}
1002
{
1000
REACTOR
1002
}
1001
GENIUS_GENOBJ-N-FIL_13
1002
{
1000
OWNER
1000
GEN
1002
}
  0
LINE
  5
1032
  8
0
 10
254.25000029802069
 20
123.3271591453463
 30
0.0
 11
254.25000029801089
 21
122.1271591453504
 31
0.0
  0
LINE
  5
1033
  8
0
 10
62.49999966472631
 20
123.82715914529599
 30
0.0
 11
67.499999664721429
 21
123.82715914529589
 31
0.0
  0
ARC
  5
1034
  8
0
 10
62.49999966472631
 20
123.32715914529589
 30
0.0
 40
0.5
 50
89.999999999999389
 51
180.00000000046731
1001
GENIUS_GENODEF_13
1002
{
1000
HIER
1070
     0
1002
}
1002
{
1000
MANEDIT
1070
     0
1002
}
1002
{
1000
NOSEL
1070
     0
1002
}
1002
{
1000
BEHIND
1070
     0
1002
}
1002
{
1000
REACTOR
1002
}
1001
GENIUS_GENOBJ-N-FIL_13
1002
{
1000
OWNER
1000
GEN
1002
}
  0
LINE
  5
1035
  8
0
 10
61.99999966472631
 20
123.3271591452919
 30
0.0
 11
61.999999664736201
 21
122.12715914529591
 31
0.0
  0
ARC
  5
1036
  8
0
 10
67.499999664721429
 20
123.32715914529589
 30
0.0
 40
0.5
 50
0.0
 51
89.999999999999389
1001
GENIUS_GENODEF_13
1002
{
1000
HIER
1070
     0
1002
}
1002
{
1000
MANEDIT
1070
     0
1002
}
1002
{
1000
NOSEL
1070
     0
1002
}
1002
{
1000
BEHIND
1070
     0
1002
}
1002
{
1000
REACTOR
1002
}
1001
GENIUS_GENOBJ-N-FIL_13
1002
{
1000
OWNER
1000
GEN
1002
}
  0
LINE
  5
1037
  8
0
 10
67.999999664721415
 20
123.32715914529589
 30
0.0
 11
67.999999664721415
 21
122.12715914529591
 31
0.0
  0
LINE
  5
1038
  8
0
 10
62.49999966472631
 20
75.427157357210945
 30
0.0
 11
67.499999664721429
 21
75.427157357211001
 31
0.0
  0
ARC
  5
1039
  8
0
 10
62.49999966472631
 20
75.927157357210945
 30
0.0
 40
0.5
 50
179.99999999953101
 51
270.00000000000063
1001
GENIUS_GENODEF_13
1002
{
1000
HIER
1070
     0
1002
}
1002
{
1000
MANEDIT
1070
     0
1002
}
1002
{
1000
NOSEL
1070
     0
1002
}
1002
{
1000
BEHIND
1070
     0
1002
}
1002
{
1000
REACTOR
1002
}
1001
GENIUS_GENOBJ-N-FIL_13
1002
{
1000
OWNER
1000
GEN
1002
}
  0
LINE
  5
103A
  8
0
 10
61.99999966472631
 20
75.927157357215037
 30
0.0
 11
61.999999664736201
 21
77.12715735721099
 31
0.0
  0
ARC
  5
103B
  8
0
 10
67.499999664721429
 20
75.927157357211001
 30
0.0
 40
0.5
 50
270.00000000000063
 51
0.0
1001
GENIUS_GENODEF_13
1002
{
1000
HIER
1070
     0
1002
}
1002
{
1000
MANEDIT
1070
     0
1002
}
1002
{
1000
NOSEL
1070
     0
1002
}
1002
{
1000
BEHIND
1070
     0
1002
}
1002
{
1000
REACTOR
1002
}
1001
GENIUS_GENOBJ-N-FIL_13
1002
{
1000
OWNER
1000
GEN
1002
}
  0
LINE
  5
103C
  8
0
 10
67.999999664721415
 20
75.927157357211001
 30
0.0
 11
67.999999664721415
 21
77.127157357211047
 31
0.0
  0
ENDSEC
  0
EOF
