  0
SECTION
  2
HEADER
  9
$ACADVER
  1
AC1009
  9
$INSBASE
 10
0.0
 20
0.0
 30
0.0
  9
$EXTMIN
 10
0.0
 20
-2.960436562073669
 30
0.0
  9
$EXTMAX
 10
299.69677352965249
 20
235.31891193023529
 30
0.0
  9
$LIMMIN
 10
0.0
 20
0.0
  9
$LIMMAX
 10
187.5
 20
139.0
  9
$ORTHOMODE
 70
     1
  9
$REGENMODE
 70
     1
  9
$FILLMODE
 70
     1
  9
$QTEXTMODE
 70
     0
  9
$MIRRTEXT
 70
     0
  9
$DRAGMODE
 70
     2
  9
$LTSCALE
 40
4.0
  9
$OSMODE
 70
  3071
  9
$ATTMODE
 70
     1
  9
$TEXTSIZE
 40
0.2
  9
$TRACEWID
 40
0.05
  9
$TEXTSTYLE
  7
STANDARD
  9
$CLAYER
  8
0
  9
$CELTYPE
  6
BYLAYER
  9
$CECOLOR
 62
   256
  9
$DIMSCALE
 40
1.0
  9
$DIMASZ
 40
3.0
  9
$DIMEXO
 40
1.0
  9
$DIMDLI
 40
6.0
  9
$DIMRND
 40
0.0
  9
$DIMDLE
 40
0.0
  9
$DIMEXE
 40
1.0
  9
$DIMTP
 40
495.0
  9
$DIMTM
 40
0.0
  9
$DIMTXT
 40
3.0
  9
$DIMCEN
 40
0.0
  9
$DIMTSZ
 40
0.0
  9
$DIMTOL
 70
     0
  9
$DIMLIM
 70
     0
  9
$DIMTIH
 70
     0
  9
$DIMTOH
 70
     0
  9
$DIMSE1
 70
     0
  9
$DIMSE2
 70
     0
  9
$DIMTAD
 70
     1
  9
$DIMZIN
 70
     0
  9
$DIMBLK
  1

  9
$DIMASO
 70
     0
  9
$DIMSHO
 70
     0
  9
$DIMPOST
  1

  9
$DIMAPOST
  1

  9
$DIMALT
 70
     0
  9
$DIMALTD
 70
     2
  9
$DIMALTF
 40
25.399999999999999
  9
$DIMLFAC
 40
1.0
  9
$DIMTOFL
 70
     1
  9
$DIMTVP
 40
0.0
  9
$DIMTIX
 70
     1
  9
$DIMSOXD
 70
     0
  9
$DIMSAH
 70
     0
  9
$DIMBLK1
  1

  9
$DIMBLK2
  1

  9
$DIMSTYLE
  2
STANDARD
  9
$DIMCLRD
 70
     0
  9
$DIMCLRE
 70
     0
  9
$DIMCLRT
 70
     4
  9
$DIMTFAC
 40
1.0
  9
$DIMGAP
 40
1.0
  9
$LUNITS
 70
     2
  9
$LUPREC
 70
     4
  9
$SKETCHINC
 40
0.1
  9
$FILLETRAD
 40
0.0
  9
$AUNITS
 70
     0
  9
$AUPREC
 70
     0
  9
$MENU
  1
C:\R13\WIN\SUPPORT\ACAD-I
  9
$ELEVATION
 40
0.0
  9
$PELEVATION
 40
0.0
  9
$THICKNESS
 40
0.0
  9
$LIMCHECK
 70
     0
  9
$BLIPMODE
 70
     0
  9
$CHAMFERA
 40
0.0
  9
$CHAMFERB
 40
0.0
  9
$SKPOLY
 70
     0
  9
$TDCREATE
 40
2450837.486061343
  9
$TDUPDATE
 40
2456597.5615570028
  9
$TDINDWG
 40
0.1428579051
  9
$TDUSRTIMER
 40
0.1428579051
  9
$USRTIMER
 70
     1
  9
$ANGBASE
 50
0.0
  9
$ANGDIR
 70
     0
  9
$PDMODE
 70
     0
  9
$PDSIZE
 40
0.0
  9
$PLINEWID
 40
0.0
  9
$COORDS
 70
     1
  9
$SPLFRAME
 70
     0
  9
$SPLINETYPE
 70
     6
  9
$SPLINESEGS
 70
     8
  9
$ATTDIA
 70
     0
  9
$ATTREQ
 70
     1
  9
$HANDLING
 70
     1
  9
$HANDSEED
  5
15D7
  9
$SURFTAB1
 70
     6
  9
$SURFTAB2
 70
     6
  9
$SURFTYPE
 70
     6
  9
$SURFU
 70
     6
  9
$SURFV
 70
     6
  9
$UCSNAME
  2

  9
$UCSORG
 10
0.0
 20
0.0
 30
0.0
  9
$UCSXDIR
 10
1.0
 20
0.0
 30
0.0
  9
$UCSYDIR
 10
0.0
 20
1.0
 30
0.0
  9
$PUCSNAME
  2

  9
$PUCSORG
 10
0.0
 20
0.0
 30
0.0
  9
$PUCSXDIR
 10
1.0
 20
0.0
 30
0.0
  9
$PUCSYDIR
 10
0.0
 20
1.0
 30
0.0
  9
$USERI1
 70
     4
  9
$USERI2
 70
     1
  9
$USERI3
 70
     0
  9
$USERI4
 70
     0
  9
$USERI5
 70
     0
  9
$USERR1
 40
1.0
  9
$USERR2
 40
3.0
  9
$USERR3
 40
3.0
  9
$USERR4
 40
3.0
  9
$USERR5
 40
10.0
  9
$WORLDVIEW
 70
     1
  9
$SHADEDGE
 70
     3
  9
$SHADEDIF
 70
    70
  9
$TILEMODE
 70
     1
  9
$MAXACTVP
 70
    16
  9
$PLIMCHECK
 70
     0
  9
$PEXTMIN
 10
1.0000000000000000E+020
 20
1.0000000000000000E+020
 30
1.0000000000000000E+020
  9
$PEXTMAX
 10
-1.0000000000000000E+020
 20
-1.0000000000000000E+020
 30
-1.0000000000000000E+020
  9
$PLIMMIN
 10
0.0
 20
0.0
  9
$PLIMMAX
 10
12.0
 20
9.0
  9
$UNITMODE
 70
     0
  9
$VISRETAIN
 70
     0
  9
$PLINEGEN
 70
     0
  9
$PSLTSCALE
 70
     0
  0
ENDSEC
  0
SECTION
  2
TABLES
  0
TABLE
  2
VPORT
 70
     1
  0
VPORT
  2
*ACTIVE
 70
     0
 10
0.0
 20
0.0
 11
1.0
 21
1.0
 12
149.8483874626121
 22
141.7986977038527
 13
0.0
 23
0.0
 14
5.0
 24
5.0
 15
5.0
 25
5.0
 16
0.0
 26
0.0
 36
1.0
 17
0.0
 27
0.0
 37
0.0
 40
292.27541148644377
 41
1.9089595375722539
 42
50.0
 43
0.0
 44
0.0
 50
0.0
 51
0.0
 71
     0
 72
   100
 73
     1
 74
     0
 75
     0
 76
     0
 77
     0
 78
     0
  0
ENDTAB
  0
TABLE
  2
LTYPE
 70
     5
  0
LTYPE
  2
CONTINUOUS
 70
     0
  3
Solid Line
 72
    65
 73
     0
 40
0.0
  0
LTYPE
  2
CENTER
 70
     0
  3
____ _ ____ _ ____ _ ____ _ ____ _ ____ _ ____
 72
    65
 73
     4
 40
2.0
 49
1.25
 49
-0.25
 49
0.25
 49
-0.25
  0
LTYPE
  2
AUSGEZOGEN
 70
     0
  3
Solid line
 72
    65
 73
     0
 40
0.0
  0
LTYPE
  2
HIDDEN
 70
     0
  3
__ __ __ __ __ __ __ __ __ __ __ __ __ __ __ __
 72
    65
 73
     2
 40
0.375
 49
0.25
 49
-0.125
  0
LTYPE
  2
PHANTOM2
 70
     0
  3
___ _ _ ___ _ _ ___ _ _ ___ _ _
 72
    65
 73
     6
 40
1.25
 49
0.625
 49
-0.125
 49
0.125
 49
-0.125
 49
0.125
 49
-0.125
  0
ENDTAB
  0
TABLE
  2
LAYER
 70
     5
  0
LAYER
  2
0
 70
     0
 62
     7
  6
CONTINUOUS
  0
LAYER
  2
1
 70
     0
 62
     1
  6
CENTER
  0
LAYER
  2
ITEM_HILFE
 70
     0
 62
     3
  6
AUSGEZOGEN
  0
LAYER
  2
2
 70
     0
 62
     2
  6
HIDDEN
  0
LAYER
  2
3
 70
     0
 62
     3
  6
CONTINUOUS
  0
ENDTAB
  0
TABLE
  2
STYLE
 70
     2
  0
STYLE
  2
STANDARD
 70
     0
 40
0.0
 41
1.0
 50
0.0
 71
     0
 42
0.2
  3
SIMPLEX
  4
BIGFONT
  0
STYLE
  2
STANDARD1
 70
     0
 40
0.0
 41
1.0
 50
0.0
 71
     0
 42
3.0
  3
txt
  4

  0
ENDTAB
  0
TABLE
  2
VIEW
 70
     0
  0
ENDTAB
  0
TABLE
  2
UCS
 70
     0
  0
ENDTAB
  0
TABLE
  2
APPID
 70
    68
  0
APPID
  2
ACAD
 70
     0
  0
APPID
  2
GENIUS_GENOBJ_13
 70
     0
  0
APPID
  2
GENIUS_GENODEF_13
 70
     0
  0
APPID
  2
GENIUS_GENOENT_13
 70
     0
  0
APPID
  2
GENIUS_GENOLIS_13
 70
     0
  0
APPID
  2
GENIUS_GENOREF_13
 70
     0
  0
APPID
  2
GENIUS_GENOBJ-N-TIT_13
 70
     0
  0
APPID
  2
GENIUS_GENTITLE_13
 70
     0
  0
APPID
  2
GENIUS_GENZVEED_13
 70
     0
  0
APPID
  2
GENIUS_GENOBJ-N-FIL_13
 70
     0
  0
APPID
  2
GENIUS_GENOBJ-N-CRS_13
 70
     0
  0
APPID
  2
GENIUS_GENOBJ-N-SEC_13
 70
     0
  0
APPID
  2
GENIUS_GENOBJ-N-LEADER_13
 70
     0
  0
APPID
  2
GENIUS_GENOBJ-N-ZOO_13
 70
     0
  0
APPID
  2
GENIUS_GENZOO_13
 70
     0
  0
APPID
  2
GENIUS_GENOBJ-N-REV_13
 70
     0
  0
APPID
  2
GENIUS_GENOBJ-N-RSSYM_13
 70
     0
  0
APPID
  2
GENIUS_GENSYMENT_13
 70
     0
  0
APPID
  2
GENIUS_GENBH_13
 70
     0
  0
APPID
  2
GENIUS_GENOBJ-NBEHI-BHF_13
 70
     0
  0
APPID
  2
GENIUS_GENOBJ-NBEHI-BHB_13
 70
     0
  0
APPID
  2
GENIUS_GENOBJ-F-PART_13
 70
     0
  0
APPID
  2
GENIUS_GEFSTDP_13
 70
     0
  0
APPID
  2
GENIUS_GEFINERT_13
 70
     0
  0
APPID
  2
GENIUS_GENOBJ-F-INER_13
 70
     0
  0
APPID
  2
GENIUS_GENOBJ-F-TOL_13
 70
     0
  0
APPID
  2
GENIUS_GENCFG_13
 70
     0
  0
APPID
  2
GENIUS_GEVCFG0_13
 70
     0
  0
APPID
  2
GENIUS_GENCFG0_13
 70
     0
  0
APPID
  2
GENIUS_GENCFG1_13
 70
     0
  0
APPID
  2
GENIUS_GENCFG2_13
 70
     0
  0
APPID
  2
GENIUS_GENCFG3_13
 70
     0
  0
APPID
  2
GENIUS_GENREC_13
 70
     0
  0
APPID
  2
GENIUS_GENOBJ-N-REC_13
 70
     0
  0
APPID
  2
GENIUS_GENOBJ-N-CEN_13
 70
     0
  0
APPID
  2
GEVIT
 70
     0
  0
APPID
  2
GENIUS_GENOBJ-F-ROD_13
 70
     0
  0
APPID
  2
GENIUS_GENOBJ-F-SPR_13
 70
     0
  0
APPID
  2
GENIUS_GEFSPRING_13
 70
     0
  0
APPID
  2
GENIUS_GENOBJ-N-FITL_13
 70
     0
  0
APPID
  2
GENIUS_GENFIL_13
 70
     0
  0
APPID
  2
GENIUS_GENOBJ-N-CHA_13
 70
     0
  0
APPID
  2
GENIUS_GENOBJ-F-EDG_13
 70
     0
  0
APPID
  2
GENIUS_GEFPARTINS_13
 70
     0
  0
APPID
  2
GENIUS_GEFCFG0_13
 70
     0
  0
APPID
  2
GENIUS_GENCFG4_13
 70
     0
  0
APPID
  2
GENIUS_GENCFG5_13
 70
     0
  0
APPID
  2
GEV_VCCNULL_SWITCH_OFF
 70
     0
  0
APPID
  2
GEVID930736656
 70
     0
  0
APPID
  2
GEVDC
 70
     0
  0
APPID
  2
GEVCON
 70
     0
  0
APPID
  2
GEVRADREF
 70
     0
  0
APPID
  2
VCC
 70
     0
  0
APPID
  2
GEVXXX
 70
     0
  0
APPID
  2
GEVPT
 70
     0
  0
APPID
  2
GENBH
 70
     0
  0
APPID
  2
GEVMK
 70
     0
  0
APPID
  2
GENIUS_GENINF13_13
 70
     0
  0
APPID
  2
GENIUS_GENOBJ-N-INFOPT_13
 70
     0
  0
APPID
  2
GENIUS_GENSCSYM_13
 70
     0
  0
APPID
  2
GENIUS_GEFINFNAM_13
 70
     0
  0
APPID
  2
GEVID930736657
 70
     0
  0
APPID
  2
GEVID930736658
 70
     0
  0
APPID
  2
GEVID930736659
 70
     0
  0
APPID
  2
GEVID930736660
 70
     0
  0
APPID
  2
GEVID930736661
 70
     0
  0
APPID
  2
ACAD_MLEADERVER
 70
     0
  0
APPID
  2
ACAD_NAV_VCDISPLAY
 70
     0
  0
ENDTAB
  0
TABLE
  2
DIMSTYLE
 70
     1
  0
DIMSTYLE
  2
STANDARD
 70
     0
  3

  4

  5

  6

  7

 40
1.0
 41
0.18
 42
0.0625
 43
0.38
 44
0.18
 45
0.0
 46
0.0
 47
0.0
 48
0.0
140
0.18
141
0.09
142
0.0
143
25.399999999999999
144
1.0
145
0.0
146
1.0
147
0.09
 71
     0
 72
     0
 73
     1
 74
     1
 75
     0
 76
     0
 77
     0
 78
     0
170
     0
171
     2
172
     0
173
     0
174
     0
175
     0
176
     0
177
     0
178
     0
  0
ENDTAB
  0
ENDSEC
  0
SECTION
  2
BLOCKS
  0
BLOCK
  8
0
  2
$MODEL_SPACE
 70
     0
 10
0.0
 20
0.0
 30
0.0
  3
$MODEL_SPACE
  1

  0
ENDBLK
  5
1492
  8
0
  0
BLOCK
 67
     1
  8
0
  2
$PAPER_SPACE
 70
     0
 10
0.0
 20
0.0
 30
0.0
  3
$PAPER_SPACE
  1

  0
ENDBLK
  5
1490
 67
     1
  8
0
  0
BLOCK
  8
0
  2
STDGX5
 70
     0
 10
0.0
 20
0.0
 30
0.0
  3
STDGX5
  1

  0
ENDBLK
  5
4F
  8
0
  0
BLOCK
  8
0
  2
ACAD
 70
     0
 10
0.0
 20
0.0
 30
0.0
  3
ACAD
  1

  0
ENDBLK
  5
5B1
  8
0
  0
BLOCK
  8
0
  2
37346B
 70
     0
 10
0.0
 20
0.0
 30
0.0
  3
37346B
  1

  0
ENDBLK
  5
5B4
  8
0
  0
BLOCK
  8
0
  2
37390B
 70
     0
 10
0.0
 20
0.0
 30
0.0
  3
37390B
  1

  0
ENDBLK
  5
5B7
  8
0
  0
ENDSEC
  0
SECTION
  2
ENTITIES
  0
INSERT
  5
DE
  8
0
  2
STDGX5
 10
0.0
 20
0.0
 30
0.0
  0
INSERT
  5
DF
  8
0
  2
STDGX5
 10
0.0
 20
0.0
 30
0.0
  0
INSERT
  5
15C
  8
0
  2
STDGX5
 10
275.0
 20
0.0
 30
0.0
  0
INSERT
  5
15D
  8
0
  2
STDGX5
 10
275.0
 20
0.0
 30
0.0
  0
INSERT
  5
258
  8
0
  2
STDGX5
 10
0.0
 20
0.0
 30
0.0
 41
0.5
 42
0.5
 43
0.5
  0
INSERT
  5
259
  8
0
  2
STDGX5
 10
0.0
 20
0.0
 30
0.0
 41
0.5
 42
0.5
 43
0.5
  0
INSERT
  5
25A
  8
0
  2
STDGX5
 10
137.5
 20
0.0
 30
0.0
 41
0.5
 42
0.5
 43
0.5
  0
INSERT
  5
25B
  8
0
  2
STDGX5
 10
137.5
 20
0.0
 30
0.0
 41
0.5
 42
0.5
 43
0.5
  0
INSERT
  5
598
  8
0
  2
STDGX5
 10
0.0
 20
0.0
 30
0.0
 41
0.5
 42
0.5
 43
0.5
  0
INSERT
  5
599
  8
0
  2
STDGX5
 10
0.0
 20
0.0
 30
0.0
 41
0.5
 42
0.5
 43
0.5
  0
INSERT
  5
59A
  8
0
  2
STDGX5
 10
137.5
 20
0.0
 30
0.0
 41
0.5
 42
0.5
 43
0.5
  0
INSERT
  5
59B
  8
0
  2
STDGX5
 10
137.5
 20
0.0
 30
0.0
 41
0.5
 42
0.5
 43
0.5
  0
INSERT
  5
84C
  8
0
  2
ACAD
 10
-39.07825600000001
 20
-34.348043720650608
 30
0.0
  0
INSERT
  5
84D
  8
ITEM_HILFE
  2
ACAD
 10
144.12264200000001
 20
104.24832327934941
 30
0.0
  0
INSERT
  5
84E
  8
0
  2
ACAD
 10
340.68383799999992
 20
293.02934227934941
 30
0.0
  0
INSERT
  5
84F
  8
0
  2
37346B
 10
139.5211469999999
 20
-13.43960272065061
 30
0.0
  0
INSERT
  5
850
  8
0
  2
37390B
 10
139.5211469999999
 20
-13.43960272065061
 30
0.0
  0
INSERT
  5
851
  8
0
  2
37346B
 10
139.5211469999999
 20
-13.43960272065061
 30
0.0
  0
INSERT
  5
852
  8
0
  2
37390B
 10
139.5211469999999
 20
-13.43960272065061
 30
0.0
  0
INSERT
  5
853
  8
0
  2
37346B
 10
158.3057619999999
 20
394.23732027934938
 30
0.0
  0
INSERT
  5
854
  8
0
  2
37390B
 10
158.3057619999999
 20
394.23732027934938
 30
0.0
  0
INSERT
  5
855
  8
0
  2
37346B
 10
158.3057619999999
 20
394.23732027934938
 30
0.0
  0
INSERT
  5
856
  8
0
  2
37390B
 10
158.3057619999999
 20
394.23732027934938
 30
0.0
  0
INSERT
  5
857
  8
0
  2
37390B
 10
652.92548599999986
 20
304.72321327934941
 30
0.0
  0
INSERT
  5
858
  8
0
  2
STDGX5
 10
0.0
 20
-2.4514367206506051
 30
0.0
  0
INSERT
  5
859
  8
0
  2
STDGX5
 10
0.0
 20
-2.4514367206506051
 30
0.0
  0
INSERT
  5
85A
  8
0
  2
STDGX5
 10
275.0
 20
-2.4514367206506051
 30
0.0
  0
INSERT
  5
85B
  8
0
  2
STDGX5
 10
275.0
 20
-2.4514367206506051
 30
0.0
  0
INSERT
  5
90F
  8
0
  2
STDGX5
 10
0.0
 20
-2.4514367206506051
 30
0.0
 41
2.0
 42
2.0
 43
2.0
  0
INSERT
  5
910
  8
0
  2
STDGX5
 10
0.0
 20
-2.4514367206506051
 30
0.0
 41
2.0
 42
2.0
 43
2.0
  0
INSERT
  5
911
  8
0
  2
STDGX5
 10
550.0
 20
-2.4514367206506051
 30
0.0
 41
2.0
 42
2.0
 43
2.0
  0
INSERT
  5
912
  8
0
  2
STDGX5
 10
550.0
 20
-2.4514367206506051
 30
0.0
 41
2.0
 42
2.0
 43
2.0
  0
LINE
  5
124A
  8
0
 10
299.69677352965249
 20
85.118911930238468
 30
0.0
 11
210.6967735296526
 21
85.118911930238468
 31
0.0
  0
LINE
  5
124B
  8
0
 10
210.6967735296526
 20
105.1189119302385
 30
0.0
 11
210.6967735296526
 21
85.118911930238468
 31
0.0
  0
LINE
  5
124C
  8
0
 10
210.6967735296526
 20
105.1189119302385
 30
0.0
 11
299.69677352965249
 21
105.1189119302385
 31
0.0
  0
CIRCLE
  5
124E
  8
0
 10
255.1967735296526
 20
94.618911930238482
 30
0.0
 40
5.5
  0
LINE
  5
124F
  8
0
 10
299.69677352965249
 20
105.1189119302385
 30
0.0
 11
299.69677352965249
 21
85.118911930238468
 31
0.0
  0
LINE
  5
1250
  8
0
 10
173.61677155150599
 20
146.31891193023529
 30
0.0
 11
173.61677155150599
 21
235.31891193023529
 31
0.0
  0
LINE
  5
1251
  8
0
 10
128.6167715514984
 20
105.1189119302303
 30
0.0
 11
128.6167715514984
 21
85.118911930230297
 31
0.0
  0
CIRCLE
  5
1252
  8
0
 10
117.1167715533944
 20
95.618911930231889
 30
0.0
 40
6.0
  0
LINE
  5
1254
  8
0
 10
177.61677155151611
 20
146.31891193023529
 30
0.0
 11
173.61677155150599
 21
146.31891193023529
 31
0.0
  0
LINE
  5
1255
  8
2
 10
174.1167715515061
 20
163.81891192834439
 30
0.0
 11
174.1167715515065
 21
151.8189119283407
 31
0.0
  0
LINE
  5
1256
  8
2
 10
174.1167715515065
 20
151.8189119283407
 30
0.0
 11
173.61677155150599
 21
151.81891192834439
 31
0.0
  0
LINE
  5
1257
  8
2
 10
177.6167715515185
 20
153.8189119283432
 30
0.0
 11
174.11677155150659
 21
153.8189119283432
 31
0.0
  0
LINE
  5
1258
  8
2
 10
177.6167715515185
 20
161.8189119283432
 30
0.0
 11
174.1167715515063
 21
161.8189119283432
 31
0.0
  0
LINE
  5
1259
  8
2
 10
173.61677155150599
 20
163.81891192834439
 30
0.0
 11
174.1167715515061
 21
163.81891192834439
 31
0.0
  0
LINE
  5
125A
  8
0
 10
39.616771551498459
 20
85.118911930230297
 30
0.0
 11
64.606774114286964
 21
85.118911930230297
 31
0.0
  0
LINE
  5
125B
  8
0
 10
39.616771551498459
 20
105.1189119302303
 30
0.0
 11
65.126247598747682
 21
105.1189119302303
 31
0.0
  0
LINE
  5
125C
  8
0
 10
177.61677155151611
 20
235.31891193023529
 30
0.0
 11
177.61677155151611
 21
146.31891193023529
 31
0.0
  0
CIRCLE
  5
125D
  8
0
 10
51.116771549602511
 20
95.618911930231889
 30
0.0
 40
6.0
  0
LINE
  5
125E
  8
2
 10
174.8667715515206
 20
193.56891193023529
 30
0.0
 11
174.8667715515206
 21
188.06891193023529
 31
0.0
  0
LINE
  5
125F
  8
2
 10
177.6167715515206
 20
185.31891193023529
 30
0.0
 11
174.8667715515206
 21
188.06891193023529
 31
0.0
  0
LINE
  5
1260
  8
2
 10
174.8667715515206
 20
188.06891193023529
 30
0.0
 11
173.61677155150969
 21
188.06891193023529
 31
0.0
  0
LINE
  5
1261
  8
2
 10
177.6167715515206
 20
196.31891193023529
 30
0.0
 11
174.8667715515206
 21
193.56891193023529
 31
0.0
  0
LINE
  5
1262
  8
2
 10
174.8667715515206
 20
193.56891193023529
 30
0.0
 11
173.61677155150969
 21
193.56891193023529
 31
0.0
  0
LINE
  5
1263
  8
2
 10
174.1167715515102
 20
229.8189119321311
 30
0.0
 11
174.1167715515102
 21
217.8189119321311
 31
0.0
  0
LINE
  5
1264
  8
2
 10
174.1167715515102
 20
217.8189119321311
 30
0.0
 11
173.61677155150599
 21
217.8189119321311
 31
0.0
  0
LINE
  5
1265
  8
2
 10
177.6167715515185
 20
219.81891193212741
 30
0.0
 11
174.1167715515102
 21
219.81891193212741
 31
0.0
  0
LINE
  5
1266
  8
2
 10
177.6167715515185
 20
227.81891193212741
 30
0.0
 11
174.1167715515102
 21
227.81891193212741
 31
0.0
  0
LINE
  5
1267
  8
2
 10
173.6167715515065
 20
229.8189119321311
 30
0.0
 11
174.1167715515102
 21
229.8189119321311
 31
0.0
  0
LINE
  5
1268
  8
0
 10
39.616771551498459
 20
105.1189119302303
 30
0.0
 11
39.616771551498459
 21
85.118911930230297
 31
0.0
  0
LINE
  5
1269
  8
0
 10
177.61677155151611
 20
235.31891193023529
 30
0.0
 11
173.61677155150599
 21
235.31891193023529
 31
0.0
  0
CIRCLE
  5
1270
  8
0
 10
84.116771551498445
 20
94.618911930230297
 30
0.0
 40
5.9000000000000004
  0
CIRCLE
  5
1271
  8
0
 10
84.116771551498445
 20
94.618911930230297
 30
0.0
 40
6.5
  0
CIRCLE
  5
1272
  8
0
 10
84.116771551508805
 20
94.618911930224499
 30
0.0
 40
1.7324999999417501
  0
POLYLINE
  5
1273
  8
0
 66
     1
 10
0.0
 20
0.0
 30
0.0
 70
     1
  0
VERTEX
  5
1274
  8
0
 10
85.849271551450556
 20
94.618911930224499
 30
0.0
  0
VERTEX
  5
1275
  8
0
 10
84.983021551479723
 20
96.119300942230623
 30
0.0
  0
VERTEX
  5
1276
  8
0
 10
83.250521551537986
 20
96.119300942230623
 30
0.0
  0
VERTEX
  5
1277
  8
0
 10
82.384271551567039
 20
94.618911930224499
 30
0.0
  0
VERTEX
  5
1278
  8
0
 10
83.250521551537872
 20
93.118522918218389
 30
0.0
  0
VERTEX
  5
1279
  8
0
 10
84.983021551479624
 20
93.118522918218389
 30
0.0
  0
SEQEND
  5
127A
  8
0
  0
LINE
  5
127B
  8
0
 10
159.2167715515051
 20
197.31891193024671
 30
0.0
 11
159.2167715515051
 21
184.31891193023711
 31
0.0
  0
LINE
  5
127D
  8
0
 10
159.21677155149379
 20
197.3189119302354
 30
0.0
 11
160.61677155152739
 21
197.3189119302354
 31
0.0
  0
LINE
  5
127E
  8
0
 10
159.21677155149379
 20
197.3189119302354
 30
0.0
 11
158.61677155152739
 21
196.71891193026889
 31
0.0
  0
LINE
  5
127F
  8
0
 10
159.21677155147341
 20
184.31891193023711
 30
0.0
 11
160.61677155150699
 21
184.31891193023529
 31
0.0
  0
LINE
  5
1280
  8
0
 10
158.61677155149741
 20
184.91891193021479
 30
0.0
 11
158.61677155151281
 21
196.71891193025439
 31
0.0
  0
LINE
  5
1281
  8
0
 10
159.21677155147341
 20
184.31891193023711
 30
0.0
 11
158.61677155150781
 21
184.91891193020439
 31
0.0
  0
CIRCLE
  5
129D
  8
0
 10
84.116771551498445
 20
94.618911930230297
 30
0.0
 40
21.700000000000021
  0
CIRCLE
  5
129E
  8
0
 10
84.116771551498445
 20
94.618911930230297
 30
0.0
 40
7.4999999975796499
  0
CIRCLE
  5
129F
  8
0
 10
84.116771551498445
 20
94.618911930230297
 30
0.0
 40
17.200000002423248
  0
ARC
  5
12A0
  8
0
 10
168.61677155150599
 20
171.61891193023689
 30
0.0
 40
2.5
 50
270.0
 51
0.0
1001
GENIUS_GENODEF_13
1002
{
1000
HIER
1070
     0
1002
}
1002
{
1000
MANEDIT
1070
     0
1002
}
1002
{
1000
NOSEL
1070
     0
1002
}
1002
{
1000
BEHIND
1070
     0
1002
}
1002
{
1000
REACTOR
1002
}
1001
GENIUS_GENOBJ-N-FIL_13
1002
{
1000
OWNER
1000
GEN
1002
}
  0
ARC
  5
12A1
  8
0
 10
165.61677155150599
 20
171.61891193023661
 30
0.0
 40
2.5
 50
180.0
 51
270.0
1001
GENIUS_GENODEF_13
1002
{
1000
HIER
1070
     0
1002
}
1002
{
1000
MANEDIT
1070
     0
1002
}
1002
{
1000
NOSEL
1070
     0
1002
}
1002
{
1000
BEHIND
1070
     0
1002
}
1002
{
1000
REACTOR
1002
}
1001
GENIUS_GENOBJ-N-FIL_13
1002
{
1000
OWNER
1000
GEN
1002
}
  0
LINE
  5
12A2
  8
0
 10
163.1167715515061
 20
210.0189119302338
 30
0.0
 11
163.1167715515061
 21
171.61891193023661
 31
0.0
  0
LINE
  5
12A3
  8
0
 10
171.1167715515061
 20
171.61891193023689
 30
0.0
 11
171.1167715515061
 21
210.0189119302338
 31
0.0
  0
LINE
  5
12A4
  8
0
 10
160.6167715515061
 20
190.81891193023529
 30
0.0
 11
160.6167715515061
 21
197.81898808023519
 31
0.0
  0
LINE
  5
12A5
  8
0
 10
173.61677155150599
 20
190.81891193023529
 30
0.0
 11
173.61677155150599
 21
197.81898808023519
 31
0.0
  0
ARC
  5
12A6
  8
0
 10
165.61677155150599
 20
210.0189119302338
 30
0.0
 40
2.5
 50
90.0
 51
180.0
1001
GENIUS_GENODEF_13
1002
{
1000
HIER
1070
     0
1002
}
1002
{
1000
MANEDIT
1070
     0
1002
}
1002
{
1000
NOSEL
1070
     0
1002
}
1002
{
1000
BEHIND
1070
     0
1002
}
1002
{
1000
REACTOR
1002
}
1001
GENIUS_GENOBJ-N-FIL_13
1002
{
1000
OWNER
1000
GEN
1002
}
  0
ARC
  5
12A7
  8
0
 10
168.61677155150599
 20
210.0189119302338
 30
0.0
 40
2.5
 50
0.0
 51
90.0
1001
GENIUS_GENODEF_13
1002
{
1000
HIER
1070
     0
1002
}
1002
{
1000
MANEDIT
1070
     0
1002
}
1002
{
1000
NOSEL
1070
     0
1002
}
1002
{
1000
BEHIND
1070
     0
1002
}
1002
{
1000
REACTOR
1002
}
1001
GENIUS_GENOBJ-N-FIL_13
1002
{
1000
OWNER
1000
GEN
1002
}
  0
LINE
  5
12A8
  8
0
 10
168.61677155150599
 20
212.5189119302338
 30
0.0
 11
165.61677155150599
 21
212.5189119302338
 31
0.0
  0
LINE
  5
12A9
  8
0
 10
171.1167715515061
 20
198.3539743741137
 30
0.0
 11
173.12549775472451
 21
198.3189119278133
 31
0.0
  0
ARC
  5
12AA
  8
0
 10
173.1167715515061
 20
197.81898808023519
 30
0.0
 40
0.5
 50
0.0
 51
88.999999999998224
1001
GENIUS_GENODEF_13
1002
{
1000
HIER
1070
     0
1002
}
1002
{
1000
MANEDIT
1070
     0
1002
}
1002
{
1000
NOSEL
1070
     0
1002
}
1002
{
1000
BEHIND
1070
     0
1002
}
1002
{
1000
REACTOR
1002
}
1001
GENIUS_GENOBJ-N-FIL_13
1002
{
1000
OWNER
1000
GEN
1002
}
  0
LINE
  5
12AB
  8
0
 10
163.1167715515061
 20
198.3539743741137
 30
0.0
 11
161.10804534828739
 21
198.3189119278133
 31
0.0
  0
ARC
  5
12AC
  8
0
 10
161.11677155150599
 20
197.81898808023519
 30
0.0
 40
0.5
 50
91.000000000001734
 51
180.0
1001
GENIUS_GENODEF_13
1002
{
1000
HIER
1070
     0
1002
}
1002
{
1000
MANEDIT
1070
     0
1002
}
1002
{
1000
NOSEL
1070
     0
1002
}
1002
{
1000
BEHIND
1070
     0
1002
}
1002
{
1000
REACTOR
1002
}
1001
GENIUS_GENOBJ-N-FIL_13
1002
{
1000
OWNER
1000
GEN
1002
}
  0
LINE
  5
12AD
  8
0
 10
171.1167715515061
 20
183.28384948635701
 30
0.0
 11
173.12549775472451
 21
183.3189119326571
 31
0.0
  0
LINE
  5
12AE
  8
0
 10
173.61677155150599
 20
190.81891193023529
 30
0.0
 11
173.61677155150599
 21
183.8188357802353
 31
0.0
  0
ARC
  5
12AF
  8
0
 10
173.1167715515061
 20
183.8188357802353
 30
0.0
 40
0.5
 50
271.00000000000182
 51
0.0
1001
GENIUS_GENODEF_13
1002
{
1000
HIER
1070
     0
1002
}
1002
{
1000
MANEDIT
1070
     0
1002
}
1002
{
1000
NOSEL
1070
     0
1002
}
1002
{
1000
BEHIND
1070
     0
1002
}
1002
{
1000
REACTOR
1002
}
1001
GENIUS_GENOBJ-N-FIL_13
1002
{
1000
OWNER
1000
GEN
1002
}
  0
LINE
  5
12B0
  8
0
 10
160.6167715515061
 20
190.81891193023529
 30
0.0
 11
160.6167715515061
 21
183.8188357802353
 31
0.0
  0
LINE
  5
12B1
  8
0
 10
163.1167715515061
 20
183.2838494863567
 30
0.0
 11
161.10804534828739
 21
183.3189119326571
 31
0.0
  0
ARC
  5
12B2
  8
0
 10
161.11677155150599
 20
183.8188357802353
 30
0.0
 40
0.5
 50
180.0
 51
268.99999999999829
1001
GENIUS_GENODEF_13
1002
{
1000
HIER
1070
     0
1002
}
1002
{
1000
MANEDIT
1070
     0
1002
}
1002
{
1000
NOSEL
1070
     0
1002
}
1002
{
1000
BEHIND
1070
     0
1002
}
1002
{
1000
REACTOR
1002
}
1001
GENIUS_GENOBJ-N-FIL_13
1002
{
1000
OWNER
1000
GEN
1002
}
  0
LINE
  5
12B3
  8
0
 10
168.61677155150599
 20
169.11891193023689
 30
0.0
 11
165.61677155150599
 21
169.11891193023661
 31
0.0
  0
LINE
  5
12C6
  8
0
 10
173.61677155150599
 20
163.59241462023539
 30
0.0
 11
173.61677155150599
 21
152.04540923644279
 31
0.0
  0
LINE
  5
12C7
  8
0
 10
173.61677155150599
 20
152.04540923644279
 30
0.0
 11
170.1167715515021
 21
152.04540923644299
 31
0.0
  0
LINE
  5
12C8
  8
0
 10
173.61677155150599
 20
163.59241462023539
 30
0.0
 11
170.1167715515021
 21
163.5924146202355
 31
0.0
  0
LINE
  5
12C9
  8
2
 10
173.61677155150241
 20
160.7056632742873
 30
0.0
 11
170.1167715515021
 21
160.70566327428739
 31
0.0
  0
LINE
  5
12CA
  8
2
 10
173.61677155150241
 20
154.93216058239099
 30
0.0
 11
170.1167715515021
 21
154.9321605823875
 31
0.0
  0
ARC
  5
12CB
  8
0
 10
171.95010488482961
 20
153.48878490941539
 30
0.0
 40
2.3333333333275981
 50
141.78678929821311
 51
218.21321070180059
  0
ARC
  5
12CC
  8
0
 10
178.2960318835689
 20
157.80229688477789
 30
0.0
 40
8.6792762354619732
 50
160.45682375992541
 51
199.31056620017989
  0
ARC
  5
12CD
  8
0
 10
171.95010488482899
 20
162.14903894726379
 30
0.0
 40
2.3333333333265478
 50
141.7867892982041
 51
218.21321070179579
  0
LINE
  5
12CE
  8
0
 10
169.6167715515021
 20
152.68049453255031
 30
0.0
 11
169.6167715515021
 21
162.9573293241279
 31
0.0
  0
LINE
  5
12CF
  8
0
 10
170.1167715515021
 20
152.04540923644299
 30
0.0
 11
169.6167715515021
 21
152.68049453255031
 31
0.0
  0
LINE
  5
12D0
  8
0
 10
170.1167715515021
 20
163.5924146202355
 30
0.0
 11
169.6167715515021
 21
162.9573293241279
 31
0.0
  0
CIRCLE
  5
12D9
  8
0
 10
288.1967735315485
 20
95.618911930238482
 30
0.0
 40
6.0
  0
POLYLINE
  5
12DA
  8
0
 66
     1
 10
0.0
 20
0.0
 30
0.0
 70
     1
  0
VERTEX
  5
12DB
  8
0
 10
287.04177353154847
 20
97.619430612980537
 30
0.0
  0
VERTEX
  5
12DC
  8
0
 10
285.8867735315485
 20
95.618911930238482
 30
0.0
  0
VERTEX
  5
12DD
  8
0
 10
287.04177353154847
 20
93.618393247496428
 30
0.0
  0
VERTEX
  5
12DE
  8
0
 10
289.35177353154847
 20
93.618393247496428
 30
0.0
  0
VERTEX
  5
12DF
  8
0
 10
290.50677353154839
 20
95.618911930238482
 30
0.0
  0
VERTEX
  5
12E0
  8
0
 10
289.35177353154847
 20
97.619430612980537
 30
0.0
  0
SEQEND
  5
12E1
  8
0
  0
CIRCLE
  5
12E2
  8
0
 10
288.1967735315485
 20
95.618911930238482
 30
0.0
 40
2.3100000000000001
  0
CIRCLE
  5
12E3
  8
0
 10
255.196773529653
 20
94.618911930238482
 30
0.0
 40
5.0
  0
POLYLINE
  5
12E4
  8
0
 66
     1
 10
0.0
 20
0.0
 30
0.0
 70
     1
  0
VERTEX
  5
12E5
  8
0
 10
254.32927352965291
 20
96.12146600580445
 30
0.0
  0
VERTEX
  5
12E6
  8
0
 10
253.46177352965299
 20
94.618911930238482
 30
0.0
  0
VERTEX
  5
12E7
  8
0
 10
254.32927352965291
 20
93.116357854672515
 30
0.0
  0
VERTEX
  5
12E8
  8
0
 10
256.06427352965312
 20
93.116357854672515
 30
0.0
  0
VERTEX
  5
12E9
  8
0
 10
256.93177352965301
 20
94.618911930238482
 30
0.0
  0
VERTEX
  5
12EA
  8
0
 10
256.06427352965312
 20
96.12146600580445
 30
0.0
  0
SEQEND
  5
12EB
  8
0
  0
CIRCLE
  5
12EC
  8
0
 10
255.196773529653
 20
94.618911930238482
 30
0.0
 40
1.7350000000000001
  0
LINE
  5
12ED
  8
0
 10
103.10729550424919
 20
105.1189119302303
 30
0.0
 11
128.6167715514984
 21
105.1189119302303
 31
0.0
  0
LINE
  5
12EE
  8
0
 10
103.6267689887099
 20
85.118911930230297
 30
0.0
 11
128.6167715514984
 21
85.118911930230297
 31
0.0
  0
ARC
  5
12EF
  8
0
 10
255.1967735296526
 20
94.618911930238482
 30
0.0
 40
21.700000000000021
 50
205.96283296303699
 51
334.03716703696301
  0
ARC
  5
12F0
  8
0
 10
255.1967735296526
 20
94.618911930238482
 30
0.0
 40
17.200000002423248
 50
213.5267043113719
 51
326.47329568862801
  0
ARC
  5
12F1
  8
0
 10
255.1967735296526
 20
94.618911930238482
 30
0.0
 40
17.200000002423248
 50
37.623141496361043
 51
142.37685850363891
  0
ARC
  5
12F2
  8
0
 10
255.1967735296526
 20
94.618911930238482
 30
0.0
 40
21.700000000000021
 50
28.938527740180611
 51
151.0614722598194
  0
POLYLINE
  5
12F4
  8
0
 66
     1
 10
0.0
 20
0.0
 30
0.0
 70
     1
  0
VERTEX
  5
12F5
  8
0
 10
48.230020203654249
 20
100.6189119302306
 30
0.0
  0
VERTEX
  5
12F6
  8
0
 10
45.3432688577061
 20
95.618911930230624
 30
0.0
  0
VERTEX
  5
12F7
  8
0
 10
48.230020203654249
 20
90.618911930230624
 30
0.0
  0
VERTEX
  5
12F8
  8
0
 10
54.003522895550532
 20
90.618911930230624
 30
0.0
  0
VERTEX
  5
12F9
  8
0
 10
56.890274241498673
 20
95.618911930230624
 30
0.0
  0
VERTEX
  5
12FA
  8
0
 10
54.003522895550532
 20
100.6189119302306
 30
0.0
  0
SEQEND
  5
12FB
  8
0
  0
CIRCLE
  5
12FC
  8
0
 10
51.116771549602511
 20
95.618911930230624
 30
0.0
 40
5.0
  0
POLYLINE
  5
1301
  8
0
 66
     1
 10
0.0
 20
0.0
 30
0.0
 70
     1
  0
VERTEX
  5
1302
  8
0
 10
114.2300202074461
 20
100.6189119302306
 30
0.0
  0
VERTEX
  5
1303
  8
0
 10
111.343268861498
 20
95.618911930230624
 30
0.0
  0
VERTEX
  5
1304
  8
0
 10
114.2300202074461
 20
90.618911930230624
 30
0.0
  0
VERTEX
  5
1305
  8
0
 10
120.0035228993424
 20
90.618911930230624
 30
0.0
  0
VERTEX
  5
1306
  8
0
 10
122.8902742452905
 20
95.618911930230624
 30
0.0
  0
VERTEX
  5
1307
  8
0
 10
120.0035228993424
 20
100.6189119302306
 30
0.0
  0
SEQEND
  5
1308
  8
0
  0
CIRCLE
  5
1309
  8
0
 10
117.1167715533944
 20
95.618911930230624
 30
0.0
 40
5.0
  0
ARC
  5
130D
  8
0
 10
178.2960318835689
 20
223.8022968885698
 30
0.0
 40
8.6792762354619732
 50
160.45682375992541
 51
199.31056620017989
  0
LINE
  5
130E
  8
0
 10
169.6167715515021
 20
218.68049453634231
 30
0.0
 11
169.6167715515021
 21
228.95732932791989
 31
0.0
  0
LINE
  5
130F
  8
2
 10
173.61677155150599
 20
229.5924146240273
 30
0.0
 11
173.61677155150599
 21
218.04540924023479
 31
0.0
  0
ARC
  5
1310
  8
0
 10
171.95010488482899
 20
228.14903895105579
 30
0.0
 40
2.3333333333265478
 50
141.7867892982041
 51
218.21321070179579
  0
LINE
  5
1311
  8
0
 10
170.1167715515021
 20
229.5924146240275
 30
0.0
 11
169.6167715515021
 21
228.95732932791989
 31
0.0
  0
LINE
  5
1312
  8
0
 10
173.61677155150599
 20
229.5924146240273
 30
0.0
 11
170.1167715515021
 21
229.5924146240275
 31
0.0
  0
LINE
  5
1313
  8
2
 10
173.61677155150241
 20
226.70566327807919
 30
0.0
 11
170.1167715515021
 21
226.7056632780793
 31
0.0
  0
ARC
  5
1314
  8
0
 10
171.95010488482961
 20
219.48878491320741
 30
0.0
 40
2.3333333333275981
 50
141.78678929821311
 51
218.21321070180059
  0
LINE
  5
1315
  8
0
 10
170.1167715515021
 20
218.0454092402349
 30
0.0
 11
169.6167715515021
 21
218.68049453634231
 31
0.0
  0
LINE
  5
1316
  8
2
 10
173.61677155150241
 20
220.9321605861829
 30
0.0
 11
170.1167715515021
 21
220.93216058617941
 31
0.0
  0
LINE
  5
1317
  8
0
 10
173.61677155150599
 20
218.04540924023479
 30
0.0
 11
170.1167715515021
 21
218.0454092402349
 31
0.0
  0
CIRCLE
  5
1319
  8
0
 10
222.19677352775659
 20
95.618911930238482
 30
0.0
 40
6.0
  0
CIRCLE
  5
131A
  8
0
 10
222.19677352775659
 20
95.618911930238482
 30
0.0
 40
2.3100000000000001
  0
POLYLINE
  5
131B
  8
0
 66
     1
 10
0.0
 20
0.0
 30
0.0
 70
     1
  0
VERTEX
  5
131C
  8
0
 10
221.04177352775659
 20
97.619430612980537
 30
0.0
  0
VERTEX
  5
131D
  8
0
 10
219.8867735277567
 20
95.618911930238482
 30
0.0
  0
VERTEX
  5
131E
  8
0
 10
221.04177352775659
 20
93.618393247496428
 30
0.0
  0
VERTEX
  5
131F
  8
0
 10
223.35177352775659
 20
93.618393247496428
 30
0.0
  0
VERTEX
  5
1320
  8
0
 10
224.50677352775659
 20
95.618911930238482
 30
0.0
  0
VERTEX
  5
1321
  8
0
 10
223.35177352775659
 20
97.619430612980537
 30
0.0
  0
SEQEND
  5
1322
  8
0
  0
LINE
  5
1323
  8
2
 10
178.19677352965269
 20
155.50891192833899
 30
0.0
 11
176.8630944078252
 21
157.81891192833939
 31
0.0
  0
LINE
  5
1324
  8
0
 10
180.69677352965201
 20
151.81891192833839
 30
0.0
 11
180.69677352965451
 21
163.81891192833851
 31
0.0
  0
LINE
  5
1325
  8
0
 10
180.39677352965191
 20
151.81891192833859
 30
0.0
 11
180.3967735296545
 21
163.81891192833859
 31
0.0
  0
ARC
  5
1326
  8
2
 10
178.939169360329
 20
156.086411928339
 30
0.0
 40
0.9405625015943002
 50
142.12112050826869
 51
202.1211205082694
  0
LINE
  5
1327
  8
0
 10
180.3967735296545
 20
163.81891192833859
 30
0.0
 11
177.3967735296539
 21
160.81891192833911
 31
0.0
  0
LINE
  5
1328
  8
0
 10
180.3967735296545
 20
163.81891192833859
 30
0.0
 11
180.69677352965451
 21
163.81891192833851
 31
0.0
  0
LINE
  5
1329
  8
2
 10
178.19677352965371
 20
160.12891192833911
 30
0.0
 11
176.8630944078252
 21
157.81891192833939
 31
0.0
  0
ARC
  5
132A
  8
2
 10
181.46360685873509
 20
157.81891192833831
 30
0.0
 40
3.464999999999999
 50
160.5287793654972
 51
199.47122063447861
  0
LINE
  5
132B
  8
2
 10
180.69677352965371
 20
160.1289119283386
 30
0.0
 11
178.19677352965371
 21
160.12891192833911
 31
0.0
  0
LINE
  5
132C
  8
2
 10
180.69677352965351
 20
158.9739119283384
 30
0.0
 11
178.19677352965351
 21
158.97391192833899
 31
0.0
  0
ARC
  5
132D
  8
2
 10
178.93916936032971
 20
159.55141192833889
 30
0.0
 40
0.9405625015943002
 50
157.87887949170641
 51
217.8788794917069
  0
LINE
  5
132E
  8
2
 10
180.696773529653
 20
156.66391192833851
 30
0.0
 11
178.196773529653
 21
156.6639119283391
 31
0.0
  0
LINE
  5
132F
  8
0
 10
180.39677352965191
 20
151.81891192833859
 30
0.0
 11
177.39677352965259
 21
154.81891192833911
 31
0.0
  0
LINE
  5
1330
  8
2
 10
180.6967735296528
 20
155.50891192833851
 30
0.0
 11
178.19677352965269
 21
155.50891192833899
 31
0.0
  0
LINE
  5
1331
  8
0
 10
180.39677352965191
 20
151.81891192833859
 30
0.0
 11
180.69677352965201
 21
151.81891192833839
 31
0.0
  0
LINE
  5
1332
  8
2
 10
174.3967735296539
 20
160.81891192833979
 30
0.0
 11
174.39677352965259
 21
154.81891192833979
 31
0.0
  0
LINE
  5
1333
  8
2
 10
177.39677352965259
 20
154.81891192833911
 30
0.0
 11
177.3967735296539
 21
160.81891192833911
 31
0.0
  0
LINE
  5
1334
  8
2
 10
174.3967735296537
 20
160.20391192833981
 30
0.0
 11
176.8967735296539
 21
160.81891192833939
 31
0.0
  0
LINE
  5
1335
  8
2
 10
177.3967735296539
 20
160.81891192833911
 30
0.0
 11
169.6167715515042
 21
160.81891192834101
 31
0.0
  0
LINE
  5
1336
  8
2
 10
174.3967735296537
 20
160.20391192833981
 30
0.0
 11
169.6167715515042
 21
160.2039119283408
 31
0.0
  0
LINE
  5
1337
  8
2
 10
174.39677352965271
 20
155.4339119283398
 30
0.0
 11
176.89677352965259
 21
154.81891192833939
 31
0.0
  0
LINE
  5
1338
  8
2
 10
177.39677352965259
 20
154.81891192833911
 30
0.0
 11
169.61677155150431
 21
154.81891192834101
 31
0.0
  0
LINE
  5
1339
  8
2
 10
174.39677352965271
 20
155.4339119283398
 30
0.0
 11
169.6167715515042
 21
155.4339119283409
 31
0.0
  0
LINE
  5
133A
  8
0
 10
169.31177352965389
 20
160.81891192834101
 30
0.0
 11
169.31177352965261
 21
154.81891192834101
 31
0.0
  0
LINE
  5
133B
  8
0
 10
168.69677352965371
 20
160.20391192834111
 30
0.0
 11
168.69677352965269
 21
155.4339119283411
 31
0.0
  0
LINE
  5
133C
  8
3
 10
169.6167715515042
 20
160.2039119283408
 30
0.0
 11
168.69677352965371
 21
160.20391192834111
 31
0.0
  0
LINE
  5
133D
  8
0
 10
169.6167715515042
 20
160.81891192834101
 30
0.0
 11
169.31177352965389
 21
160.81891192834101
 31
0.0
  0
LINE
  5
133E
  8
0
 10
168.69677352965371
 20
160.20391192834111
 30
0.0
 11
169.31177352965389
 21
160.81891192834101
 31
0.0
  0
LINE
  5
133F
  8
0
 10
169.61677155150431
 20
154.81891192834101
 30
0.0
 11
169.31177352965261
 21
154.81891192834101
 31
0.0
  0
LINE
  5
1340
  8
3
 10
169.6167715515042
 20
155.4339119283409
 30
0.0
 11
168.69677352965269
 21
155.4339119283411
 31
0.0
  0
LINE
  5
1341
  8
0
 10
169.31177352965261
 20
154.81891192834101
 30
0.0
 11
168.69677352965269
 21
155.4339119283411
 31
0.0
  0
LINE
  5
1342
  8
2
 10
178.19677352965269
 20
221.5089119321309
 30
0.0
 11
176.8630944078252
 21
223.8189119321313
 31
0.0
  0
LINE
  5
1343
  8
0
 10
180.69677352965201
 20
217.81891193213039
 30
0.0
 11
180.69677352965451
 21
229.81891193213039
 31
0.0
  0
LINE
  5
1344
  8
0
 10
180.39677352965191
 20
217.8189119321305
 30
0.0
 11
180.3967735296545
 21
229.8189119321305
 31
0.0
  0
ARC
  5
1345
  8
2
 10
178.939169360329
 20
222.08641193213089
 30
0.0
 40
0.9405625015943002
 50
142.12112050826869
 51
202.1211205082694
  0
LINE
  5
1346
  8
0
 10
180.3967735296545
 20
229.8189119321305
 30
0.0
 11
177.3967735296539
 21
226.8189119321311
 31
0.0
  0
LINE
  5
1347
  8
0
 10
180.3967735296545
 20
229.8189119321305
 30
0.0
 11
180.69677352965451
 21
229.81891193213039
 31
0.0
  0
LINE
  5
1348
  8
2
 10
178.19677352965371
 20
226.12891193213099
 30
0.0
 11
176.8630944078252
 21
223.8189119321313
 31
0.0
  0
ARC
  5
1349
  8
2
 10
181.46360685873509
 20
223.81891193213031
 30
0.0
 40
3.464999999999999
 50
160.5287793654972
 51
199.47122063447861
  0
LINE
  5
134A
  8
2
 10
180.69677352965371
 20
226.12891193213059
 30
0.0
 11
178.19677352965371
 21
226.12891193213099
 31
0.0
  0
LINE
  5
134B
  8
2
 10
180.69677352965351
 20
224.97391193213039
 30
0.0
 11
178.19677352965351
 21
224.9739119321309
 31
0.0
  0
ARC
  5
134C
  8
2
 10
178.93916936032971
 20
225.5514119321308
 30
0.0
 40
0.9405625015943002
 50
157.87887949170641
 51
217.8788794917069
  0
LINE
  5
134D
  8
2
 10
180.696773529653
 20
222.66391193213039
 30
0.0
 11
178.196773529653
 21
222.66391193213099
 31
0.0
  0
LINE
  5
134E
  8
0
 10
180.39677352965191
 20
217.8189119321305
 30
0.0
 11
177.39677352965259
 21
220.8189119321311
 31
0.0
  0
LINE
  5
134F
  8
2
 10
180.6967735296528
 20
221.5089119321305
 30
0.0
 11
178.19677352965269
 21
221.5089119321309
 31
0.0
  0
LINE
  5
1350
  8
0
 10
180.39677352965191
 20
217.8189119321305
 30
0.0
 11
180.69677352965201
 21
217.81891193213039
 31
0.0
  0
LINE
  5
1351
  8
2
 10
174.3967735296539
 20
226.81891193213181
 30
0.0
 11
174.39677352965259
 21
220.81891193213181
 31
0.0
  0
LINE
  5
1352
  8
2
 10
177.39677352965259
 20
220.8189119321311
 30
0.0
 11
177.3967735296539
 21
226.8189119321311
 31
0.0
  0
LINE
  5
1353
  8
2
 10
174.3967735296537
 20
226.20391193213169
 30
0.0
 11
176.8967735296539
 21
226.8189119321313
 31
0.0
  0
LINE
  5
1354
  8
2
 10
177.3967735296539
 20
226.8189119321311
 30
0.0
 11
169.6167715515042
 21
226.81891193213289
 31
0.0
  0
LINE
  5
1355
  8
2
 10
174.3967735296537
 20
226.20391193213169
 30
0.0
 11
169.6167715515042
 21
226.2039119321328
 31
0.0
  0
LINE
  5
1356
  8
2
 10
174.39677352965271
 20
221.43391193213171
 30
0.0
 11
176.89677352965259
 21
220.8189119321313
 31
0.0
  0
LINE
  5
1357
  8
2
 10
177.39677352965259
 20
220.8189119321311
 30
0.0
 11
169.61677155150431
 21
220.81891193213289
 31
0.0
  0
LINE
  5
1358
  8
2
 10
174.39677352965271
 20
221.43391193213171
 30
0.0
 11
169.6167715515042
 21
221.43391193213279
 31
0.0
  0
LINE
  5
1359
  8
0
 10
169.31177352965389
 20
226.81891193213289
 30
0.0
 11
169.31177352965261
 21
220.81891193213289
 31
0.0
  0
LINE
  5
135A
  8
0
 10
168.69677352965371
 20
226.203911932133
 30
0.0
 11
168.69677352965269
 21
221.43391193213299
 31
0.0
  0
LINE
  5
135B
  8
3
 10
169.6167715515042
 20
226.2039119321328
 30
0.0
 11
168.69677352965371
 21
226.203911932133
 31
0.0
  0
LINE
  5
135C
  8
0
 10
169.6167715515042
 20
226.81891193213289
 30
0.0
 11
169.31177352965389
 21
226.81891193213289
 31
0.0
  0
LINE
  5
135D
  8
0
 10
168.69677352965371
 20
226.203911932133
 30
0.0
 11
169.31177352965389
 21
226.81891193213289
 31
0.0
  0
LINE
  5
135E
  8
0
 10
169.61677155150431
 20
220.81891193213289
 30
0.0
 11
169.31177352965261
 21
220.81891193213289
 31
0.0
  0
LINE
  5
135F
  8
3
 10
169.6167715515042
 20
221.43391193213279
 30
0.0
 11
168.69677352965269
 21
221.43391193213299
 31
0.0
  0
LINE
  5
1360
  8
0
 10
169.31177352965261
 20
220.81891193213289
 30
0.0
 11
168.69677352965269
 21
221.43391193213299
 31
0.0
  0
LINE
  5
1380
  8
0
 10
168.69677352965431
 20
93.233911930237795
 30
0.0
 11
169.31177352965449
 21
92.618911930237914
 31
0.0
  0
LINE
  5
1381
  8
0
 10
169.31177352965449
 20
92.618911930237914
 30
0.0
 11
169.31177352965321
 21
98.618911930237914
 31
0.0
  0
LINE
  5
1382
  8
2
 10
174.3967735296543
 20
93.233911930239074
 30
0.0
 11
176.89677352965441
 21
92.618911930239506
 31
0.0
  0
LINE
  5
1383
  8
2
 10
177.3967735296531
 20
98.618911930239733
 30
0.0
 11
177.39677352965441
 21
92.618911930239733
 31
0.0
  0
LINE
  5
1384
  8
2
 10
174.39677352965441
 20
92.618911930239037
 30
0.0
 11
174.3967735296531
 21
98.618911930239065
 31
0.0
  0
LINE
  5
1385
  8
0
 10
180.39677352965259
 20
101.6189119302403
 30
0.0
 11
180.39677352965509
 21
89.618911930240301
 31
0.0
  0
LINE
  5
1386
  8
0
 10
180.69677352965249
 20
101.6189119302404
 30
0.0
 11
180.69677352965499
 21
89.618911930240415
 31
0.0
  0
LINE
  5
1387
  8
0
 10
169.61677155150289
 20
99.418911930235822
 30
0.0
 11
169.61677155150389
 21
91.818911930236027
 31
0.0
  0
ARC
  5
1388
  8
0
 10
176.11677155148629
 20
93.118911930233836
 30
0.0
 40
6.4999999999824771
 50
157.38013505188749
 51
202.6198649480562
  0
LINE
  5
1389
  8
0
 10
163.1167715515061
 20
75.41891193023838
 30
0.0
 11
163.1167715515061
 21
113.8189119302353
 31
0.0
  0
LINE
  5
138A
  8
0
 10
160.6167715515061
 20
94.618911930236834
 30
0.0
 11
160.6167715515061
 21
87.618835780236907
 31
0.0
  0
LINE
  5
138B
  8
0
 10
173.61677155150599
 20
94.618911930236834
 30
0.0
 11
173.61677155150599
 21
87.618835780236907
 31
0.0
  0
LINE
  5
138C
  8
0
 10
158.616771551505
 20
88.718911930225545
 30
0.0
 11
158.616771551505
 21
100.51891193026501
 31
0.0
  0
LINE
  5
138D
  8
0
 10
159.2167715515051
 20
88.118911930225508
 30
0.0
 11
159.2167715515051
 21
101.1189119302351
 31
0.0
  0
POLYLINE
  5
138E
  8
0
 66
     1
 10
0.0
 20
0.0
 30
0.0
 70
     1
1001
GENIUS_GENODEF_13
1002
{
1000
HIER
1070
     0
1002
}
1002
{
1000
MANEDIT
1070
     0
1002
}
1002
{
1000
NOSEL
1070
     0
1002
}
1002
{
1000
BEHIND
1070
     0
1002
}
1002
{
1000
REACTOR
1002
}
1001
GENIUS_GENOBJ-N-REC_13
1002
{
1000
OWNER
1000
GEN
1002
}
  0
VERTEX
  5
138F
  8
0
 10
173.61677155150599
 20
105.11891193023681
 30
0.0
  0
VERTEX
  5
1390
  8
0
 10
177.61677155151699
 20
105.11891193023681
 30
0.0
  0
VERTEX
  5
1391
  8
0
 10
177.61677155151699
 20
85.118911930241495
 30
0.0
  0
VERTEX
  5
1392
  8
0
 10
173.61677155150599
 20
85.118911930241495
 30
0.0
  0
SEQEND
  5
1393
  8
0
  0
LINE
  5
1394
  8
2
 10
177.39677352965441
 20
92.618911930239733
 30
0.0
 11
169.6167715515048
 21
92.618911930237914
 31
0.0
  0
LINE
  5
1395
  8
0
 10
180.39677352965509
 20
89.618911930240301
 30
0.0
 11
177.39677352965441
 21
92.618911930239733
 31
0.0
  0
LINE
  5
1396
  8
0
 10
180.39677352965509
 20
89.618911930240301
 30
0.0
 11
180.69677352965499
 21
89.618911930240415
 31
0.0
  0
LINE
  5
1397
  8
0
 10
171.11677155150639
 20
90.618911930238767
 30
0.0
 11
171.1167715515061
 21
75.41891193023838
 31
0.0
  0
LINE
  5
1398
  8
0
 10
168.61677155150599
 20
72.91891193023838
 30
0.0
 11
165.61677155150599
 21
72.91891193023838
 31
0.0
  0
ARC
  5
1399
  8
0
 10
168.61677155150599
 20
75.41891193023838
 30
0.0
 40
2.5
 50
270.0
 51
0.0
1001
GENIUS_GENODEF_13
1002
{
1000
HIER
1070
     0
1002
}
1002
{
1000
MANEDIT
1070
     0
1002
}
1002
{
1000
NOSEL
1070
     0
1002
}
1002
{
1000
BEHIND
1070
     0
1002
}
1002
{
1000
REACTOR
1002
}
1001
GENIUS_GENOBJ-N-FIL_13
1002
{
1000
OWNER
1000
GEN
1002
}
  0
ARC
  5
139A
  8
0
 10
165.61677155150599
 20
75.41891193023838
 30
0.0
 40
2.5
 50
180.0
 51
270.0
1001
GENIUS_GENODEF_13
1002
{
1000
HIER
1070
     0
1002
}
1002
{
1000
MANEDIT
1070
     0
1002
}
1002
{
1000
NOSEL
1070
     0
1002
}
1002
{
1000
BEHIND
1070
     0
1002
}
1002
{
1000
REACTOR
1002
}
1001
GENIUS_GENOBJ-N-FIL_13
1002
{
1000
OWNER
1000
GEN
1002
}
  0
LINE
  5
139B
  8
0
 10
173.61677155150289
 20
90.61891193023871
 30
0.0
 11
170.11677155150309
 21
90.618911930238824
 31
0.0
  0
LINE
  5
139C
  8
0
 10
171.1167715515061
 20
87.083849486358474
 30
0.0
 11
173.12549775472451
 21
87.118911932658705
 31
0.0
  0
ARC
  5
139D
  8
0
 10
173.1167715515061
 20
87.618835780236907
 30
0.0
 40
0.5
 50
271.00000000000182
 51
0.0
1001
GENIUS_GENODEF_13
1002
{
1000
HIER
1070
     0
1002
}
1002
{
1000
MANEDIT
1070
     0
1002
}
1002
{
1000
NOSEL
1070
     0
1002
}
1002
{
1000
BEHIND
1070
     0
1002
}
1002
{
1000
REACTOR
1002
}
1001
GENIUS_GENOBJ-N-FIL_13
1002
{
1000
OWNER
1000
GEN
1002
}
  0
LINE
  5
139E
  8
0
 10
169.6167715515048
 20
92.618911930237914
 30
0.0
 11
169.31177352965449
 21
92.618911930237914
 31
0.0
  0
LINE
  5
139F
  8
0
 10
170.11677155150309
 20
90.618911930238937
 30
0.0
 11
169.61677155150389
 21
91.818911930236027
 31
0.0
  0
ARC
  5
13A0
  8
0
 10
161.11677155150599
 20
87.618835780236907
 30
0.0
 40
0.5
 50
180.0
 51
268.99999999999829
1001
GENIUS_GENODEF_13
1002
{
1000
HIER
1070
     0
1002
}
1002
{
1000
MANEDIT
1070
     0
1002
}
1002
{
1000
NOSEL
1070
     0
1002
}
1002
{
1000
BEHIND
1070
     0
1002
}
1002
{
1000
REACTOR
1002
}
1001
GENIUS_GENOBJ-N-FIL_13
1002
{
1000
OWNER
1000
GEN
1002
}
  0
LINE
  5
13A1
  8
0
 10
163.1167715515061
 20
87.083849486358474
 30
0.0
 11
161.10804534828739
 21
87.118911932658705
 31
0.0
  0
LINE
  5
13A2
  8
0
 10
159.21677155149371
 20
88.118911930236777
 30
0.0
 11
158.61677155152731
 21
88.718911930203262
 31
0.0
  0
LINE
  5
13A3
  8
0
 10
159.21677155149371
 20
88.118911930236777
 30
0.0
 11
160.61677155152731
 21
88.118911930236777
 31
0.0
  0
LINE
  5
13A4
  8
2
 10
177.3967735296531
 20
98.618911930239733
 30
0.0
 11
169.6167715515048
 21
98.618911930237914
 31
0.0
  0
LINE
  5
13A5
  8
2
 10
178.19677352965431
 20
93.308911930239773
 30
0.0
 11
176.86309440782571
 21
95.618911930239506
 31
0.0
  0
LINE
  5
13A6
  8
2
 10
178.19677352965331
 20
97.928911930239906
 30
0.0
 11
176.86309440782571
 21
95.618911930239506
 31
0.0
  0
LINE
  5
13A7
  8
0
 10
180.39677352965259
 20
101.6189119302403
 30
0.0
 11
177.3967735296531
 21
98.618911930239733
 31
0.0
  0
ARC
  5
13A8
  8
2
 10
178.93916936032949
 20
97.351411930239905
 30
0.0
 40
0.9405625015943002
 50
157.87887949173091
 51
217.87887949173131
  0
LINE
  5
13A9
  8
2
 10
180.69677352965351
 20
96.773911930240388
 30
0.0
 11
178.19677352965351
 21
96.773911930239819
 31
0.0
  0
LINE
  5
13AA
  8
2
 10
180.69677352965411
 20
94.463911930240442
 30
0.0
 11
178.19677352965411
 21
94.463911930239874
 31
0.0
  0
LINE
  5
13AB
  8
2
 10
180.69677352965431
 20
93.308911930240242
 30
0.0
 11
178.19677352965431
 21
93.308911930239773
 31
0.0
  0
ARC
  5
13AC
  8
2
 10
178.93916936033031
 20
93.886411930240001
 30
0.0
 40
0.9405625015943002
 50
142.12112050829299
 51
202.12112050829339
  0
ARC
  5
13AD
  8
2
 10
181.4636068587356
 20
95.618911930240515
 30
0.0
 40
3.464999999999999
 50
160.52877936552139
 51
199.47122063450271
  0
LINE
  5
13AE
  8
2
 10
180.69677352965331
 20
97.928911930240361
 30
0.0
 11
178.19677352965331
 21
97.928911930239906
 31
0.0
  0
LINE
  5
13AF
  8
0
 10
180.39677352965259
 20
101.6189119302403
 30
0.0
 11
180.69677352965249
 21
101.6189119302404
 31
0.0
  0
LINE
  5
13B0
  8
0
 10
171.1167715515061
 20
113.8189119302353
 30
0.0
 11
171.1167715515061
 21
100.6189119302387
 31
0.0
  0
LINE
  5
13B1
  8
0
 10
173.61677155150599
 20
94.618911930236834
 30
0.0
 11
173.61677155150599
 21
101.6189880802369
 31
0.0
  0
LINE
  5
13B2
  8
2
 10
174.3967735296533
 20
98.003911930239056
 30
0.0
 11
169.6167715515048
 21
98.003911930238019
 31
0.0
  0
LINE
  5
13B3
  8
2
 10
174.3967735296543
 20
93.233911930239074
 30
0.0
 11
169.6167715515048
 21
93.233911930238037
 31
0.0
  0
LINE
  5
13B4
  8
0
 10
173.61677155150301
 20
95.618911930238298
 30
0.0
 11
170.11677155150309
 21
95.618911930237005
 31
0.0
  0
LINE
  5
13B5
  8
0
 10
173.61677155150309
 20
100.6189119302388
 30
0.0
 11
170.11677155150289
 21
100.6189119302387
 31
0.0
  0
LINE
  5
13B6
  8
2
 10
174.3967735296533
 20
98.003911930239056
 30
0.0
 11
176.8967735296531
 21
98.618911930239506
 31
0.0
  0
LINE
  5
13B7
  8
0
 10
168.69677352965431
 20
93.233911930237795
 30
0.0
 11
168.69677352965331
 21
98.003911930237791
 31
0.0
  0
ARC
  5
13B8
  8
0
 10
176.116771551509
 20
98.118911930239733
 30
0.0
 40
6.5000000000051532
 50
157.38013505201059
 51
202.61986494803051
  0
LINE
  5
13B9
  8
3
 10
169.6167715515048
 20
93.233911930238037
 30
0.0
 11
168.69677352965431
 21
93.233911930237795
 31
0.0
  0
LINE
  5
13BA
  8
0
 10
169.31177352965321
 20
98.618911930237914
 30
0.0
 11
168.69677352965331
 21
98.003911930237791
 31
0.0
  0
LINE
  5
13BB
  8
3
 10
169.6167715515048
 20
98.003911930238019
 30
0.0
 11
168.69677352965331
 21
98.003911930237791
 31
0.0
  0
LINE
  5
13BC
  8
0
 10
169.6167715515048
 20
98.618911930237914
 30
0.0
 11
169.31177352965321
 21
98.618911930237914
 31
0.0
  0
LINE
  5
13BD
  8
0
 10
170.11677155150289
 20
100.6189119302387
 30
0.0
 11
169.61677155150289
 21
99.418911930235822
 31
0.0
  0
LINE
  5
13BE
  8
0
 10
171.1167715515061
 20
102.15397437411519
 30
0.0
 11
173.12549775472451
 21
102.11891192781511
 31
0.0
  0
ARC
  5
13BF
  8
0
 10
173.1167715515061
 20
101.6189880802369
 30
0.0
 40
0.5
 50
0.0
 51
88.999999999998224
1001
GENIUS_GENODEF_13
1002
{
1000
HIER
1070
     0
1002
}
1002
{
1000
MANEDIT
1070
     0
1002
}
1002
{
1000
NOSEL
1070
     0
1002
}
1002
{
1000
BEHIND
1070
     0
1002
}
1002
{
1000
REACTOR
1002
}
1001
GENIUS_GENOBJ-N-FIL_13
1002
{
1000
OWNER
1000
GEN
1002
}
  0
LINE
  5
13C0
  8
0
 10
160.6167715515061
 20
94.618911930236834
 30
0.0
 11
160.6167715515061
 21
101.6189880802369
 31
0.0
  0
LINE
  5
13C1
  8
0
 10
159.21677155147341
 20
101.1189119302351
 30
0.0
 11
158.61677155150781
 21
100.51891193026781
 31
0.0
  0
ARC
  5
13C3
  8
0
 10
161.11677155150599
 20
101.6189880802369
 30
0.0
 40
0.5
 50
91.000000000001776
 51
180.0
1001
GENIUS_GENODEF_13
1002
{
1000
HIER
1070
     0
1002
}
1002
{
1000
MANEDIT
1070
     0
1002
}
1002
{
1000
NOSEL
1070
     0
1002
}
1002
{
1000
BEHIND
1070
     0
1002
}
1002
{
1000
REACTOR
1002
}
1001
GENIUS_GENOBJ-N-FIL_13
1002
{
1000
OWNER
1000
GEN
1002
}
  0
LINE
  5
13C4
  8
0
 10
163.1167715515061
 20
102.15397437411519
 30
0.0
 11
161.10804534828739
 21
102.11891192781511
 31
0.0
  0
LINE
  5
13C5
  8
0
 10
159.21677155147341
 20
101.1189119302351
 30
0.0
 11
160.61677155150699
 21
101.11891193023691
 31
0.0
  0
LINE
  5
13C6
  8
0
 10
168.61677155150599
 20
116.3189119302353
 30
0.0
 11
165.61677155150599
 21
116.3189119302353
 31
0.0
  0
ARC
  5
13C7
  8
0
 10
168.61677155150599
 20
113.8189119302353
 30
0.0
 40
2.5
 50
0.0
 51
90.0
1001
GENIUS_GENODEF_13
1002
{
1000
HIER
1070
     0
1002
}
1002
{
1000
MANEDIT
1070
     0
1002
}
1002
{
1000
NOSEL
1070
     0
1002
}
1002
{
1000
BEHIND
1070
     0
1002
}
1002
{
1000
REACTOR
1002
}
1001
GENIUS_GENOBJ-N-FIL_13
1002
{
1000
OWNER
1000
GEN
1002
}
  0
ARC
  5
13C8
  8
0
 10
165.61677155150599
 20
113.8189119302353
 30
0.0
 40
2.5
 50
90.0
 51
180.0
1001
GENIUS_GENODEF_13
1002
{
1000
HIER
1070
     0
1002
}
1002
{
1000
MANEDIT
1070
     0
1002
}
1002
{
1000
NOSEL
1070
     0
1002
}
1002
{
1000
BEHIND
1070
     0
1002
}
1002
{
1000
REACTOR
1002
}
1001
GENIUS_GENOBJ-N-FIL_13
1002
{
1000
OWNER
1000
GEN
1002
}
  0
LINE
  5
13C9
  8
1
 10
107.8167715514985
 20
94.618911930230297
 30
0.0
 11
60.416771551498407
 21
94.618911930230297
 31
0.0
  0
LINE
  5
13CA
  8
1
 10
84.116771551498445
 20
118.3189119302303
 30
0.0
 11
84.116771551498445
 21
70.918911930230252
 31
0.0
  0
LINE
  5
13CB
  8
1
 10
59.116771549602497
 20
95.618911930231889
 30
0.0
 11
43.116771549602497
 21
95.618911930231889
 31
0.0
  0
LINE
  5
13CC
  8
1
 10
51.116771549602511
 20
103.6189119302319
 30
0.0
 11
51.116771549602511
 21
87.618911930231874
 31
0.0
  0
LINE
  5
13CD
  8
1
 10
125.1167715533944
 20
95.618911930231889
 30
0.0
 11
109.1167715533944
 21
95.618911930231889
 31
0.0
  0
LINE
  5
13CE
  8
1
 10
117.1167715533944
 20
103.6189119302319
 30
0.0
 11
117.1167715533944
 21
87.618911930231874
 31
0.0
  0
CIRCLE
  5
13D6
  8
0
 10
117.1167715533944
 20
95.618911930231889
 30
0.0
 40
2.9999999999994742
  0
CIRCLE
  5
13D7
  8
3
 10
117.1167715533944
 20
95.618911930231889
 30
0.0
 40
2.3849999999993652
  0
CIRCLE
  5
13D8
  8
3
 10
51.116771549602511
 20
95.618911930231889
 30
0.0
 40
2.3849999999993652
  0
CIRCLE
  5
13D9
  8
0
 10
51.116771549602511
 20
95.618911930231889
 30
0.0
 40
2.9999999999994742
  0
LINE
  5
13DA
  8
1
 10
278.89677352965259
 20
94.618911930238482
 30
0.0
 11
231.4967735296525
 21
94.618911930238482
 31
0.0
  0
LINE
  5
13DB
  8
1
 10
255.1967735296526
 20
118.3189119302385
 30
0.0
 11
255.1967735296526
 21
70.918911930238465
 31
0.0
  0
LINE
  5
13DC
  8
1
 10
296.1967735315485
 20
95.618911930238482
 30
0.0
 11
280.1967735315485
 21
95.618911930238482
 31
0.0
  0
LINE
  5
13DD
  8
1
 10
288.1967735315485
 20
103.6189119302385
 30
0.0
 11
288.1967735315485
 21
87.618911930238468
 31
0.0
  0
LINE
  5
13DE
  8
1
 10
230.19677352775659
 20
95.618911930238482
 30
0.0
 11
214.19677352775659
 21
95.618911930238482
 31
0.0
  0
LINE
  5
13DF
  8
1
 10
222.19677352775659
 20
103.6189119302385
 30
0.0
 11
222.19677352775659
 21
87.618911930238468
 31
0.0
  0
LINE
  5
13F5
  8
1
 10
182.6967735296538
 20
95.618911930240415
 30
0.0
 11
156.61677155150369
 21
95.618911930240415
 31
0.0
  0
LINE
  5
13F8
  8
1
 10
167.1167715515061
 20
118.3189119302353
 30
0.0
 11
167.1167715515061
 21
70.91891193023838
 31
0.0
  0
LINE
  5
13FD
  8
1
 10
156.61677155150511
 20
190.81891193023461
 30
0.0
 11
179.61677155151611
 21
190.81891193023461
 31
0.0
  0
LINE
  5
1400
  8
1
 10
167.1167715515061
 20
214.5189119302338
 30
0.0
 11
167.1167715515061
 21
167.11891193023681
 31
0.0
  0
LINE
  5
1404
  8
1
 10
182.6967735296532
 20
223.81891193213039
 30
0.0
 11
166.6967735296532
 21
223.81891193213039
 31
0.0
  0
LINE
  5
1409
  8
1
 10
182.6967735296532
 20
157.818911928338
 30
0.0
 11
166.6967735296532
 21
157.81891192834129
 31
0.0
  0
TEXT
  5
1549
  8
0
 62
     3
 10
0.0
 20
0.0
 30
0.0
 40
10.0
  1
L6-C-ROS
  7
STANDARD1
  0
ENDSEC
  0
EOF
