  0
SECTION
  2
HEADER
  9
$ACADVER
  1
AC1009
  9
$INSBASE
 10
0.0
 20
0.0
 30
0.0
  9
$EXTMIN
 10
0.0
 20
-2.960436562073669
 30
0.0
  9
$EXTMAX
 10
282.95633603904571
 20
242.8693165388712
 30
0.0
  9
$LIMMIN
 10
0.0
 20
0.0
  9
$LIMMAX
 10
375.0
 20
270.0
  9
$ORTHOMODE
 70
     1
  9
$REGENMODE
 70
     1
  9
$FILLMODE
 70
     1
  9
$QTEXTMODE
 70
     0
  9
$MIRRTEXT
 70
     0
  9
$DRAGMODE
 70
     2
  9
$LTSCALE
 40
10.0
  9
$OSMODE
 70
  3071
  9
$ATTMODE
 70
     1
  9
$TEXTSIZE
 40
0.2
  9
$TRACEWID
 40
0.05
  9
$TEXTSTYLE
  7
STANDARD
  9
$CLAYER
  8
0
  9
$CELTYPE
  6
BYLAYER
  9
$CECOLOR
 62
   256
  9
$DIMSCALE
 40
1.0
  9
$DIMASZ
 40
3.0
  9
$DIMEXO
 40
0.0625
  9
$DIMDLI
 40
0.38
  9
$DIMRND
 40
0.0
  9
$DIMDLE
 40
0.0
  9
$DIMEXE
 40
0.18
  9
$DIMTP
 40
0.0
  9
$DIMTM
 40
0.0
  9
$DIMTXT
 40
3.0
  9
$DIMCEN
 40
0.09
  9
$DIMTSZ
 40
0.0
  9
$DIMTOL
 70
     0
  9
$DIMLIM
 70
     0
  9
$DIMTIH
 70
     1
  9
$DIMTOH
 70
     1
  9
$DIMSE1
 70
     0
  9
$DIMSE2
 70
     0
  9
$DIMTAD
 70
     0
  9
$DIMZIN
 70
     0
  9
$DIMBLK
  1

  9
$DIMASO
 70
     1
  9
$DIMSHO
 70
     1
  9
$DIMPOST
  1

  9
$DIMAPOST
  1

  9
$DIMALT
 70
     0
  9
$DIMALTD
 70
     2
  9
$DIMALTF
 40
25.399999999999999
  9
$DIMLFAC
 40
1.0
  9
$DIMTOFL
 70
     0
  9
$DIMTVP
 40
0.0
  9
$DIMTIX
 70
     0
  9
$DIMSOXD
 70
     0
  9
$DIMSAH
 70
     0
  9
$DIMBLK1
  1

  9
$DIMBLK2
  1

  9
$DIMSTYLE
  2
STANDARD
  9
$DIMCLRD
 70
     0
  9
$DIMCLRE
 70
     0
  9
$DIMCLRT
 70
     0
  9
$DIMTFAC
 40
1.0
  9
$DIMGAP
 40
0.09
  9
$LUNITS
 70
     2
  9
$LUPREC
 70
     4
  9
$SKETCHINC
 40
0.1
  9
$FILLETRAD
 40
0.0
  9
$AUNITS
 70
     0
  9
$AUPREC
 70
     0
  9
$MENU
  1
E:\r13\win\SUPPORT\ACAD
  9
$ELEVATION
 40
0.0
  9
$PELEVATION
 40
0.0
  9
$THICKNESS
 40
0.0
  9
$LIMCHECK
 70
     0
  9
$BLIPMODE
 70
     0
  9
$CHAMFERA
 40
0.0
  9
$CHAMFERB
 40
0.0
  9
$SKPOLY
 70
     0
  9
$TDCREATE
 40
2450359.4187476858
  9
$TDUPDATE
 40
2456597.561508345
  9
$TDINDWG
 40
0.0114578241
  9
$TDUSRTIMER
 40
0.0114578241
  9
$USRTIMER
 70
     1
  9
$ANGBASE
 50
0.0
  9
$ANGDIR
 70
     0
  9
$PDMODE
 70
     0
  9
$PDSIZE
 40
0.0
  9
$PLINEWID
 40
0.0
  9
$COORDS
 70
     1
  9
$SPLFRAME
 70
     0
  9
$SPLINETYPE
 70
     6
  9
$SPLINESEGS
 70
     8
  9
$ATTDIA
 70
     0
  9
$ATTREQ
 70
     1
  9
$HANDLING
 70
     1
  9
$HANDSEED
  5
54C
  9
$SURFTAB1
 70
     6
  9
$SURFTAB2
 70
     6
  9
$SURFTYPE
 70
     6
  9
$SURFU
 70
     6
  9
$SURFV
 70
     6
  9
$UCSNAME
  2

  9
$UCSORG
 10
0.0
 20
0.0
 30
0.0
  9
$UCSXDIR
 10
1.0
 20
0.0
 30
0.0
  9
$UCSYDIR
 10
0.0
 20
1.0
 30
0.0
  9
$PUCSNAME
  2

  9
$PUCSORG
 10
0.0
 20
0.0
 30
0.0
  9
$PUCSXDIR
 10
1.0
 20
0.0
 30
0.0
  9
$PUCSYDIR
 10
0.0
 20
1.0
 30
0.0
  9
$USERI1
 70
     4
  9
$USERI2
 70
     1
  9
$USERI3
 70
     0
  9
$USERI4
 70
     0
  9
$USERI5
 70
     0
  9
$USERR1
 40
1.0
  9
$USERR2
 40
3.0
  9
$USERR3
 40
3.0
  9
$USERR4
 40
3.0
  9
$USERR5
 40
10.0
  9
$WORLDVIEW
 70
     1
  9
$SHADEDGE
 70
     3
  9
$SHADEDIF
 70
    70
  9
$TILEMODE
 70
     1
  9
$MAXACTVP
 70
    16
  9
$PLIMCHECK
 70
     0
  9
$PEXTMIN
 10
1.0000000000000000E+020
 20
1.0000000000000000E+020
 30
1.0000000000000000E+020
  9
$PEXTMAX
 10
-1.0000000000000000E+020
 20
-1.0000000000000000E+020
 30
-1.0000000000000000E+020
  9
$PLIMMIN
 10
0.0
 20
0.0
  9
$PLIMMAX
 10
12.0
 20
9.0
  9
$UNITMODE
 70
     0
  9
$VISRETAIN
 70
     0
  9
$PLINEGEN
 70
     0
  9
$PSLTSCALE
 70
     1
  0
ENDSEC
  0
SECTION
  2
TABLES
  0
TABLE
  2
VPORT
 70
     1
  0
VPORT
  2
*ACTIVE
 70
     0
 10
0.0
 20
0.0
 11
1.0
 21
1.0
 12
7.8339580013285959
 22
-11.93774453819861
 13
0.0
 23
0.0
 14
5.0
 24
5.0
 15
0.0
 25
0.0
 16
0.0
 26
0.0
 36
1.0
 17
179.66032038932369
 27
174.79938339767031
 37
0.0
 40
334.81001162774982
 41
1.9089595375722539
 42
50.0
 43
0.0
 44
0.0
 50
0.0
 51
0.0
 71
     0
 72
   100
 73
     1
 74
     0
 75
     0
 76
     0
 77
     0
 78
     0
  0
ENDTAB
  0
TABLE
  2
LTYPE
 70
     8
  0
LTYPE
  2
CONTINUOUS
 70
     0
  3
Solid Line
 72
    65
 73
     0
 40
0.0
  0
LTYPE
  2
CENTER
 70
     0
  3
____ _ ____ _ ____ _ ____ _ ____ _ ____ _ ____
 72
    65
 73
     4
 40
2.0
 49
1.25
 49
-0.25
 49
0.25
 49
-0.25
  0
LTYPE
  2
HIDDEN
 70
     0
  3
Hidden __ __ __ __ __ __ __ __ __ __ __ __ __ _
 72
    65
 73
     2
 40
0.375
 49
0.25
 49
-0.125
  0
LTYPE
  2
PHANTOM2
 70
     0
  3
Phantom (.5x) ___ _ _ ___ _ _ ___ _ _ ___ _ _
 72
    65
 73
     6
 40
1.25
 49
0.625
 49
-0.125
 49
0.125
 49
-0.125
 49
0.125
 49
-0.125
  0
LTYPE
  2
AMCONSTR
 70
     0
  3
_______________________
 72
    65
 73
     2
 40
9999.0
 49
9999.0
 49
0.0
  0
LTYPE
  2
CENTER2
 70
     0
  3
Center (.5x) ___ _ ___ _ ___ _ ___ _ ___ _ ___
 72
    65
 73
     4
 40
1.125
 49
0.75
 49
-0.125
 49
0.125
 49
-0.125
  0
LTYPE
  2
HIDDEN2
 70
     0
  3
Hidden (.5x) _ _ _ _ _ _ _ _ _ _ _ _ _ _ _ _ _
 72
    65
 73
     2
 40
0.1875
 49
0.125
 49
-0.0625
  0
LTYPE
  2
AMZIGZAG2
 70
     0
  3
/\/-/\/-/\/-/\/-/\/-/\/
 72
    65
 73
     2
 40
0.4401
 49
0.0001
 49
-0.4400000000000001
  0
ENDTAB
  0
TABLE
  2
LAYER
 70
     3
  0
LAYER
  2
0
 70
     0
 62
     7
  6
CONTINUOUS
  0
LAYER
  2
1
 70
     0
 62
     1
  6
CENTER
  0
LAYER
  2
3
 70
     0
 62
     3
  6
CONTINUOUS
  0
ENDTAB
  0
TABLE
  2
STYLE
 70
     3
  0
STYLE
  2
STANDARD
 70
     0
 40
0.0
 41
1.0
 50
0.0
 71
     0
 42
0.2
  3
simplex
  4
bigfont
  0
STYLE
  2

 70
     1
 40
0.0
 41
1.0
 50
0.0
 71
     0
 42
0.2
  3
ltypeshp.shx
  4

  0
STYLE
  2
STANDARD1
 70
     0
 40
0.0
 41
1.0
 50
0.0
 71
     0
 42
3.0
  3
txt
  4

  0
ENDTAB
  0
TABLE
  2
VIEW
 70
     0
  0
ENDTAB
  0
TABLE
  2
UCS
 70
     0
  0
ENDTAB
  0
TABLE
  2
APPID
 70
    14
  0
APPID
  2
ACAD
 70
     0
  0
APPID
  2
GENIUS_GENDIM_13
 70
     0
  0
APPID
  2
GENIUS_GENDTOL_13
 70
     0
  0
APPID
  2
GENIUS_GE3DTOL_13
 70
     0
  0
APPID
  2
MCAD_NO_VIS
 70
     0
  0
APPID
  2
ACAD_TEMP_GRAPHIC
 70
     0
  0
APPID
  2
AD_DRAW
 70
     0
  0
APPID
  2
ACATTRIBSERVICES
 70
     0
  0
APPID
  2
ASURF_PCURVE_APPNAME
 70
     0
  0
APPID
  2
DESIGNERASSEMBLIES
 70
     0
  0
APPID
  2
ACADM_DIM_EDIT
 70
     0
  0
APPID
  2
AMDT_DM_ADJ
 70
     0
  0
APPID
  2
ACAD_MLEADERVER
 70
     0
  0
APPID
  2
ACAD_NAV_VCDISPLAY
 70
     0
  0
ENDTAB
  0
TABLE
  2
DIMSTYLE
 70
     1
  0
DIMSTYLE
  2
STANDARD
 70
     0
  3

  4

  5

  6

  7

 40
1.0
 41
0.18
 42
0.0625
 43
0.38
 44
0.18
 45
0.0
 46
0.0
 47
0.0
 48
0.0
140
0.18
141
0.09
142
0.0
143
25.399999999999999
144
1.0
145
0.0
146
1.0
147
0.09
 71
     0
 72
     0
 73
     1
 74
     1
 75
     0
 76
     0
 77
     0
 78
     0
170
     0
171
     2
172
     0
173
     0
174
     0
175
     0
176
     0
177
     0
178
     0
  0
ENDTAB
  0
ENDSEC
  0
SECTION
  2
BLOCKS
  0
BLOCK
  8
0
  2
$MODEL_SPACE
 70
     0
 10
0.0
 20
0.0
 30
0.0
  3
$MODEL_SPACE
  1

  0
ENDBLK
  5
31F
  8
0
  0
BLOCK
 67
     1
  8
0
  2
$PAPER_SPACE
 70
     0
 10
0.0
 20
0.0
 30
0.0
  3
$PAPER_SPACE
  1

  0
ENDBLK
  5
31D
 67
     1
  8
0
  0
BLOCK
  8
0
  2
*U0
 70
     1
 10
0.0
 20
0.0
 30
0.0
  3
*U0
  1

  0
ENDBLK
  5
3E1
  8
0
  0
ENDSEC
  0
SECTION
  2
ENTITIES
  0
CIRCLE
  5
1D2
  8
0
 10
182.43516829643841
 20
144.9715893447239
 30
0.0
 40
2.5
  0
LINE
  5
1F0
  8
0
 10
81.342937529124583
 20
159.97158934472381
 30
0.0
 11
81.342937529124583
 21
129.9719702127411
 31
0.0
  0
LINE
  5
1F1
  8
0
 10
131.34293752912461
 20
159.97158934472381
 30
0.0
 11
131.34293752912461
 21
129.9719702127411
 31
0.0
  0
LINE
  5
209
  8
0
 10
81.342937529124583
 20
129.9719702127411
 30
0.0
 11
131.34293752912461
 21
129.9719702127411
 31
0.0
  0
LINE
  5
20A
  8
0
 10
81.342937529124583
 20
141.8715893447239
 30
0.0
 11
131.34293752912461
 21
141.8715893447239
 31
0.0
  0
LINE
  5
20B
  8
0
 10
81.342937529124583
 20
148.07158934472369
 30
0.0
 11
131.34293752912461
 21
148.07158934472369
 31
0.0
  0
LINE
  5
20C
  8
0
 10
81.342937529124583
 20
159.97158934472381
 30
0.0
 11
131.34293752912461
 21
159.97158934472381
 31
0.0
  0
LINE
  5
20D
  8
0
 10
179.3351682964385
 20
132.17158934472249
 30
0.0
 11
179.3351682964385
 21
130.97196950546609
 31
0.0
  0
ARC
  5
20E
  8
0
 10
178.3351682964385
 20
130.97196950546609
 30
0.0
 40
1.0
 50
269.99999484829038
 51
0.0
  0
LINE
  5
20F
  8
0
 10
178.3351682065242
 20
129.97196950546609
 30
0.0
 11
170.4690655499719
 21
129.9719702127411
 31
0.0
  0
ARC
  5
210
  8
0
 10
170.43535981235499
 20
132.97178086064059
 30
0.0
 40
2.9999999999999409
 50
179.35625428582341
 51
270.64374571417551
  0
LINE
  5
211
  8
0
 10
167.43554916445549
 20
133.00548659825751
 30
0.0
 11
167.4355484571806
 21
140.87158925480949
 31
0.0
  0
ARC
  5
212
  8
0
 10
168.4355484571806
 20
140.87158934472379
 30
0.0
 40
1.0000000000000031
 50
90.0
 51
180.000005151708
  0
LINE
  5
213
  8
0
 10
168.4355484571806
 20
141.87158934472379
 30
0.0
 11
169.63516829643709
 21
141.8715893447239
 31
0.0
  0
ARC
  5
214
  8
0
 10
169.63516829642251
 20
141.0715893447408
 30
0.0
 40
0.7999999999830436
 50
359.99999999895579
 51
89.999999998955758
  0
LINE
  5
215
  8
0
 10
170.43516829640549
 20
141.07158934472619
 30
0.0
 11
170.43516829640541
 21
139.67158934472619
 31
0.0
  0
ARC
  5
216
  8
0
 10
170.1351682964054
 20
139.67158934472619
 30
0.0
 40
0.2999999999999261
 50
270.00000000000551
 51
0.0000000000054281
  0
LINE
  5
217
  8
0
 10
170.13516829640551
 20
139.37158934472629
 30
0.0
 11
169.23516829640539
 21
139.3715893447262
 31
0.0
  0
ARC
  5
218
  8
0
 10
169.23516829640539
 20
139.07158934472619
 30
0.0
 40
0.2999999999999829
 50
90.000000000005429
 51
180.0000000000054
  0
LINE
  5
219
  8
0
 10
168.93516829640541
 20
139.07158934472619
 30
0.0
 11
168.93516829640529
 21
137.82158934469899
 31
0.0
  0
ARC
  5
21A
  8
0
 10
169.93516829640529
 20
137.82158934469899
 30
0.0
 40
1.000000000000028
 50
179.99999999999841
 51
269.99999999999841
  0
LINE
  5
21B
  8
0
 10
169.93516829640529
 20
136.82158934469891
 30
0.0
 11
171.62831404689109
 21
136.82158934469879
 31
0.0
  0
ARC
  5
21C
  8
0
 10
171.62831404689129
 20
139.82158934469891
 30
0.0
 40
3.000000000000028
 50
269.99999999999619
 51
314.99999999999619
  0
LINE
  5
21D
  8
0
 10
173.74963439045081
 20
137.70026900113899
 30
0.0
 11
176.3064886399651
 21
140.25712325065311
 31
0.0
  0
ARC
  5
21E
  8
0
 10
174.18516829640549
 20
142.37844359421271
 30
0.0
 40
2.9999999999999432
 50
315.0
 51
359.99999999999841
  0
LINE
  5
21F
  8
0
 10
177.18516829640541
 20
142.3784435942126
 30
0.0
 11
177.18516829640581
 21
147.56473509523559
 31
0.0
  0
ARC
  5
220
  8
0
 10
174.18516829640581
 20
147.5647350952359
 30
0.0
 40
2.9999999999999138
 50
359.99999999999409
 51
44.99999999999423
  0
LINE
  5
221
  8
0
 10
176.30648863996561
 20
149.68605543879531
 30
0.0
 11
173.74963439045149
 21
152.24290968830951
 31
0.0
  0
ARC
  5
222
  8
0
 10
171.6283140468918
 20
150.12158934475011
 30
0.0
 40
2.9999999999998632
 50
44.999999999996923
 51
89.999999999996746
  0
LINE
  5
223
  8
0
 10
171.628314046892
 20
153.12158934474991
 30
0.0
 11
169.935168296406
 21
153.12158934475011
 31
0.0
  0
ARC
  5
224
  8
0
 10
169.935168296406
 20
152.12158934475011
 30
0.0
 40
0.9999999999999431
 50
90.000000000001606
 51
180.00000000000321
  0
LINE
  5
225
  8
0
 10
168.93516829640609
 20
152.12158934475011
 30
0.0
 11
168.93516829640581
 21
150.87158934472279
 31
0.0
  0
ARC
  5
226
  8
0
 10
169.2351682964059
 20
150.87158934472279
 30
0.0
 40
0.3000000000000966
 50
180.0000000000054
 51
270.00000000000551
  0
LINE
  5
227
  8
0
 10
169.2351682964059
 20
150.5715893447227
 30
0.0
 11
170.13516829640579
 21
150.57158934472281
 31
0.0
  0
ARC
  5
228
  8
0
 10
170.13516829640591
 20
150.27158934472271
 30
0.0
 40
0.3000000000000966
 50
0.0000000000162844
 51
90.000000000016286
  0
LINE
  5
229
  8
0
 10
170.435168296406
 20
150.2715893447228
 30
0.0
 11
170.4351682964371
 21
148.8715893447237
 31
0.0
  0
ARC
  5
22A
  8
0
 10
169.63516829643709
 20
148.8715893447237
 30
0.0
 40
0.799999999999983
 50
269.99999999999801
 51
359.99999999999801
  0
LINE
  5
22B
  8
0
 10
169.63516829643709
 20
148.07158934472369
 30
0.0
 11
168.4355477198836
 21
148.07158934472369
 31
0.0
  0
ARC
  5
22C
  8
0
 10
168.4355477198836
 20
149.07158934472369
 30
0.0
 40
1.0
 50
180.000005151708
 51
270.0
  0
LINE
  5
22D
  8
0
 10
167.4355477198836
 20
149.0715892548094
 30
0.0
 11
167.4355470125914
 21
156.93788360710701
 31
0.0
  0
ARC
  5
22E
  8
0
 10
170.43535766049101
 20
156.97158934472381
 30
0.0
 40
2.9999999999999978
 50
90.0
 51
180.64374571417551
  0
LINE
  5
22F
  8
0
 10
170.43535766049101
 20
159.97158934472381
 30
0.0
 11
174.97852760930459
 21
159.9715893447239
 31
0.0
  0
ARC
  5
230
  8
0
 10
174.97852760930451
 20
156.97158934472401
 30
0.0
 40
2.9999999999999711
 50
45.000000000015348
 51
89.999999999997826
  0
LINE
  5
231
  8
0
 10
177.09984795286351
 20
159.09290968828421
 30
0.0
 11
196.5564886400023
 21
139.6362690011579
 31
0.0
  0
ARC
  5
232
  8
0
 10
194.43516829644341
 20
137.5149486575977
 30
0.0
 40
2.9999999999999432
 50
0.0000000000336545
 51
45.000000000015348
  0
LINE
  5
233
  8
0
 10
197.43516829644329
 20
137.5149486575996
 30
0.0
 11
197.43516829644631
 21
132.9717787087782
 31
0.0
  0
ARC
  5
234
  8
0
 10
194.43516829644631
 20
132.97177870877621
 30
0.0
 40
3.0
 50
269.35625428582341
 51
0.0000000000369114
  0
LINE
  5
235
  8
0
 10
194.40146255882939
 20
129.97196806087661
 30
0.0
 11
186.53516820652419
 21
129.97196876816889
 31
0.0
  0
ARC
  5
236
  8
0
 10
186.53516829643851
 20
130.97196876816889
 30
0.0
 40
1.0000000000000031
 50
180.0
 51
269.99999484829038
  0
LINE
  5
237
  8
0
 10
185.53516829643851
 20
130.97196876816889
 30
0.0
 11
185.53516829643851
 21
132.17158934472249
 31
0.0
  0
ARC
  5
238
  8
0
 10
186.3351682964385
 20
132.17158934472249
 30
0.0
 40
0.799999999999983
 50
90.000000000002046
 51
180.00000000000199
  0
LINE
  5
239
  8
0
 10
186.3351682964385
 20
132.9715893447225
 30
0.0
 11
187.73516829643509
 21
132.97158934468939
 31
0.0
  0
ARC
  5
23A
  8
0
 10
187.73516829643509
 20
132.67158934468929
 30
0.0
 40
0.3000000000000398
 50
359.99999999999449
 51
89.999999999994586
  0
LINE
  5
23B
  8
0
 10
188.03516829643519
 20
132.67158934468929
 30
0.0
 11
188.0351682964351
 21
131.77158934468929
 31
0.0
  0
ARC
  5
23C
  8
0
 10
188.33516829643511
 20
131.77158934468929
 30
0.0
 40
0.3000000000000398
 50
180.0000000000054
 51
270.00000000000551
  0
LINE
  5
23D
  8
0
 10
188.3351682964352
 20
131.47158934468931
 30
0.0
 11
189.5851682964624
 21
131.47158934468939
 31
0.0
  0
ARC
  5
23E
  8
0
 10
189.5851682964624
 20
132.47158934468939
 30
0.0
 40
1.0
 50
270.0
 51
0.0
  0
LINE
  5
23F
  8
0
 10
190.58516829646251
 20
132.47158934468939
 30
0.0
 11
190.58516829646251
 21
134.1647350951753
 31
0.0
  0
ARC
  5
240
  8
0
 10
187.58516829646251
 20
134.1647350951753
 30
0.0
 40
2.9999999999999432
 50
0.0
 51
45.0
  0
LINE
  5
241
  8
0
 10
189.70648864002209
 20
136.28605543873491
 30
0.0
 11
187.149634390508
 21
138.84290968824899
 31
0.0
  0
ARC
  5
242
  8
0
 10
185.0283140469484
 20
136.72158934468939
 30
0.0
 40
2.999999999999984
 50
45.000000000000767
 51
90.00000000000108
  0
LINE
  5
243
  8
0
 10
185.02831404694831
 20
139.72158934468939
 30
0.0
 11
179.8420225459254
 21
139.72158934468911
 31
0.0
  0
ARC
  5
244
  8
0
 10
179.8420225459252
 20
136.72158934468919
 30
0.0
 40
2.9999999999998859
 50
89.999999999996746
 51
134.999999999995
  0
LINE
  5
245
  8
0
 10
177.7207022023658
 20
138.84290968824899
 30
0.0
 11
175.16384795285171
 21
136.28605543873479
 31
0.0
  0
ARC
  5
246
  8
0
 10
177.28516829641131
 20
134.16473509517519
 30
0.0
 40
2.9999999999999232
 50
134.9999999999996
 51
179.9999999999994
  0
LINE
  5
247
  8
0
 10
174.28516829641131
 20
134.16473509517519
 30
0.0
 11
174.28516829641131
 21
132.47158934468939
 31
0.0
  0
ARC
  5
248
  8
0
 10
175.28516829641131
 20
132.47158934468939
 30
0.0
 40
1.0
 50
180.0
 51
270.0
  0
LINE
  5
249
  8
0
 10
175.28516829641131
 20
131.47158934468939
 30
0.0
 11
176.5351682964386
 21
131.47158934468939
 31
0.0
  0
ARC
  5
24A
  8
0
 10
176.53516829643871
 20
131.77158934468929
 30
0.0
 40
0.2999999999999829
 50
269.99999999999449
 51
359.99999999999449
  0
LINE
  5
24B
  8
0
 10
176.83516829643861
 20
131.77158934468929
 30
0.0
 11
176.8351682964387
 21
132.67158934468929
 31
0.0
  0
ARC
  5
24C
  8
0
 10
177.13516829643871
 20
132.67158934468929
 30
0.0
 40
0.2999999999999829
 50
90.000000000005429
 51
180.0000000000054
  0
LINE
  5
24D
  8
0
 10
177.13516829643859
 20
132.97158934468931
 30
0.0
 11
178.5351682964386
 21
132.97158934468939
 31
0.0
  0
ARC
  5
24E
  8
0
 10
178.53516829645511
 20
132.17158934470601
 30
0.0
 40
0.7999999999833563
 50
0.0000000011806219
 51
90.000000001180624
  0
ARC
  5
24F
  8
0
 10
190.68516829640569
 20
142.3630188923442
 30
0.0
 40
3.0000000000000551
 50
179.99999999999889
 51
224.91858072131919
  0
LINE
  5
250
  8
0
 10
187.68516829640561
 20
142.3630188923442
 30
0.0
 11
187.685168296406
 21
144.47205543877169
 31
0.0
  0
ARC
  5
251
  8
0
 10
188.185168296406
 20
144.4720554387716
 30
0.0
 40
0.5
 50
45.000000000214179
 51
179.99999999999019
  0
LINE
  5
252
  8
0
 10
188.53872168699789
 20
144.82560882936619
 30
0.0
 11
195.68918778110009
 21
137.67514273531839
 31
0.0
  0
ARC
  5
253
  8
0
 10
195.33563439050809
 20
137.3215893447238
 30
0.0
 40
0.500000000000004
 50
270.00000000012369
 51
45.000000000211877
  0
LINE
  5
254
  8
0
 10
195.3356343905092
 20
136.8215893447238
 30
0.0
 11
193.2193851705704
 21
136.8215893447192
 31
0.0
  0
ARC
  5
255
  8
0
 10
193.2193851705639
 20
139.8215893447192
 30
0.0
 40
3.000000000000056
 50
224.9185807213224
 51
270.00000000012369
  0
LINE
  5
256
  8
0
 10
191.09505250048349
 20
137.7032856113444
 30
0.0
 11
188.56083562632529
 21
140.24471515896951
 31
0.0
  0
LINE
  5
257
  8
0
 10
179.82659784405871
 20
150.2215893446911
 30
0.0
 11
181.93563439048631
 21
150.22158934469141
 31
0.0
  0
ARC
  5
258
  8
0
 10
181.9356343904862
 20
150.72158934469141
 30
0.0
 40
0.5
 50
270.00000000001302
 51
44.999999999785821
  0
LINE
  5
259
  8
0
 10
182.28918778108081
 20
151.07514273528341
 30
0.0
 11
175.1387216870329
 21
158.22560882938569
 31
0.0
  0
ARC
  5
25A
  8
0
 10
174.78516829643829
 20
157.87205543879369
 30
0.0
 40
0.499999999999984
 50
44.999999999785821
 51
179.9999999998762
  0
LINE
  5
25B
  8
0
 10
174.28516829643829
 20
157.8720554387948
 30
0.0
 11
174.2851682964336
 21
155.75580621885581
 31
0.0
  0
ARC
  5
25C
  8
0
 10
177.28516829643371
 20
155.75580621884939
 30
0.0
 40
3.0000000000000848
 50
179.9999999998773
 51
225.0814192786784
  0
LINE
  5
25D
  8
0
 10
175.16686456305891
 20
153.63147354876901
 30
0.0
 11
177.70829411068391
 21
151.09725667461061
 31
0.0
  0
ARC
  5
25E
  8
0
 10
179.8265978440586
 20
153.2215893446911
 30
0.0
 40
3.0000000000000142
 50
225.08141927868149
 51
270.0000000000021
  0
LINE
  5
25F
  8
0
 10
170.43516829641129
 20
131.47158934472219
 30
0.0
 11
172.4851682964113
 21
131.47158934472219
 31
0.0
  0
ARC
  5
260
  8
0
 10
172.4851682964113
 20
131.7715893447222
 30
0.0
 40
0.3000000000000398
 50
269.99999999999449
 51
359.99999999999449
  0
LINE
  5
261
  8
0
 10
172.78516829641131
 20
131.7715893447222
 30
0.0
 11
172.7851682964114
 21
135.02158934471751
 31
0.0
  0
ARC
  5
262
  8
0
 10
172.48516829641139
 20
135.02158934471751
 30
0.0
 40
0.3000000000000114
 50
0.0
 51
89.999999999869729
  0
LINE
  5
263
  8
0
 10
172.4851682964121
 20
135.32158934471749
 30
0.0
 11
169.23516829641201
 21
135.32158934472491
 31
0.0
  0
ARC
  5
264
  8
0
 10
169.2351682964113
 20
135.0215893447249
 30
0.0
 40
0.2999999999999261
 50
89.999999999875143
 51
180.0000000000054
  0
LINE
  5
265
  8
0
 10
168.9351682964114
 20
135.0215893447249
 30
0.0
 11
168.93516829641129
 21
132.97158934472219
 31
0.0
  0
ARC
  5
266
  8
0
 10
170.43516829641129
 20
132.97158934472219
 30
0.0
 40
1.5
 50
180.0
 51
270.0
  0
ARC
  5
267
  8
0
 10
169.23516829643651
 20
154.92158934474759
 30
0.0
 40
0.2999999999999829
 50
179.99999999999449
 51
269.99999999999449
  0
LINE
  5
268
  8
0
 10
168.93516829643659
 20
154.92158934474759
 30
0.0
 11
168.93516829643659
 21
156.97158934473191
 31
0.0
  0
ARC
  5
269
  8
0
 10
170.43516829643659
 20
156.97158934473191
 30
0.0
 40
1.5
 50
90.0
 51
180.0
  0
LINE
  5
26A
  8
0
 10
170.43516829643659
 20
158.47158934473191
 30
0.0
 11
172.48516829643901
 21
158.4715893447318
 31
0.0
  0
ARC
  5
26B
  8
0
 10
172.48516829643901
 20
158.17158934473181
 30
0.0
 40
0.2999999999999829
 50
359.99999999988057
 51
90.000000000005429
  0
LINE
  5
26C
  8
0
 10
172.785168296439
 20
158.17158934473119
 30
0.0
 11
172.78516829643189
 21
154.9215893447471
 31
0.0
  0
ARC
  5
26D
  8
0
 10
172.48516829643179
 20
154.9215893447477
 30
0.0
 40
0.3000000000000966
 50
270.00000000000551
 51
359.99999999987517
  0
LINE
  5
26E
  8
0
 10
172.48516829643191
 20
154.6215893447476
 30
0.0
 11
169.23516829643651
 21
154.6215893447476
 31
0.0
  0
ARC
  5
26F
  8
0
 10
194.43516829644651
 20
132.9715893447221
 30
0.0
 40
1.5
 50
270.0
 51
0.0
  0
LINE
  5
270
  8
0
 10
195.93516829644651
 20
132.9715893447221
 30
0.0
 11
195.93516829644639
 21
135.02158934472459
 31
0.0
  0
ARC
  5
271
  8
0
 10
195.63516829644641
 20
135.0215893447245
 30
0.0
 40
0.3000000000000114
 50
0.0000000000108563
 51
90.000000000130271
  0
LINE
  5
272
  8
0
 10
195.6351682964457
 20
135.32158934472449
 30
0.0
 11
192.38516829646159
 21
135.32158934471749
 31
0.0
  0
ARC
  5
273
  8
0
 10
192.3851682964623
 20
135.0215893447174
 30
0.0
 40
0.3000000000000966
 50
90.000000000124842
 51
179.99999999999449
  0
LINE
  5
274
  8
0
 10
192.0851682964622
 20
135.0215893447174
 30
0.0
 11
192.0851682964622
 21
131.77158934472209
 31
0.0
  0
ARC
  5
275
  8
0
 10
192.3851682964623
 20
131.77158934472209
 30
0.0
 40
0.3000000000000398
 50
180.0000000000054
 51
270.00000000000551
  0
LINE
  5
276
  8
0
 10
192.3851682964623
 20
131.47158934472199
 30
0.0
 11
194.43516829644651
 21
131.4715893447221
 31
0.0
  0
LINE
  5
277
  8
3
 10
227.95633603904571
 20
138.7575893447183
 30
0.0
 11
277.95633603904571
 21
138.75758934471679
 31
0.0
  0
LINE
  5
279
  8
0
 10
227.95633603904571
 20
159.97158934472381
 30
0.0
 11
277.95633603904571
 21
159.97158934472381
 31
0.0
  0
LINE
  5
27C
  8
0
 10
227.95633603904571
 20
129.9719702127411
 30
0.0
 11
277.95633603904571
 21
129.9719702127411
 31
0.0
  0
LINE
  5
27D
  8
0
 10
227.95633603904571
 20
159.97158934472381
 30
0.0
 11
227.95633603904571
 21
129.9719702127411
 31
0.0
  0
LINE
  5
27E
  8
0
 10
277.95633603904571
 20
159.97158934472381
 30
0.0
 11
277.95633603904571
 21
129.9719702127411
 31
0.0
  0
LINE
  5
27F
  8
1
 10
222.95633603904571
 20
144.97177977873241
 30
0.0
 11
282.95633603904571
 21
144.97177977873241
 31
0.0
  0
LINE
  5
280
  8
1
 10
136.34293752912461
 20
144.97177977873241
 30
0.0
 11
76.342937529124583
 21
144.97177977873241
 31
0.0
  0
LINE
  5
282
  8
1
 10
162.4355480885321
 20
144.97158925480619
 30
0.0
 11
202.43516829643841
 21
144.97158925483271
 31
0.0
  0
LINE
  5
284
  8
1
 10
182.43516820652431
 20
124.97196913681751
 30
0.0
 11
182.43516820652329
 21
164.97158934472409
 31
0.0
  0
LINE
  5
285
  8
1
 10
182.43516820652431
 20
106.05151501569669
 30
0.0
 11
182.43516820652431
 21
46.051515015696737
 31
0.0
  0
LINE
  5
286
  8
0
 10
197.43497777251571
 20
51.051515015696737
 30
0.0
 11
197.43497777251571
 21
101.05151501569669
 31
0.0
  0
LINE
  5
287
  8
0
 10
185.53535864053291
 20
51.051515015696737
 30
0.0
 11
185.53535864053291
 21
101.05151501569669
 31
0.0
  0
LINE
  5
288
  8
0
 10
179.335358640533
 20
51.051515015696737
 30
0.0
 11
179.335358640533
 21
101.05151501569669
 31
0.0
  0
LINE
  5
289
  8
0
 10
167.43535864053291
 20
51.051515015696737
 30
0.0
 11
167.43535864053291
 21
101.05151501569669
 31
0.0
  0
LINE
  5
28A
  8
0
 10
167.43535864053291
 20
51.051515015696737
 30
0.0
 11
197.43497777251571
 21
51.051515015696737
 31
0.0
  0
LINE
  5
28B
  8
0
 10
167.43535864053291
 20
101.05151501569669
 30
0.0
 11
197.43497777251571
 21
101.05151501569669
 31
0.0
  0
LINE
  5
28C
  8
1
 10
182.43516820652329
 20
182.86931653887109
 30
0.0
 11
182.43516820652329
 21
242.8693165388712
 31
0.0
  0
LINE
  5
28D
  8
0
 62
     3
 10
176.2209777725092
 20
187.86931653887109
 30
0.0
 11
176.22097777250781
 21
237.8693165388712
 31
0.0
  0
LINE
  5
28E
  8
0
 10
167.435358640532
 20
187.86931653887109
 30
0.0
 11
167.435358640532
 21
237.8693165388712
 31
0.0
  0
LINE
  5
28F
  8
0
 10
197.43497777251471
 20
187.86931653887109
 30
0.0
 11
197.43497777251471
 21
237.8693165388712
 31
0.0
  0
LINE
  5
290
  8
0
 10
197.43497777251471
 20
187.86931653887109
 30
0.0
 11
167.435358640532
 21
187.86931653887109
 31
0.0
  0
LINE
  5
291
  8
0
 10
197.43497777251471
 20
237.8693165388712
 30
0.0
 11
167.435358640532
 21
237.8693165388712
 31
0.0
  0
TEXT
  5
4BF
  8
0
 62
     3
 10
0.0
 20
0.0
 30
0.0
 40
10.0
  1
L6-APL3030N-3M
  7
STANDARD1
  0
ENDSEC
  0
EOF
